ISO-10303-21;
HEADER;
FILE_DESCRIPTION(('STEP AP203'),'1');
FILE_NAME('e-30.step','2019-10-07T06:35:55',(' '),(' '),'Spatial InterOp 3D',' ',' ');
FILE_SCHEMA(('CONFIG_CONTROL_DESIGN'));
ENDSEC;
DATA;
#1=DESIGN_CONTEXT('',#29,'design');
#2=APPLICATION_PROTOCOL_DEFINITION('INTERNATIONAL STANDARD','config_control_design',1994,#29);
#3=PRODUCT_CATEGORY_RELATIONSHIP('NONE','NONE',#30,#31);
#4=DATE_AND_TIME(#32,#33);
#5=DATE_TIME_ROLE('creation_date');
#6=DATE_TIME_ROLE('classification_date');
#7=PERSON_AND_ORGANIZATION_ROLE('creator');
#8=PERSON_AND_ORGANIZATION_ROLE('design_supplier');
#9=PERSON_AND_ORGANIZATION_ROLE('classification_officer');
#10=PERSON_AND_ORGANIZATION_ROLE('design_owner');
#11=APPROVAL_PERSON_ORGANIZATION(#34,#35,#36);
#12=APPROVAL_DATE_TIME(#4,#35);
#13=CC_DESIGN_APPROVAL(#35,(#37,#38,#39));
#14=CC_DESIGN_DATE_AND_TIME_ASSIGNMENT(#4,#5,(#39));
#15=CC_DESIGN_DATE_AND_TIME_ASSIGNMENT(#4,#6,(#37));
#16=CC_DESIGN_PERSON_AND_ORGANIZATION_ASSIGNMENT(#34,#10,(#40));
#17=CC_DESIGN_PERSON_AND_ORGANIZATION_ASSIGNMENT(#34,#7,(#39));
#18=CC_DESIGN_PERSON_AND_ORGANIZATION_ASSIGNMENT(#34,#7,(#38));
#19=CC_DESIGN_PERSON_AND_ORGANIZATION_ASSIGNMENT(#34,#8,(#38));
#20=CC_DESIGN_SECURITY_CLASSIFICATION(#37,(#38));
#21=CC_DESIGN_PERSON_AND_ORGANIZATION_ASSIGNMENT(#34,#9,(#37));
#22=SHAPE_DEFINITION_REPRESENTATION(#41,#42);
#23=SHAPE_DEFINITION_REPRESENTATION(#41,#43);
#24=SHAPE_DEFINITION_REPRESENTATION(#41,#44);
#25= (GEOMETRIC_REPRESENTATION_CONTEXT(3)GLOBAL_UNCERTAINTY_ASSIGNED_CONTEXT((#47))GLOBAL_UNIT_ASSIGNED_CONTEXT((#49,#50,#51))REPRESENTATION_CONTEXT('NONE','WORKSPACE'));
#29=APPLICATION_CONTEXT('CONFIGURATION CONTROLLED 3D DESIGNS OF MECHANICAL PARTS AND ASSEMBLIES');
#30=PRODUCT_CATEGORY('part','NONE');
#31=PRODUCT_RELATED_PRODUCT_CATEGORY('detail',' ',(#40));
#32=CALENDAR_DATE(2019,7,9);
#33=LOCAL_TIME(8,35,55.0,#53);
#34=PERSON_AND_ORGANIZATION(#54,#55);
#35=APPROVAL(#56,'SOLID MODEL');
#36=APPROVAL_ROLE('APPROVED');
#37=SECURITY_CLASSIFICATION('','',#57);
#38=PRODUCT_DEFINITION_FORMATION_WITH_SPECIFIED_SOURCE(' ','NONE',#40,.NOT_KNOWN.);
#39=PRODUCT_DEFINITION('','NONE',#38,#1);
#40=PRODUCT('1','','PART--DESC',(#58));
#41=PRODUCT_DEFINITION_SHAPE('NONE','NONE',#39);
#42=ADVANCED_BREP_SHAPE_REPRESENTATION('1',(#59,#60),#25);
#43=ADVANCED_BREP_SHAPE_REPRESENTATION('2',(#61,#62),#25);
#44=ADVANCED_BREP_SHAPE_REPRESENTATION('3',(#63,#64),#25);
#47=UNCERTAINTY_MEASURE_WITH_UNIT(LENGTH_MEASURE(0.001),#49,'','');
#49= (CONVERSION_BASED_UNIT('MILLIMETRE',#67)LENGTH_UNIT()NAMED_UNIT(#70));
#50= (NAMED_UNIT(#72)PLANE_ANGLE_UNIT()SI_UNIT($,.RADIAN.));
#51= (NAMED_UNIT(#72)SOLID_ANGLE_UNIT()SI_UNIT($,.STERADIAN.));
#53=COORDINATED_UNIVERSAL_TIME_OFFSET(1,0,.AHEAD.);
#54=PERSON('','UNSPECIFIED',$,$,$,$);
#55=ORGANIZATION('UNSPECIFIED','UNSPECIFIED','UNSPECIFIED');
#56=APPROVAL_STATUS('approved');
#57=SECURITY_CLASSIFICATION_LEVEL('unclassified');
#58=MECHANICAL_CONTEXT('',#29,'mechanical');
#59=MANIFOLD_SOLID_BREP('1',#78);
#60=AXIS2_PLACEMENT_3D('',#79,#80,#81);
#61=MANIFOLD_SOLID_BREP('2',#82);
#62=AXIS2_PLACEMENT_3D('',#83,#84,#85);
#63=MANIFOLD_SOLID_BREP('3',#86);
#64=AXIS2_PLACEMENT_3D('',#87,#88,#89);
#67=LENGTH_MEASURE_WITH_UNIT(LENGTH_MEASURE(1.0),#90);
#70=DIMENSIONAL_EXPONENTS(1.0,0.0,0.0,0.0,0.0,0.0,0.0);
#72=DIMENSIONAL_EXPONENTS(0.0,0.0,0.0,0.0,0.0,0.0,0.0);
#78=CLOSED_SHELL('',(#91,#92,#93,#94,#95,#96,#97,#98,#99,#100,#101,#102));
#79=CARTESIAN_POINT('',(0.0,0.0,0.0));
#80=DIRECTION('',(0.0,0.0,1.0));
#81=DIRECTION('',(1.0,0.0,0.0));
#82=CLOSED_SHELL('',(#103,#104,#105,#106));
#83=CARTESIAN_POINT('',(0.0,0.0,0.0));
#84=DIRECTION('',(0.0,0.0,1.0));
#85=DIRECTION('',(1.0,0.0,0.0));
#86=CLOSED_SHELL('',(#107,#108,#109,#110,#111,#112,#113,#114,#115,#116,#117,#118));
#87=CARTESIAN_POINT('',(0.0,0.0,0.0));
#88=DIRECTION('',(0.0,0.0,1.0));
#89=DIRECTION('',(1.0,0.0,0.0));
#90= (NAMED_UNIT(#70)LENGTH_UNIT()SI_UNIT(.MILLI.,.METRE.));
#91=ADVANCED_FACE('',(#120,#121),#122,.F.);
#92=ADVANCED_FACE('',(#123,#124),#125,.F.);
#93=ADVANCED_FACE('',(#126),#127,.F.);
#94=ADVANCED_FACE('',(#128,#129),#130,.F.);
#95=ADVANCED_FACE('',(#131),#132,.T.);
#96=ADVANCED_FACE('',(#133,#134),#135,.F.);
#97=ADVANCED_FACE('',(#136,#137),#138,.F.);
#98=ADVANCED_FACE('',(#139),#140,.T.);
#99=ADVANCED_FACE('',(#141,#142),#143,.F.);
#100=ADVANCED_FACE('',(#144),#145,.F.);
#101=ADVANCED_FACE('',(#146),#147,.T.);
#102=ADVANCED_FACE('',(#148,#149),#150,.F.);
#103=ADVANCED_FACE('',(#151,#152),#153,.F.);
#104=ADVANCED_FACE('',(#154,#155),#156,.T.);
#105=ADVANCED_FACE('',(#157,#158),#159,.F.);
#106=ADVANCED_FACE('',(#160,#161),#162,.T.);
#107=ADVANCED_FACE('',(#163,#164),#165,.F.);
#108=ADVANCED_FACE('',(#166),#167,.F.);
#109=ADVANCED_FACE('',(#168),#169,.F.);
#110=ADVANCED_FACE('',(#170,#171),#172,.T.);
#111=ADVANCED_FACE('',(#173),#174,.T.);
#112=ADVANCED_FACE('',(#175,#176),#177,.T.);
#113=ADVANCED_FACE('',(#178),#179,.T.);
#114=ADVANCED_FACE('',(#180),#181,.F.);
#115=ADVANCED_FACE('',(#182,#183),#184,.T.);
#116=ADVANCED_FACE('',(#185,#186),#187,.F.);
#117=ADVANCED_FACE('',(#188,#189),#190,.F.);
#118=ADVANCED_FACE('',(#191,#192),#193,.F.);
#120=FACE_OUTER_BOUND('',#194,.T.);
#121=FACE_OUTER_BOUND('',#195,.T.);
#122=CYLINDRICAL_SURFACE('',#196,5.0);
#123=FACE_BOUND('',#197,.T.);
#124=FACE_OUTER_BOUND('',#198,.T.);
#125=PLANE('',#199);
#126=FACE_OUTER_BOUND('',#200,.T.);
#127=CYLINDRICAL_SURFACE('',#201,12.5);
#128=FACE_BOUND('',#202,.T.);
#129=FACE_OUTER_BOUND('',#203,.T.);
#130=PLANE('',#204);
#131=FACE_OUTER_BOUND('',#205,.T.);
#132=PLANE('',#206);
#133=FACE_OUTER_BOUND('',#207,.T.);
#134=FACE_OUTER_BOUND('',#208,.T.);
#135=CYLINDRICAL_SURFACE('',#209,14.95);
#136=FACE_BOUND('',#210,.T.);
#137=FACE_OUTER_BOUND('',#211,.T.);
#138=PLANE('',#212);
#139=FACE_OUTER_BOUND('',#213,.T.);
#140=CYLINDRICAL_SURFACE('',#214,17.0);
#141=FACE_BOUND('',#215,.T.);
#142=FACE_OUTER_BOUND('',#216,.T.);
#143=PLANE('',#217);
#144=FACE_OUTER_BOUND('',#218,.T.);
#145=PLANE('',#219);
#146=FACE_OUTER_BOUND('',#220,.T.);
#147=PLANE('',#221);
#148=FACE_OUTER_BOUND('',#222,.T.);
#149=FACE_OUTER_BOUND('',#223,.T.);
#150=CYLINDRICAL_SURFACE('',#224,2.0);
#151=FACE_BOUND('',#225,.T.);
#152=FACE_OUTER_BOUND('',#226,.T.);
#153=PLANE('',#227);
#154=FACE_BOUND('',#228,.T.);
#155=FACE_OUTER_BOUND('',#229,.T.);
#156=PLANE('',#230);
#157=FACE_OUTER_BOUND('',#231,.T.);
#158=FACE_OUTER_BOUND('',#232,.T.);
#159=CYLINDRICAL_SURFACE('',#233,12.95);
#160=FACE_OUTER_BOUND('',#234,.T.);
#161=FACE_OUTER_BOUND('',#235,.T.);
#162=CYLINDRICAL_SURFACE('',#236,14.95);
#163=FACE_OUTER_BOUND('',#237,.T.);
#164=FACE_OUTER_BOUND('',#238,.T.);
#165=CYLINDRICAL_SURFACE('',#239,14.95);
#166=FACE_OUTER_BOUND('',#240,.T.);
#167=PLANE('',#241);
#168=FACE_OUTER_BOUND('',#242,.T.);
#169=CYLINDRICAL_SURFACE('',#243,12.5);
#170=FACE_BOUND('',#244,.T.);
#171=FACE_OUTER_BOUND('',#245,.T.);
#172=PLANE('',#246);
#173=FACE_OUTER_BOUND('',#247,.T.);
#174=PLANE('',#248);
#175=FACE_BOUND('',#249,.T.);
#176=FACE_OUTER_BOUND('',#250,.T.);
#177=PLANE('',#251);
#178=FACE_OUTER_BOUND('',#252,.T.);
#179=CYLINDRICAL_SURFACE('',#253,17.0);
#180=FACE_OUTER_BOUND('',#254,.T.);
#181=PLANE('',#255);
#182=FACE_BOUND('',#256,.T.);
#183=FACE_OUTER_BOUND('',#257,.T.);
#184=PLANE('',#258);
#185=FACE_OUTER_BOUND('',#259,.T.);
#186=FACE_OUTER_BOUND('',#260,.T.);
#187=CYLINDRICAL_SURFACE('',#261,2.0);
#188=FACE_OUTER_BOUND('',#262,.T.);
#189=FACE_OUTER_BOUND('',#263,.T.);
#190=CYLINDRICAL_SURFACE('',#264,5.0);
#191=FACE_BOUND('',#265,.T.);
#192=FACE_OUTER_BOUND('',#266,.T.);
#193=PLANE('',#267);
#194=EDGE_LOOP('',(#268));
#195=EDGE_LOOP('',(#269));
#196=AXIS2_PLACEMENT_3D('',#270,#271,#272);
#197=EDGE_LOOP('',(#273));
#198=EDGE_LOOP('',(#274));
#199=AXIS2_PLACEMENT_3D('',#275,#276,#277);
#200=EDGE_LOOP('',(#278,#279,#280,#281));
#201=AXIS2_PLACEMENT_3D('',#282,#283,#284);
#202=EDGE_LOOP('',(#285));
#203=EDGE_LOOP('',(#286,#287,#288,#289));
#204=AXIS2_PLACEMENT_3D('',#290,#291,#292);
#205=EDGE_LOOP('',(#293,#294,#295,#296,#297));
#206=AXIS2_PLACEMENT_3D('',#298,#299,#300);
#207=EDGE_LOOP('',(#301));
#208=EDGE_LOOP('',(#302));
#209=AXIS2_PLACEMENT_3D('',#303,#304,#305);
#210=EDGE_LOOP('',(#306));
#211=EDGE_LOOP('',(#307,#308,#309,#310,#311));
#212=AXIS2_PLACEMENT_3D('',#312,#313,#314);
#213=EDGE_LOOP('',(#315,#316,#317,#318));
#214=AXIS2_PLACEMENT_3D('',#319,#320,#321);
#215=EDGE_LOOP('',(#322));
#216=EDGE_LOOP('',(#323,#324,#325,#326));
#217=AXIS2_PLACEMENT_3D('',#327,#328,#329);
#218=EDGE_LOOP('',(#330,#331,#332,#333));
#219=AXIS2_PLACEMENT_3D('',#334,#335,#336);
#220=EDGE_LOOP('',(#337));
#221=AXIS2_PLACEMENT_3D('',#338,#339,#340);
#222=EDGE_LOOP('',(#341));
#223=EDGE_LOOP('',(#342));
#224=AXIS2_PLACEMENT_3D('',#343,#344,#345);
#225=EDGE_LOOP('',(#346));
#226=EDGE_LOOP('',(#347));
#227=AXIS2_PLACEMENT_3D('',#348,#349,#350);
#228=EDGE_LOOP('',(#351));
#229=EDGE_LOOP('',(#352));
#230=AXIS2_PLACEMENT_3D('',#353,#354,#355);
#231=EDGE_LOOP('',(#356));
#232=EDGE_LOOP('',(#357));
#233=AXIS2_PLACEMENT_3D('',#358,#359,#360);
#234=EDGE_LOOP('',(#361));
#235=EDGE_LOOP('',(#362));
#236=AXIS2_PLACEMENT_3D('',#363,#364,#365);
#237=EDGE_LOOP('',(#366));
#238=EDGE_LOOP('',(#367));
#239=AXIS2_PLACEMENT_3D('',#368,#369,#370);
#240=EDGE_LOOP('',(#371));
#241=AXIS2_PLACEMENT_3D('',#372,#373,#374);
#242=EDGE_LOOP('',(#375,#376,#377,#378));
#243=AXIS2_PLACEMENT_3D('',#379,#380,#381);
#244=EDGE_LOOP('',(#382));
#245=EDGE_LOOP('',(#383,#384,#385,#386));
#246=AXIS2_PLACEMENT_3D('',#387,#388,#389);
#247=EDGE_LOOP('',(#390,#391,#392,#393));
#248=AXIS2_PLACEMENT_3D('',#394,#395,#396);
#249=EDGE_LOOP('',(#397));
#250=EDGE_LOOP('',(#398,#399,#400,#401));
#251=AXIS2_PLACEMENT_3D('',#402,#403,#404);
#252=EDGE_LOOP('',(#405,#406,#407,#408));
#253=AXIS2_PLACEMENT_3D('',#409,#410,#411);
#254=EDGE_LOOP('',(#412,#413,#414,#415,#416));
#255=AXIS2_PLACEMENT_3D('',#417,#418,#419);
#256=EDGE_LOOP('',(#420));
#257=EDGE_LOOP('',(#421,#422,#423,#424,#425));
#258=AXIS2_PLACEMENT_3D('',#426,#427,#428);
#259=EDGE_LOOP('',(#429));
#260=EDGE_LOOP('',(#430));
#261=AXIS2_PLACEMENT_3D('',#431,#432,#433);
#262=EDGE_LOOP('',(#434));
#263=EDGE_LOOP('',(#435));
#264=AXIS2_PLACEMENT_3D('',#436,#437,#438);
#265=EDGE_LOOP('',(#439));
#266=EDGE_LOOP('',(#440));
#267=AXIS2_PLACEMENT_3D('',#441,#442,#443);
#268=ORIENTED_EDGE('',*,*,#444,.F.);
#269=ORIENTED_EDGE('',*,*,#445,.F.);
#270=CARTESIAN_POINT('',(-56.95,-15.0,28.5));
#271=DIRECTION('',(0.0,-1.0,0.0));
#272=DIRECTION('',(0.0,0.0,-1.0));
#273=ORIENTED_EDGE('',*,*,#446,.F.);
#274=ORIENTED_EDGE('',*,*,#445,.T.);
#275=CARTESIAN_POINT('',(-56.95,-15.0,28.5));
#276=DIRECTION('',(0.0,1.0,0.0));
#277=DIRECTION('',(0.0,0.0,1.0));
#278=ORIENTED_EDGE('',*,*,#447,.T.);
#279=ORIENTED_EDGE('',*,*,#448,.F.);
#280=ORIENTED_EDGE('',*,*,#449,.F.);
#281=ORIENTED_EDGE('',*,*,#450,.T.);
#282=CARTESIAN_POINT('',(-29.4957624075053,0.5,50.0));
#283=DIRECTION('',(0.0,0.0,-1.0));
#284=DIRECTION('',(0.0,-1.0,0.0));
#285=ORIENTED_EDGE('',*,*,#451,.T.);
#286=ORIENTED_EDGE('',*,*,#452,.T.);
#287=ORIENTED_EDGE('',*,*,#453,.F.);
#288=ORIENTED_EDGE('',*,*,#454,.F.);
#289=ORIENTED_EDGE('',*,*,#448,.T.);
#290=CARTESIAN_POINT('',(-29.4957624075053,-12.0,50.0));
#291=DIRECTION('',(0.0,-1.0,0.0));
#292=DIRECTION('',(1.0,0.0,0.0));
#293=ORIENTED_EDGE('',*,*,#447,.F.);
#294=ORIENTED_EDGE('',*,*,#455,.F.);
#295=ORIENTED_EDGE('',*,*,#456,.F.);
#296=ORIENTED_EDGE('',*,*,#457,.F.);
#297=ORIENTED_EDGE('',*,*,#452,.F.);
#298=CARTESIAN_POINT('',(-29.4957624075053,0.5,0.0));
#299=DIRECTION('',(0.0,0.0,-1.0));
#300=DIRECTION('',(0.0,-1.0,0.0));
#301=ORIENTED_EDGE('',*,*,#458,.F.);
#302=ORIENTED_EDGE('',*,*,#459,.T.);
#303=CARTESIAN_POINT('',(0.0,0.0,70.0109999999091));
#304=DIRECTION('',(0.0,0.0,-1.0));
#305=DIRECTION('',(-1.0,0.0,0.0));
#306=ORIENTED_EDGE('',*,*,#459,.F.);
#307=ORIENTED_EDGE('',*,*,#449,.T.);
#308=ORIENTED_EDGE('',*,*,#454,.T.);
#309=ORIENTED_EDGE('',*,*,#460,.T.);
#310=ORIENTED_EDGE('',*,*,#461,.T.);
#311=ORIENTED_EDGE('',*,*,#462,.T.);
#312=CARTESIAN_POINT('',(-29.4957624075053,0.5,50.0));
#313=DIRECTION('',(0.0,0.0,-1.0));
#314=DIRECTION('',(0.0,-1.0,0.0));
#315=ORIENTED_EDGE('',*,*,#455,.T.);
#316=ORIENTED_EDGE('',*,*,#450,.F.);
#317=ORIENTED_EDGE('',*,*,#462,.F.);
#318=ORIENTED_EDGE('',*,*,#463,.T.);
#319=CARTESIAN_POINT('',(0.0,0.0,50.0));
#320=DIRECTION('',(0.0,0.0,-1.0));
#321=DIRECTION('',(0.0,-1.0,0.0));
#322=ORIENTED_EDGE('',*,*,#444,.T.);
#323=ORIENTED_EDGE('',*,*,#456,.T.);
#324=ORIENTED_EDGE('',*,*,#463,.F.);
#325=ORIENTED_EDGE('',*,*,#461,.F.);
#326=ORIENTED_EDGE('',*,*,#464,.T.);
#327=CARTESIAN_POINT('',(-71.95,-17.0,50.0));
#328=DIRECTION('',(0.0,1.0,0.0));
#329=DIRECTION('',(-1.0,0.0,0.0));
#330=ORIENTED_EDGE('',*,*,#457,.T.);
#331=ORIENTED_EDGE('',*,*,#464,.F.);
#332=ORIENTED_EDGE('',*,*,#460,.F.);
#333=ORIENTED_EDGE('',*,*,#453,.T.);
#334=CARTESIAN_POINT('',(-71.95,-12.0,50.0));
#335=DIRECTION('',(1.0,-6.93889390390723E-17,0.0));
#336=DIRECTION('',(6.93889390390723E-17,1.0,0.0));
#337=ORIENTED_EDGE('',*,*,#458,.T.);
#338=CARTESIAN_POINT('',(0.0,0.0,30.0));
#339=DIRECTION('',(0.0,0.0,1.0));
#340=DIRECTION('',(1.0,0.0,0.0));
#341=ORIENTED_EDGE('',*,*,#446,.T.);
#342=ORIENTED_EDGE('',*,*,#451,.F.);
#343=CARTESIAN_POINT('',(-56.95,-9.99999999989086,28.5));
#344=DIRECTION('',(0.0,-1.0,0.0));
#345=DIRECTION('',(0.0,0.0,-1.0));
#346=ORIENTED_EDGE('',*,*,#465,.T.);
#347=ORIENTED_EDGE('',*,*,#466,.F.);
#348=CARTESIAN_POINT('',(0.0,0.0,30.0));
#349=DIRECTION('',(0.0,0.0,1.0));
#350=DIRECTION('',(1.0,0.0,0.0));
#351=ORIENTED_EDGE('',*,*,#467,.F.);
#352=ORIENTED_EDGE('',*,*,#468,.T.);
#353=CARTESIAN_POINT('',(0.0,0.0,440.0));
#354=DIRECTION('',(0.0,0.0,1.0));
#355=DIRECTION('',(1.0,0.0,0.0));
#356=ORIENTED_EDGE('',*,*,#467,.T.);
#357=ORIENTED_EDGE('',*,*,#465,.F.);
#358=CARTESIAN_POINT('',(0.0,0.0,440.0));
#359=DIRECTION('',(0.0,0.0,-1.0));
#360=DIRECTION('',(-1.0,0.0,0.0));
#361=ORIENTED_EDGE('',*,*,#468,.F.);
#362=ORIENTED_EDGE('',*,*,#466,.T.);
#363=CARTESIAN_POINT('',(0.0,0.0,440.0));
#364=DIRECTION('',(0.0,0.0,-1.0));
#365=DIRECTION('',(-1.0,0.0,0.0));
#366=ORIENTED_EDGE('',*,*,#469,.F.);
#367=ORIENTED_EDGE('',*,*,#470,.F.);
#368=CARTESIAN_POINT('',(0.0,0.0,440.0));
#369=DIRECTION('',(0.0,0.0,-1.0));
#370=DIRECTION('',(-1.0,0.0,0.0));
#371=ORIENTED_EDGE('',*,*,#470,.T.);
#372=CARTESIAN_POINT('',(0.0,0.0,440.0));
#373=DIRECTION('',(0.0,0.0,1.0));
#374=DIRECTION('',(1.0,0.0,0.0));
#375=ORIENTED_EDGE('',*,*,#471,.F.);
#376=ORIENTED_EDGE('',*,*,#472,.F.);
#377=ORIENTED_EDGE('',*,*,#473,.T.);
#378=ORIENTED_EDGE('',*,*,#474,.T.);
#379=CARTESIAN_POINT('',(-29.4957624075053,0.5,420.0));
#380=DIRECTION('',(0.0,-0.0,1.0));
#381=DIRECTION('',(0.0,1.0,0.0));
#382=ORIENTED_EDGE('',*,*,#475,.F.);
#383=ORIENTED_EDGE('',*,*,#476,.F.);
#384=ORIENTED_EDGE('',*,*,#474,.F.);
#385=ORIENTED_EDGE('',*,*,#477,.T.);
#386=ORIENTED_EDGE('',*,*,#478,.T.);
#387=CARTESIAN_POINT('',(-29.4957624075053,-12.0,420.0));
#388=DIRECTION('',(-0.0,1.0,0.0));
#389=DIRECTION('',(1.0,0.0,0.0));
#390=ORIENTED_EDGE('',*,*,#479,.F.);
#391=ORIENTED_EDGE('',*,*,#478,.F.);
#392=ORIENTED_EDGE('',*,*,#480,.T.);
#393=ORIENTED_EDGE('',*,*,#481,.T.);
#394=CARTESIAN_POINT('',(-71.95,-12.0,420.0));
#395=DIRECTION('',(-1.0,6.93889390390723E-17,0.0));
#396=DIRECTION('',(6.93889390390723E-17,1.0,0.0));
#397=ORIENTED_EDGE('',*,*,#482,.T.);
#398=ORIENTED_EDGE('',*,*,#483,.F.);
#399=ORIENTED_EDGE('',*,*,#481,.F.);
#400=ORIENTED_EDGE('',*,*,#484,.T.);
#401=ORIENTED_EDGE('',*,*,#485,.T.);
#402=CARTESIAN_POINT('',(-71.95,-17.0,420.0));
#403=DIRECTION('',(0.0,-1.0,0.0));
#404=DIRECTION('',(-1.0,0.0,0.0));
#405=ORIENTED_EDGE('',*,*,#486,.F.);
#406=ORIENTED_EDGE('',*,*,#485,.F.);
#407=ORIENTED_EDGE('',*,*,#487,.T.);
#408=ORIENTED_EDGE('',*,*,#472,.T.);
#409=CARTESIAN_POINT('',(0.0,0.0,420.0));
#410=DIRECTION('',(0.0,-0.0,1.0));
#411=DIRECTION('',(0.0,1.0,0.0));
#412=ORIENTED_EDGE('',*,*,#471,.T.);
#413=ORIENTED_EDGE('',*,*,#476,.T.);
#414=ORIENTED_EDGE('',*,*,#479,.T.);
#415=ORIENTED_EDGE('',*,*,#483,.T.);
#416=ORIENTED_EDGE('',*,*,#486,.T.);
#417=CARTESIAN_POINT('',(-29.4957624075053,0.5,470.0));
#418=DIRECTION('',(0.0,0.0,-1.0));
#419=DIRECTION('',(0.0,-1.0,0.0));
#420=ORIENTED_EDGE('',*,*,#469,.T.);
#421=ORIENTED_EDGE('',*,*,#473,.F.);
#422=ORIENTED_EDGE('',*,*,#487,.F.);
#423=ORIENTED_EDGE('',*,*,#484,.F.);
#424=ORIENTED_EDGE('',*,*,#480,.F.);
#425=ORIENTED_EDGE('',*,*,#477,.F.);
#426=CARTESIAN_POINT('',(-29.4957624075053,0.5,420.0));
#427=DIRECTION('',(0.0,0.0,-1.0));
#428=DIRECTION('',(0.0,-1.0,0.0));
#429=ORIENTED_EDGE('',*,*,#475,.T.);
#430=ORIENTED_EDGE('',*,*,#488,.T.);
#431=CARTESIAN_POINT('',(-56.95,-9.99999999989086,441.5));
#432=DIRECTION('',(0.0,-1.0,0.0));
#433=DIRECTION('',(-1.0,0.0,0.0));
#434=ORIENTED_EDGE('',*,*,#482,.F.);
#435=ORIENTED_EDGE('',*,*,#489,.F.);
#436=CARTESIAN_POINT('',(-56.95,-15.0,441.5));
#437=DIRECTION('',(0.0,-1.0,0.0));
#438=DIRECTION('',(-1.0,0.0,0.0));
#439=ORIENTED_EDGE('',*,*,#488,.F.);
#440=ORIENTED_EDGE('',*,*,#489,.T.);
#441=CARTESIAN_POINT('',(-56.95,-15.0,441.5));
#442=DIRECTION('',(0.0,1.0,0.0));
#443=DIRECTION('',(0.0,0.0,1.0));
#444=EDGE_CURVE('',#490,#490,#491,.T.);
#445=EDGE_CURVE('',#492,#492,#493,.T.);
#446=EDGE_CURVE('',#494,#494,#495,.F.);
#447=EDGE_CURVE('',#496,#497,#498,.T.);
#448=EDGE_CURVE('',#499,#497,#500,.T.);
#449=EDGE_CURVE('',#501,#499,#502,.T.);
#450=EDGE_CURVE('',#501,#496,#503,.T.);
#451=EDGE_CURVE('',#504,#504,#505,.T.);
#452=EDGE_CURVE('',#497,#506,#507,.T.);
#453=EDGE_CURVE('',#508,#506,#509,.T.);
#454=EDGE_CURVE('',#499,#508,#510,.T.);
#455=EDGE_CURVE('',#511,#496,#512,.T.);
#456=EDGE_CURVE('',#513,#511,#514,.T.);
#457=EDGE_CURVE('',#506,#513,#515,.T.);
#458=EDGE_CURVE('',#516,#516,#517,.T.);
#459=EDGE_CURVE('',#518,#518,#519,.F.);
#460=EDGE_CURVE('',#508,#520,#521,.T.);
#461=EDGE_CURVE('',#520,#522,#523,.T.);
#462=EDGE_CURVE('',#522,#501,#524,.T.);
#463=EDGE_CURVE('',#522,#511,#525,.T.);
#464=EDGE_CURVE('',#520,#513,#526,.T.);
#465=EDGE_CURVE('',#527,#527,#528,.T.);
#466=EDGE_CURVE('',#529,#529,#530,.T.);
#467=EDGE_CURVE('',#531,#531,#532,.T.);
#468=EDGE_CURVE('',#533,#533,#534,.T.);
#469=EDGE_CURVE('',#535,#535,#536,.T.);
#470=EDGE_CURVE('',#537,#537,#538,.T.);
#471=EDGE_CURVE('',#539,#540,#541,.T.);
#472=EDGE_CURVE('',#542,#539,#543,.T.);
#473=EDGE_CURVE('',#542,#544,#545,.T.);
#474=EDGE_CURVE('',#544,#540,#546,.T.);
#475=EDGE_CURVE('',#547,#547,#548,.T.);
#476=EDGE_CURVE('',#540,#549,#550,.T.);
#477=EDGE_CURVE('',#544,#551,#552,.T.);
#478=EDGE_CURVE('',#551,#549,#553,.T.);
#479=EDGE_CURVE('',#549,#554,#555,.T.);
#480=EDGE_CURVE('',#551,#556,#557,.T.);
#481=EDGE_CURVE('',#556,#554,#558,.T.);
#482=EDGE_CURVE('',#559,#559,#560,.T.);
#483=EDGE_CURVE('',#554,#561,#562,.T.);
#484=EDGE_CURVE('',#556,#563,#564,.T.);
#485=EDGE_CURVE('',#563,#561,#565,.T.);
#486=EDGE_CURVE('',#561,#539,#566,.T.);
#487=EDGE_CURVE('',#563,#542,#567,.T.);
#488=EDGE_CURVE('',#568,#568,#569,.F.);
#489=EDGE_CURVE('',#570,#570,#571,.T.);
#490=VERTEX_POINT('',#572);
#491=CIRCLE('',#573,5.0);
#492=VERTEX_POINT('',#574);
#493=CIRCLE('',#575,5.0);
#494=VERTEX_POINT('',#576);
#495=CIRCLE('',#577,2.0);
#496=VERTEX_POINT('',#578);
#497=VERTEX_POINT('',#579);
#498=CIRCLE('',#580,12.5);
#499=VERTEX_POINT('',#581);
#500=LINE('',#582,#583);
#501=VERTEX_POINT('',#584);
#502=CIRCLE('',#585,12.5);
#503=LINE('',#586,#587);
#504=VERTEX_POINT('',#588);
#505=CIRCLE('',#589,2.0);
#506=VERTEX_POINT('',#590);
#507=LINE('',#591,#592);
#508=VERTEX_POINT('',#593);
#509=LINE('',#594,#595);
#510=LINE('',#596,#597);
#511=VERTEX_POINT('',#598);
#512=CIRCLE('',#599,17.0);
#513=VERTEX_POINT('',#600);
#514=LINE('',#601,#602);
#515=LINE('',#603,#604);
#516=VERTEX_POINT('',#605);
#517=CIRCLE('',#606,14.95);
#518=VERTEX_POINT('',#607);
#519=CIRCLE('',#608,14.95);
#520=VERTEX_POINT('',#609);
#521=LINE('',#610,#611);
#522=VERTEX_POINT('',#612);
#523=LINE('',#613,#614);
#524=CIRCLE('',#615,17.0);
#525=LINE('',#616,#617);
#526=LINE('',#618,#619);
#527=VERTEX_POINT('',#620);
#528=CIRCLE('',#621,12.95);
#529=VERTEX_POINT('',#622);
#530=CIRCLE('',#623,14.95);
#531=VERTEX_POINT('',#624);
#532=CIRCLE('',#625,12.95);
#533=VERTEX_POINT('',#626);
#534=CIRCLE('',#627,14.95);
#535=VERTEX_POINT('',#628);
#536=CIRCLE('',#629,14.95);
#537=VERTEX_POINT('',#630);
#538=CIRCLE('',#631,14.95);
#539=VERTEX_POINT('',#632);
#540=VERTEX_POINT('',#633);
#541=CIRCLE('',#634,12.5);
#542=VERTEX_POINT('',#635);
#543=LINE('',#636,#637);
#544=VERTEX_POINT('',#638);
#545=CIRCLE('',#639,12.5);
#546=LINE('',#640,#641);
#547=VERTEX_POINT('',#642);
#548=CIRCLE('',#643,2.0);
#549=VERTEX_POINT('',#644);
#550=LINE('',#645,#646);
#551=VERTEX_POINT('',#647);
#552=LINE('',#648,#649);
#553=LINE('',#650,#651);
#554=VERTEX_POINT('',#652);
#555=LINE('',#653,#654);
#556=VERTEX_POINT('',#655);
#557=LINE('',#656,#657);
#558=LINE('',#658,#659);
#559=VERTEX_POINT('',#660);
#560=CIRCLE('',#661,5.0);
#561=VERTEX_POINT('',#662);
#562=LINE('',#663,#664);
#563=VERTEX_POINT('',#665);
#564=LINE('',#666,#667);
#565=LINE('',#668,#669);
#566=CIRCLE('',#670,17.0);
#567=CIRCLE('',#671,17.0);
#568=VERTEX_POINT('',#672);
#569=CIRCLE('',#673,2.0);
#570=VERTEX_POINT('',#674);
#571=CIRCLE('',#675,5.0);
#572=CARTESIAN_POINT('',(-56.95,-17.0,23.5));
#573=AXIS2_PLACEMENT_3D('',#676,#677,#678);
#574=CARTESIAN_POINT('',(-56.95,-15.0,23.5));
#575=AXIS2_PLACEMENT_3D('',#679,#680,#681);
#576=CARTESIAN_POINT('',(-56.95,-15.0,30.5));
#577=AXIS2_PLACEMENT_3D('',#682,#683,#684);
#578=CARTESIAN_POINT('',(-16.9975579975454,0.288135593220317,0.0));
#579=CARTESIAN_POINT('',(-29.4957624075053,-12.0,0.0));
#580=AXIS2_PLACEMENT_3D('',#685,#686,#687);
#581=CARTESIAN_POINT('',(-29.4957624075053,-12.0,50.0));
#582=CARTESIAN_POINT('',(-29.4957624075053,-12.0,50.0));
#583=VECTOR('',#688,1.0);
#584=CARTESIAN_POINT('',(-16.9975579975454,0.288135593220317,50.0));
#585=AXIS2_PLACEMENT_3D('',#689,#690,#691);
#586=CARTESIAN_POINT('',(-16.9975579975454,0.288135593220317,50.0));
#587=VECTOR('',#692,1.0);
#588=CARTESIAN_POINT('',(-56.95,-12.0,26.5));
#589=AXIS2_PLACEMENT_3D('',#693,#694,#695);
#590=CARTESIAN_POINT('',(-71.95,-12.0,0.0));
#591=CARTESIAN_POINT('',(-29.4957624075053,-12.0,0.0));
#592=VECTOR('',#696,1.0);
#593=CARTESIAN_POINT('',(-71.95,-12.0,50.0));
#594=CARTESIAN_POINT('',(-71.95,-12.0,50.0));
#595=VECTOR('',#697,1.0);
#596=CARTESIAN_POINT('',(-29.4957624075053,-12.0,50.0));
#597=VECTOR('',#698,1.0);
#598=CARTESIAN_POINT('',(0.0,-17.0,0.0));
#599=AXIS2_PLACEMENT_3D('',#699,#700,#701);
#600=CARTESIAN_POINT('',(-71.95,-17.0,0.0));
#601=CARTESIAN_POINT('',(-71.95,-17.0,0.0));
#602=VECTOR('',#702,1.0);
#603=CARTESIAN_POINT('',(-71.95,-12.0,0.0));
#604=VECTOR('',#703,1.0);
#605=CARTESIAN_POINT('',(14.95,0.0,30.0));
#606=AXIS2_PLACEMENT_3D('',#704,#705,#706);
#607=CARTESIAN_POINT('',(-14.95,-3.66169392945059E-15,50.0));
#608=AXIS2_PLACEMENT_3D('',#707,#708,#709);
#609=CARTESIAN_POINT('',(-71.95,-17.0,50.0));
#610=CARTESIAN_POINT('',(-71.95,-12.0,50.0));
#611=VECTOR('',#710,1.0);
#612=CARTESIAN_POINT('',(0.0,-17.0,50.0));
#613=CARTESIAN_POINT('',(-71.95,-17.0,50.0));
#614=VECTOR('',#711,1.0);
#615=AXIS2_PLACEMENT_3D('',#712,#713,#714);
#616=CARTESIAN_POINT('',(0.0,-17.0,50.0));
#617=VECTOR('',#715,1.0);
#618=CARTESIAN_POINT('',(-71.95,-17.0,50.0));
#619=VECTOR('',#716,1.0);
#620=CARTESIAN_POINT('',(12.95,0.0,30.0));
#621=AXIS2_PLACEMENT_3D('',#717,#718,#719);
#622=CARTESIAN_POINT('',(14.95,0.0,30.0));
#623=AXIS2_PLACEMENT_3D('',#720,#721,#722);
#624=CARTESIAN_POINT('',(12.95,0.0,440.0));
#625=AXIS2_PLACEMENT_3D('',#723,#724,#725);
#626=CARTESIAN_POINT('',(14.95,0.0,440.0));
#627=AXIS2_PLACEMENT_3D('',#726,#727,#728);
#628=CARTESIAN_POINT('',(-14.95,0.0,420.0));
#629=AXIS2_PLACEMENT_3D('',#729,#730,#731);
#630=CARTESIAN_POINT('',(-14.95,0.0,440.0));
#631=AXIS2_PLACEMENT_3D('',#732,#733,#734);
#632=CARTESIAN_POINT('',(-16.9975579975454,0.288135593220317,470.0));
#633=CARTESIAN_POINT('',(-29.4957624075053,-12.0,470.0));
#634=AXIS2_PLACEMENT_3D('',#735,#736,#737);
#635=CARTESIAN_POINT('',(-16.9975579975454,0.288135593220317,420.0));
#636=CARTESIAN_POINT('',(-16.9975579975454,0.288135593220317,420.0));
#637=VECTOR('',#738,1.0);
#638=CARTESIAN_POINT('',(-29.4957624075053,-12.0,420.0));
#639=AXIS2_PLACEMENT_3D('',#739,#740,#741);
#640=CARTESIAN_POINT('',(-29.4957624075053,-12.0,420.0));
#641=VECTOR('',#742,1.0);
#642=CARTESIAN_POINT('',(-56.95,-12.0,443.5));
#643=AXIS2_PLACEMENT_3D('',#743,#744,#745);
#644=CARTESIAN_POINT('',(-71.95,-12.0,470.0));
#645=CARTESIAN_POINT('',(-29.4957624075053,-12.0,470.0));
#646=VECTOR('',#746,1.0);
#647=CARTESIAN_POINT('',(-71.95,-12.0,420.0));
#648=CARTESIAN_POINT('',(-29.4957624075053,-12.0,420.0));
#649=VECTOR('',#747,1.0);
#650=CARTESIAN_POINT('',(-71.95,-12.0,420.0));
#651=VECTOR('',#748,1.0);
#652=CARTESIAN_POINT('',(-71.95,-17.0,470.0));
#653=CARTESIAN_POINT('',(-71.95,-12.0,470.0));
#654=VECTOR('',#749,1.0);
#655=CARTESIAN_POINT('',(-71.95,-17.0,420.0));
#656=CARTESIAN_POINT('',(-71.95,-12.0,420.0));
#657=VECTOR('',#750,1.0);
#658=CARTESIAN_POINT('',(-71.95,-17.0,420.0));
#659=VECTOR('',#751,1.0);
#660=CARTESIAN_POINT('',(-61.95,-17.0,441.5));
#661=AXIS2_PLACEMENT_3D('',#752,#753,#754);
#662=CARTESIAN_POINT('',(0.0,-17.0,470.0));
#663=CARTESIAN_POINT('',(-71.95,-17.0,470.0));
#664=VECTOR('',#755,1.0);
#665=CARTESIAN_POINT('',(0.0,-17.0,420.0));
#666=CARTESIAN_POINT('',(-71.95,-17.0,420.0));
#667=VECTOR('',#756,1.0);
#668=CARTESIAN_POINT('',(0.0,-17.0,420.0));
#669=VECTOR('',#757,1.0);
#670=AXIS2_PLACEMENT_3D('',#758,#759,#760);
#671=AXIS2_PLACEMENT_3D('',#761,#762,#763);
#672=CARTESIAN_POINT('',(-56.95,-15.0,443.5));
#673=AXIS2_PLACEMENT_3D('',#764,#765,#766);
#674=CARTESIAN_POINT('',(-61.95,-15.0,441.5));
#675=AXIS2_PLACEMENT_3D('',#767,#768,#769);
#676=CARTESIAN_POINT('',(-56.95,-17.0,28.5));
#677=DIRECTION('',(0.0,1.0,0.0));
#678=DIRECTION('',(0.0,0.0,-1.0));
#679=CARTESIAN_POINT('',(-56.95,-15.0,28.5));
#680=DIRECTION('',(0.0,-1.0,0.0));
#681=DIRECTION('',(0.0,0.0,-1.0));
#682=CARTESIAN_POINT('',(-56.95,-15.0,28.5));
#683=DIRECTION('',(0.0,1.0,0.0));
#684=DIRECTION('',(0.0,0.0,1.0));
#685=CARTESIAN_POINT('',(-29.4957624075053,0.5,0.0));
#686=DIRECTION('',(0.0,0.0,-1.0));
#687=DIRECTION('',(0.0,-1.0,0.0));
#688=DIRECTION('',(0.0,0.0,-1.0));
#689=CARTESIAN_POINT('',(-29.4957624075053,0.5,50.0));
#690=DIRECTION('',(0.0,0.0,-1.0));
#691=DIRECTION('',(0.0,-1.0,0.0));
#692=DIRECTION('',(0.0,0.0,-1.0));
#693=CARTESIAN_POINT('',(-56.95,-12.0,28.5));
#694=DIRECTION('',(0.0,-1.0,0.0));
#695=DIRECTION('',(0.0,0.0,-1.0));
#696=DIRECTION('',(-1.0,0.0,0.0));
#697=DIRECTION('',(0.0,0.0,-1.0));
#698=DIRECTION('',(-1.0,0.0,0.0));
#699=CARTESIAN_POINT('',(0.0,0.0,0.0));
#700=DIRECTION('',(0.0,0.0,1.0));
#701=DIRECTION('',(1.0,0.0,0.0));
#702=DIRECTION('',(1.0,0.0,0.0));
#703=DIRECTION('',(-6.93889390390723E-17,-1.0,0.0));
#704=CARTESIAN_POINT('',(0.0,0.0,30.0));
#705=DIRECTION('',(0.0,0.0,1.0));
#706=DIRECTION('',(1.0,0.0,0.0));
#707=CARTESIAN_POINT('',(0.0,0.0,50.0));
#708=DIRECTION('',(0.0,0.0,-1.0));
#709=DIRECTION('',(-1.0,0.0,0.0));
#710=DIRECTION('',(-6.93889390390723E-17,-1.0,0.0));
#711=DIRECTION('',(1.0,0.0,0.0));
#712=CARTESIAN_POINT('',(0.0,0.0,50.0));
#713=DIRECTION('',(0.0,0.0,1.0));
#714=DIRECTION('',(1.0,0.0,0.0));
#715=DIRECTION('',(0.0,0.0,-1.0));
#716=DIRECTION('',(0.0,0.0,-1.0));
#717=CARTESIAN_POINT('',(0.0,0.0,30.0));
#718=DIRECTION('',(0.0,0.0,1.0));
#719=DIRECTION('',(1.0,0.0,0.0));
#720=CARTESIAN_POINT('',(0.0,0.0,30.0));
#721=DIRECTION('',(0.0,0.0,1.0));
#722=DIRECTION('',(1.0,0.0,0.0));
#723=CARTESIAN_POINT('',(0.0,0.0,440.0));
#724=DIRECTION('',(0.0,0.0,1.0));
#725=DIRECTION('',(1.0,0.0,0.0));
#726=CARTESIAN_POINT('',(0.0,0.0,440.0));
#727=DIRECTION('',(0.0,0.0,1.0));
#728=DIRECTION('',(1.0,0.0,0.0));
#729=CARTESIAN_POINT('',(0.0,0.0,420.0));
#730=DIRECTION('',(0.0,0.0,1.0));
#731=DIRECTION('',(-1.0,0.0,0.0));
#732=CARTESIAN_POINT('',(0.0,0.0,440.0));
#733=DIRECTION('',(0.0,0.0,-1.0));
#734=DIRECTION('',(-1.0,0.0,0.0));
#735=CARTESIAN_POINT('',(-29.4957624075053,0.5,470.0));
#736=DIRECTION('',(0.0,0.0,-1.0));
#737=DIRECTION('',(0.0,-1.0,0.0));
#738=DIRECTION('',(0.0,0.0,1.0));
#739=CARTESIAN_POINT('',(-29.4957624075053,0.5,420.0));
#740=DIRECTION('',(0.0,0.0,-1.0));
#741=DIRECTION('',(0.0,-1.0,0.0));
#742=DIRECTION('',(0.0,0.0,1.0));
#743=CARTESIAN_POINT('',(-56.95,-12.0,441.5));
#744=DIRECTION('',(0.0,1.0,0.0));
#745=DIRECTION('',(0.0,0.0,1.0));
#746=DIRECTION('',(-1.0,0.0,0.0));
#747=DIRECTION('',(-1.0,0.0,0.0));
#748=DIRECTION('',(0.0,0.0,1.0));
#749=DIRECTION('',(-6.93889390390723E-17,-1.0,0.0));
#750=DIRECTION('',(-6.93889390390723E-17,-1.0,0.0));
#751=DIRECTION('',(0.0,0.0,1.0));
#752=CARTESIAN_POINT('',(-56.95,-17.0,441.5));
#753=DIRECTION('',(0.0,1.0,0.0));
#754=DIRECTION('',(-1.0,0.0,0.0));
#755=DIRECTION('',(1.0,0.0,0.0));
#756=DIRECTION('',(1.0,0.0,0.0));
#757=DIRECTION('',(0.0,0.0,1.0));
#758=CARTESIAN_POINT('',(0.0,0.0,470.0));
#759=DIRECTION('',(0.0,0.0,1.0));
#760=DIRECTION('',(1.0,0.0,0.0));
#761=CARTESIAN_POINT('',(0.0,0.0,420.0));
#762=DIRECTION('',(0.0,0.0,1.0));
#763=DIRECTION('',(1.0,0.0,0.0));
#764=CARTESIAN_POINT('',(-56.95,-15.0,441.5));
#765=DIRECTION('',(0.0,1.0,0.0));
#766=DIRECTION('',(0.0,0.0,1.0));
#767=CARTESIAN_POINT('',(-56.95,-15.0,441.5));
#768=DIRECTION('',(0.0,-1.0,0.0));
#769=DIRECTION('',(-1.0,0.0,0.0));
ENDSEC;
END-ISO-10303-21;
