ISO-10303-21;
HEADER;
/* Generated by software containing ST-Developer
 * from STEP Tools, Inc. (www.steptools.com) 
 */

FILE_DESCRIPTION(
/* description */ (''),
/* implementation_level */ '2;1');

FILE_NAME(
/* name */ 
'C:\\Users\\louis.petitjean\\Desktop\\GSE-1201-000-000-A Thruster Bala
nce\\Calibration null balance subsystem\\GSE-1201-001-001-A - Support 
bobine M6.stp',
/* time_stamp */ '2019-10-24T11:49:36+02:00',
/* author */ ('louis.petitjean'),
/* organization */ (''),
/* preprocessor_version */ 'ST-DEVELOPER v18',
/* originating_system */ 'Autodesk Inventor 2020',
/* authorisation */ '');

FILE_SCHEMA (('AUTOMOTIVE_DESIGN { 1 0 10303 214 3 1 1 }'));
ENDSEC;

DATA;
#10=MECHANICAL_DESIGN_GEOMETRIC_PRESENTATION_REPRESENTATION('',(#13),#668);
#11=SHAPE_REPRESENTATION_RELATIONSHIP('SRR','None',#675,#12);
#12=ADVANCED_BREP_SHAPE_REPRESENTATION('',(#14),#667);
#13=STYLED_ITEM('',(#684),#14);
#14=MANIFOLD_SOLID_BREP('Solide2',#392);
#15=FACE_BOUND('',#72,.T.);
#16=FACE_BOUND('',#73,.T.);
#17=FACE_BOUND('',#74,.T.);
#18=FACE_BOUND('',#75,.T.);
#19=FACE_BOUND('',#77,.T.);
#20=FACE_BOUND('',#78,.T.);
#21=FACE_BOUND('',#79,.T.);
#22=FACE_BOUND('',#80,.T.);
#23=PLANE('',#415);
#24=PLANE('',#419);
#25=PLANE('',#423);
#26=PLANE('',#427);
#27=PLANE('',#431);
#28=PLANE('',#440);
#29=PLANE('',#441);
#30=PLANE('',#442);
#31=PLANE('',#443);
#32=PLANE('',#444);
#33=PLANE('',#445);
#34=PLANE('',#446);
#35=FACE_OUTER_BOUND('',#54,.T.);
#36=FACE_OUTER_BOUND('',#55,.T.);
#37=FACE_OUTER_BOUND('',#56,.T.);
#38=FACE_OUTER_BOUND('',#57,.T.);
#39=FACE_OUTER_BOUND('',#58,.T.);
#40=FACE_OUTER_BOUND('',#59,.T.);
#41=FACE_OUTER_BOUND('',#60,.T.);
#42=FACE_OUTER_BOUND('',#61,.T.);
#43=FACE_OUTER_BOUND('',#62,.T.);
#44=FACE_OUTER_BOUND('',#63,.T.);
#45=FACE_OUTER_BOUND('',#64,.T.);
#46=FACE_OUTER_BOUND('',#65,.T.);
#47=FACE_OUTER_BOUND('',#66,.T.);
#48=FACE_OUTER_BOUND('',#67,.T.);
#49=FACE_OUTER_BOUND('',#68,.T.);
#50=FACE_OUTER_BOUND('',#69,.T.);
#51=FACE_OUTER_BOUND('',#70,.T.);
#52=FACE_OUTER_BOUND('',#71,.T.);
#53=FACE_OUTER_BOUND('',#76,.T.);
#54=EDGE_LOOP('',(#260,#261,#262,#263));
#55=EDGE_LOOP('',(#264,#265,#266,#267));
#56=EDGE_LOOP('',(#268,#269,#270,#271));
#57=EDGE_LOOP('',(#272,#273,#274,#275));
#58=EDGE_LOOP('',(#276,#277,#278,#279));
#59=EDGE_LOOP('',(#280,#281,#282,#283));
#60=EDGE_LOOP('',(#284,#285,#286,#287));
#61=EDGE_LOOP('',(#288,#289,#290,#291));
#62=EDGE_LOOP('',(#292,#293,#294,#295));
#63=EDGE_LOOP('',(#296,#297,#298,#299));
#64=EDGE_LOOP('',(#300,#301,#302,#303,#304));
#65=EDGE_LOOP('',(#305,#306,#307,#308,#309));
#66=EDGE_LOOP('',(#310,#311,#312,#313));
#67=EDGE_LOOP('',(#314,#315,#316,#317));
#68=EDGE_LOOP('',(#318,#319,#320,#321));
#69=EDGE_LOOP('',(#322,#323,#324,#325));
#70=EDGE_LOOP('',(#326,#327,#328,#329));
#71=EDGE_LOOP('',(#330,#331,#332,#333,#334,#335,#336));
#72=EDGE_LOOP('',(#337,#338,#339,#340));
#73=EDGE_LOOP('',(#341,#342,#343,#344));
#74=EDGE_LOOP('',(#345,#346));
#75=EDGE_LOOP('',(#347,#348));
#76=EDGE_LOOP('',(#349,#350,#351,#352,#353,#354,#355));
#77=EDGE_LOOP('',(#356,#357,#358,#359));
#78=EDGE_LOOP('',(#360,#361,#362,#363));
#79=EDGE_LOOP('',(#364));
#80=EDGE_LOOP('',(#365));
#81=LINE('',#562,#118);
#82=LINE('',#565,#119);
#83=LINE('',#568,#120);
#84=LINE('',#570,#121);
#85=LINE('',#571,#122);
#86=LINE('',#577,#123);
#87=LINE('',#580,#124);
#88=LINE('',#583,#125);
#89=LINE('',#585,#126);
#90=LINE('',#586,#127);
#91=LINE('',#592,#128);
#92=LINE('',#594,#129);
#93=LINE('',#595,#130);
#94=LINE('',#601,#131);
#95=LINE('',#604,#132);
#96=LINE('',#607,#133);
#97=LINE('',#609,#134);
#98=LINE('',#610,#135);
#99=LINE('',#616,#136);
#100=LINE('',#618,#137);
#101=LINE('',#619,#138);
#102=LINE('',#626,#139);
#103=LINE('',#634,#140);
#104=LINE('',#639,#141);
#105=LINE('',#641,#142);
#106=LINE('',#643,#143);
#107=LINE('',#644,#144);
#108=LINE('',#647,#145);
#109=LINE('',#649,#146);
#110=LINE('',#650,#147);
#111=LINE('',#652,#148);
#112=LINE('',#653,#149);
#113=LINE('',#656,#150);
#114=LINE('',#658,#151);
#115=LINE('',#659,#152);
#116=LINE('',#661,#153);
#117=LINE('',#662,#154);
#118=VECTOR('',#453,10.);
#119=VECTOR('',#456,10.);
#120=VECTOR('',#459,10.);
#121=VECTOR('',#460,10.);
#122=VECTOR('',#461,10.);
#123=VECTOR('',#466,10.);
#124=VECTOR('',#469,10.);
#125=VECTOR('',#472,10.);
#126=VECTOR('',#473,10.);
#127=VECTOR('',#474,10.);
#128=VECTOR('',#481,10.);
#129=VECTOR('',#484,10.);
#130=VECTOR('',#485,10.);
#131=VECTOR('',#490,10.);
#132=VECTOR('',#493,10.);
#133=VECTOR('',#496,10.);
#134=VECTOR('',#497,10.);
#135=VECTOR('',#498,10.);
#136=VECTOR('',#505,10.);
#137=VECTOR('',#508,10.);
#138=VECTOR('',#509,10.);
#139=VECTOR('',#516,3.2);
#140=VECTOR('',#525,3.2);
#141=VECTOR('',#530,10.);
#142=VECTOR('',#531,10.);
#143=VECTOR('',#532,10.);
#144=VECTOR('',#533,10.);
#145=VECTOR('',#536,10.);
#146=VECTOR('',#537,10.);
#147=VECTOR('',#538,10.);
#148=VECTOR('',#541,10.);
#149=VECTOR('',#542,10.);
#150=VECTOR('',#545,10.);
#151=VECTOR('',#546,10.);
#152=VECTOR('',#547,10.);
#153=VECTOR('',#550,10.);
#154=VECTOR('',#551,10.);
#155=CIRCLE('',#413,2.);
#156=CIRCLE('',#414,2.);
#157=CIRCLE('',#417,2.);
#158=CIRCLE('',#418,2.);
#159=CIRCLE('',#421,2.);
#160=CIRCLE('',#422,2.);
#161=CIRCLE('',#425,2.00000000000008);
#162=CIRCLE('',#426,2.00000000000008);
#163=CIRCLE('',#429,2.);
#164=CIRCLE('',#430,2.);
#165=CIRCLE('',#433,3.2);
#166=CIRCLE('',#434,3.2);
#167=CIRCLE('',#435,3.2);
#168=CIRCLE('',#437,3.2);
#169=CIRCLE('',#438,3.2);
#170=CIRCLE('',#439,3.2);
#171=VERTEX_POINT('',#558);
#172=VERTEX_POINT('',#559);
#173=VERTEX_POINT('',#561);
#174=VERTEX_POINT('',#563);
#175=VERTEX_POINT('',#567);
#176=VERTEX_POINT('',#569);
#177=VERTEX_POINT('',#573);
#178=VERTEX_POINT('',#574);
#179=VERTEX_POINT('',#576);
#180=VERTEX_POINT('',#578);
#181=VERTEX_POINT('',#582);
#182=VERTEX_POINT('',#584);
#183=VERTEX_POINT('',#588);
#184=VERTEX_POINT('',#590);
#185=VERTEX_POINT('',#597);
#186=VERTEX_POINT('',#598);
#187=VERTEX_POINT('',#600);
#188=VERTEX_POINT('',#602);
#189=VERTEX_POINT('',#606);
#190=VERTEX_POINT('',#608);
#191=VERTEX_POINT('',#612);
#192=VERTEX_POINT('',#614);
#193=VERTEX_POINT('',#621);
#194=VERTEX_POINT('',#622);
#195=VERTEX_POINT('',#625);
#196=VERTEX_POINT('',#629);
#197=VERTEX_POINT('',#630);
#198=VERTEX_POINT('',#633);
#199=VERTEX_POINT('',#637);
#200=VERTEX_POINT('',#638);
#201=VERTEX_POINT('',#640);
#202=VERTEX_POINT('',#642);
#203=VERTEX_POINT('',#646);
#204=VERTEX_POINT('',#648);
#205=VERTEX_POINT('',#655);
#206=VERTEX_POINT('',#657);
#207=EDGE_CURVE('',#171,#172,#155,.T.);
#208=EDGE_CURVE('',#172,#173,#81,.T.);
#209=EDGE_CURVE('',#173,#174,#156,.T.);
#210=EDGE_CURVE('',#174,#171,#82,.T.);
#211=EDGE_CURVE('',#172,#175,#83,.T.);
#212=EDGE_CURVE('',#175,#176,#84,.T.);
#213=EDGE_CURVE('',#173,#176,#85,.T.);
#214=EDGE_CURVE('',#177,#178,#157,.T.);
#215=EDGE_CURVE('',#179,#177,#86,.T.);
#216=EDGE_CURVE('',#180,#179,#158,.T.);
#217=EDGE_CURVE('',#180,#178,#87,.T.);
#218=EDGE_CURVE('',#178,#181,#88,.T.);
#219=EDGE_CURVE('',#182,#180,#89,.T.);
#220=EDGE_CURVE('',#182,#181,#90,.T.);
#221=EDGE_CURVE('',#181,#183,#159,.T.);
#222=EDGE_CURVE('',#184,#182,#160,.T.);
#223=EDGE_CURVE('',#184,#183,#91,.T.);
#224=EDGE_CURVE('',#183,#177,#92,.T.);
#225=EDGE_CURVE('',#179,#184,#93,.T.);
#226=EDGE_CURVE('',#185,#186,#161,.T.);
#227=EDGE_CURVE('',#187,#185,#94,.T.);
#228=EDGE_CURVE('',#188,#187,#162,.T.);
#229=EDGE_CURVE('',#188,#186,#95,.T.);
#230=EDGE_CURVE('',#186,#189,#96,.T.);
#231=EDGE_CURVE('',#190,#188,#97,.T.);
#232=EDGE_CURVE('',#190,#189,#98,.T.);
#233=EDGE_CURVE('',#189,#191,#163,.T.);
#234=EDGE_CURVE('',#192,#190,#164,.T.);
#235=EDGE_CURVE('',#192,#191,#99,.T.);
#236=EDGE_CURVE('',#191,#185,#100,.T.);
#237=EDGE_CURVE('',#187,#192,#101,.T.);
#238=EDGE_CURVE('',#193,#194,#165,.T.);
#239=EDGE_CURVE('',#194,#193,#166,.T.);
#240=EDGE_CURVE('',#194,#195,#102,.T.);
#241=EDGE_CURVE('',#195,#195,#167,.T.);
#242=EDGE_CURVE('',#196,#197,#168,.T.);
#243=EDGE_CURVE('',#197,#196,#169,.T.);
#244=EDGE_CURVE('',#197,#198,#103,.T.);
#245=EDGE_CURVE('',#198,#198,#170,.T.);
#246=EDGE_CURVE('',#199,#200,#104,.T.);
#247=EDGE_CURVE('',#200,#201,#105,.T.);
#248=EDGE_CURVE('',#202,#201,#106,.T.);
#249=EDGE_CURVE('',#199,#202,#107,.T.);
#250=EDGE_CURVE('',#203,#199,#108,.T.);
#251=EDGE_CURVE('',#204,#202,#109,.T.);
#252=EDGE_CURVE('',#203,#204,#110,.T.);
#253=EDGE_CURVE('',#175,#203,#111,.T.);
#254=EDGE_CURVE('',#176,#204,#112,.T.);
#255=EDGE_CURVE('',#205,#174,#113,.T.);
#256=EDGE_CURVE('',#206,#205,#114,.T.);
#257=EDGE_CURVE('',#206,#171,#115,.T.);
#258=EDGE_CURVE('',#200,#206,#116,.T.);
#259=EDGE_CURVE('',#201,#205,#117,.T.);
#260=ORIENTED_EDGE('',*,*,#207,.T.);
#261=ORIENTED_EDGE('',*,*,#208,.T.);
#262=ORIENTED_EDGE('',*,*,#209,.T.);
#263=ORIENTED_EDGE('',*,*,#210,.T.);
#264=ORIENTED_EDGE('',*,*,#208,.F.);
#265=ORIENTED_EDGE('',*,*,#211,.T.);
#266=ORIENTED_EDGE('',*,*,#212,.T.);
#267=ORIENTED_EDGE('',*,*,#213,.F.);
#268=ORIENTED_EDGE('',*,*,#214,.F.);
#269=ORIENTED_EDGE('',*,*,#215,.F.);
#270=ORIENTED_EDGE('',*,*,#216,.F.);
#271=ORIENTED_EDGE('',*,*,#217,.T.);
#272=ORIENTED_EDGE('',*,*,#218,.F.);
#273=ORIENTED_EDGE('',*,*,#217,.F.);
#274=ORIENTED_EDGE('',*,*,#219,.F.);
#275=ORIENTED_EDGE('',*,*,#220,.T.);
#276=ORIENTED_EDGE('',*,*,#221,.F.);
#277=ORIENTED_EDGE('',*,*,#220,.F.);
#278=ORIENTED_EDGE('',*,*,#222,.F.);
#279=ORIENTED_EDGE('',*,*,#223,.T.);
#280=ORIENTED_EDGE('',*,*,#224,.F.);
#281=ORIENTED_EDGE('',*,*,#223,.F.);
#282=ORIENTED_EDGE('',*,*,#225,.F.);
#283=ORIENTED_EDGE('',*,*,#215,.T.);
#284=ORIENTED_EDGE('',*,*,#226,.F.);
#285=ORIENTED_EDGE('',*,*,#227,.F.);
#286=ORIENTED_EDGE('',*,*,#228,.F.);
#287=ORIENTED_EDGE('',*,*,#229,.T.);
#288=ORIENTED_EDGE('',*,*,#230,.F.);
#289=ORIENTED_EDGE('',*,*,#229,.F.);
#290=ORIENTED_EDGE('',*,*,#231,.F.);
#291=ORIENTED_EDGE('',*,*,#232,.T.);
#292=ORIENTED_EDGE('',*,*,#233,.F.);
#293=ORIENTED_EDGE('',*,*,#232,.F.);
#294=ORIENTED_EDGE('',*,*,#234,.F.);
#295=ORIENTED_EDGE('',*,*,#235,.T.);
#296=ORIENTED_EDGE('',*,*,#236,.F.);
#297=ORIENTED_EDGE('',*,*,#235,.F.);
#298=ORIENTED_EDGE('',*,*,#237,.F.);
#299=ORIENTED_EDGE('',*,*,#227,.T.);
#300=ORIENTED_EDGE('',*,*,#238,.F.);
#301=ORIENTED_EDGE('',*,*,#239,.F.);
#302=ORIENTED_EDGE('',*,*,#240,.T.);
#303=ORIENTED_EDGE('',*,*,#241,.F.);
#304=ORIENTED_EDGE('',*,*,#240,.F.);
#305=ORIENTED_EDGE('',*,*,#242,.F.);
#306=ORIENTED_EDGE('',*,*,#243,.F.);
#307=ORIENTED_EDGE('',*,*,#244,.T.);
#308=ORIENTED_EDGE('',*,*,#245,.F.);
#309=ORIENTED_EDGE('',*,*,#244,.F.);
#310=ORIENTED_EDGE('',*,*,#246,.T.);
#311=ORIENTED_EDGE('',*,*,#247,.T.);
#312=ORIENTED_EDGE('',*,*,#248,.F.);
#313=ORIENTED_EDGE('',*,*,#249,.F.);
#314=ORIENTED_EDGE('',*,*,#250,.T.);
#315=ORIENTED_EDGE('',*,*,#249,.T.);
#316=ORIENTED_EDGE('',*,*,#251,.F.);
#317=ORIENTED_EDGE('',*,*,#252,.F.);
#318=ORIENTED_EDGE('',*,*,#253,.T.);
#319=ORIENTED_EDGE('',*,*,#252,.T.);
#320=ORIENTED_EDGE('',*,*,#254,.F.);
#321=ORIENTED_EDGE('',*,*,#212,.F.);
#322=ORIENTED_EDGE('',*,*,#210,.F.);
#323=ORIENTED_EDGE('',*,*,#255,.F.);
#324=ORIENTED_EDGE('',*,*,#256,.F.);
#325=ORIENTED_EDGE('',*,*,#257,.T.);
#326=ORIENTED_EDGE('',*,*,#258,.T.);
#327=ORIENTED_EDGE('',*,*,#256,.T.);
#328=ORIENTED_EDGE('',*,*,#259,.F.);
#329=ORIENTED_EDGE('',*,*,#247,.F.);
#330=ORIENTED_EDGE('',*,*,#259,.T.);
#331=ORIENTED_EDGE('',*,*,#255,.T.);
#332=ORIENTED_EDGE('',*,*,#209,.F.);
#333=ORIENTED_EDGE('',*,*,#213,.T.);
#334=ORIENTED_EDGE('',*,*,#254,.T.);
#335=ORIENTED_EDGE('',*,*,#251,.T.);
#336=ORIENTED_EDGE('',*,*,#248,.T.);
#337=ORIENTED_EDGE('',*,*,#222,.T.);
#338=ORIENTED_EDGE('',*,*,#219,.T.);
#339=ORIENTED_EDGE('',*,*,#216,.T.);
#340=ORIENTED_EDGE('',*,*,#225,.T.);
#341=ORIENTED_EDGE('',*,*,#234,.T.);
#342=ORIENTED_EDGE('',*,*,#231,.T.);
#343=ORIENTED_EDGE('',*,*,#228,.T.);
#344=ORIENTED_EDGE('',*,*,#237,.T.);
#345=ORIENTED_EDGE('',*,*,#238,.T.);
#346=ORIENTED_EDGE('',*,*,#239,.T.);
#347=ORIENTED_EDGE('',*,*,#242,.T.);
#348=ORIENTED_EDGE('',*,*,#243,.T.);
#349=ORIENTED_EDGE('',*,*,#258,.F.);
#350=ORIENTED_EDGE('',*,*,#246,.F.);
#351=ORIENTED_EDGE('',*,*,#250,.F.);
#352=ORIENTED_EDGE('',*,*,#253,.F.);
#353=ORIENTED_EDGE('',*,*,#211,.F.);
#354=ORIENTED_EDGE('',*,*,#207,.F.);
#355=ORIENTED_EDGE('',*,*,#257,.F.);
#356=ORIENTED_EDGE('',*,*,#221,.T.);
#357=ORIENTED_EDGE('',*,*,#224,.T.);
#358=ORIENTED_EDGE('',*,*,#214,.T.);
#359=ORIENTED_EDGE('',*,*,#218,.T.);
#360=ORIENTED_EDGE('',*,*,#233,.T.);
#361=ORIENTED_EDGE('',*,*,#236,.T.);
#362=ORIENTED_EDGE('',*,*,#226,.T.);
#363=ORIENTED_EDGE('',*,*,#230,.T.);
#364=ORIENTED_EDGE('',*,*,#241,.T.);
#365=ORIENTED_EDGE('',*,*,#245,.T.);
#366=CYLINDRICAL_SURFACE('',#412,2.);
#367=CYLINDRICAL_SURFACE('',#416,2.);
#368=CYLINDRICAL_SURFACE('',#420,2.);
#369=CYLINDRICAL_SURFACE('',#424,2.00000000000008);
#370=CYLINDRICAL_SURFACE('',#428,2.);
#371=CYLINDRICAL_SURFACE('',#432,3.2);
#372=CYLINDRICAL_SURFACE('',#436,3.2);
#373=ADVANCED_FACE('',(#35),#366,.F.);
#374=ADVANCED_FACE('',(#36),#23,.T.);
#375=ADVANCED_FACE('',(#37),#367,.F.);
#376=ADVANCED_FACE('',(#38),#24,.F.);
#377=ADVANCED_FACE('',(#39),#368,.F.);
#378=ADVANCED_FACE('',(#40),#25,.F.);
#379=ADVANCED_FACE('',(#41),#369,.F.);
#380=ADVANCED_FACE('',(#42),#26,.F.);
#381=ADVANCED_FACE('',(#43),#370,.F.);
#382=ADVANCED_FACE('',(#44),#27,.F.);
#383=ADVANCED_FACE('',(#45),#371,.F.);
#384=ADVANCED_FACE('',(#46),#372,.F.);
#385=ADVANCED_FACE('',(#47),#28,.T.);
#386=ADVANCED_FACE('',(#48),#29,.T.);
#387=ADVANCED_FACE('',(#49),#30,.T.);
#388=ADVANCED_FACE('',(#50),#31,.T.);
#389=ADVANCED_FACE('',(#51),#32,.T.);
#390=ADVANCED_FACE('',(#52,#15,#16,#17,#18),#33,.T.);
#391=ADVANCED_FACE('',(#53,#19,#20,#21,#22),#34,.F.);
#392=CLOSED_SHELL('',(#373,#374,#375,#376,#377,#378,#379,#380,#381,#382,
#383,#384,#385,#386,#387,#388,#389,#390,#391));
#393=DERIVED_UNIT_ELEMENT(#395,1.);
#394=DERIVED_UNIT_ELEMENT(#670,3.);
#395=(
MASS_UNIT()
NAMED_UNIT(*)
SI_UNIT($,.GRAM.)
);
#396=DERIVED_UNIT((#393,#394));
#397=MEASURE_REPRESENTATION_ITEM('density measure',
POSITIVE_RATIO_MEASURE(2.7),#396);
#398=PROPERTY_DEFINITION_REPRESENTATION(#403,#400);
#399=PROPERTY_DEFINITION_REPRESENTATION(#404,#401);
#400=REPRESENTATION('material name',(#402),#667);
#401=REPRESENTATION('density',(#397),#667);
#402=DESCRIPTIVE_REPRESENTATION_ITEM('Aluminium 6061','Aluminium 6061');
#403=PROPERTY_DEFINITION('material property','material name',#677);
#404=PROPERTY_DEFINITION('material property','density of part',#677);
#405=DATE_TIME_ROLE('creation_date');
#406=APPLIED_DATE_AND_TIME_ASSIGNMENT(#407,#405,(#677));
#407=DATE_AND_TIME(#408,#409);
#408=CALENDAR_DATE(2019,14,10);
#409=LOCAL_TIME(22,0,0.,#410);
#410=COORDINATED_UNIVERSAL_TIME_OFFSET(0,0,.BEHIND.);
#411=AXIS2_PLACEMENT_3D('placement',#556,#447,#448);
#412=AXIS2_PLACEMENT_3D('',#557,#449,#450);
#413=AXIS2_PLACEMENT_3D('',#560,#451,#452);
#414=AXIS2_PLACEMENT_3D('',#564,#454,#455);
#415=AXIS2_PLACEMENT_3D('',#566,#457,#458);
#416=AXIS2_PLACEMENT_3D('',#572,#462,#463);
#417=AXIS2_PLACEMENT_3D('',#575,#464,#465);
#418=AXIS2_PLACEMENT_3D('',#579,#467,#468);
#419=AXIS2_PLACEMENT_3D('',#581,#470,#471);
#420=AXIS2_PLACEMENT_3D('',#587,#475,#476);
#421=AXIS2_PLACEMENT_3D('',#589,#477,#478);
#422=AXIS2_PLACEMENT_3D('',#591,#479,#480);
#423=AXIS2_PLACEMENT_3D('',#593,#482,#483);
#424=AXIS2_PLACEMENT_3D('',#596,#486,#487);
#425=AXIS2_PLACEMENT_3D('',#599,#488,#489);
#426=AXIS2_PLACEMENT_3D('',#603,#491,#492);
#427=AXIS2_PLACEMENT_3D('',#605,#494,#495);
#428=AXIS2_PLACEMENT_3D('',#611,#499,#500);
#429=AXIS2_PLACEMENT_3D('',#613,#501,#502);
#430=AXIS2_PLACEMENT_3D('',#615,#503,#504);
#431=AXIS2_PLACEMENT_3D('',#617,#506,#507);
#432=AXIS2_PLACEMENT_3D('',#620,#510,#511);
#433=AXIS2_PLACEMENT_3D('',#623,#512,#513);
#434=AXIS2_PLACEMENT_3D('',#624,#514,#515);
#435=AXIS2_PLACEMENT_3D('',#627,#517,#518);
#436=AXIS2_PLACEMENT_3D('',#628,#519,#520);
#437=AXIS2_PLACEMENT_3D('',#631,#521,#522);
#438=AXIS2_PLACEMENT_3D('',#632,#523,#524);
#439=AXIS2_PLACEMENT_3D('',#635,#526,#527);
#440=AXIS2_PLACEMENT_3D('',#636,#528,#529);
#441=AXIS2_PLACEMENT_3D('',#645,#534,#535);
#442=AXIS2_PLACEMENT_3D('',#651,#539,#540);
#443=AXIS2_PLACEMENT_3D('',#654,#543,#544);
#444=AXIS2_PLACEMENT_3D('',#660,#548,#549);
#445=AXIS2_PLACEMENT_3D('',#663,#552,#553);
#446=AXIS2_PLACEMENT_3D('',#664,#554,#555);
#447=DIRECTION('axis',(0.,0.,1.));
#448=DIRECTION('refdir',(1.,0.,0.));
#449=DIRECTION('center_axis',(0.,1.,0.));
#450=DIRECTION('ref_axis',(0.707106781186549,0.,0.707106781186546));
#451=DIRECTION('center_axis',(0.,-1.,0.));
#452=DIRECTION('ref_axis',(0.707106781186549,0.,0.707106781186546));
#453=DIRECTION('',(0.,1.,0.));
#454=DIRECTION('center_axis',(0.,1.,0.));
#455=DIRECTION('ref_axis',(0.707106781186549,0.,0.707106781186546));
#456=DIRECTION('',(0.,-1.,0.));
#457=DIRECTION('center_axis',(-1.11022302462516E-16,0.,-1.));
#458=DIRECTION('ref_axis',(-1.,0.,1.11022302462516E-16));
#459=DIRECTION('',(-1.,0.,1.11022302462516E-16));
#460=DIRECTION('',(0.,1.,0.));
#461=DIRECTION('',(-1.,0.,1.11022302462516E-16));
#462=DIRECTION('center_axis',(0.,-1.,0.));
#463=DIRECTION('ref_axis',(0.999999999999916,0.,-4.10517824178634E-7));
#464=DIRECTION('center_axis',(0.,1.,0.));
#465=DIRECTION('ref_axis',(0.999999999999916,0.,-4.10517824178634E-7));
#466=DIRECTION('',(0.,-1.,0.));
#467=DIRECTION('center_axis',(0.,-1.,0.));
#468=DIRECTION('ref_axis',(0.999999999999916,0.,-4.10517824178634E-7));
#469=DIRECTION('',(0.,-1.,0.));
#470=DIRECTION('center_axis',(-1.,0.,1.11022302462516E-15));
#471=DIRECTION('ref_axis',(-1.11022302462516E-15,0.,-1.));
#472=DIRECTION('',(1.11022302462516E-15,0.,1.));
#473=DIRECTION('',(-1.11022302462516E-15,0.,-1.));
#474=DIRECTION('',(0.,-1.,0.));
#475=DIRECTION('center_axis',(0.,-1.,0.));
#476=DIRECTION('ref_axis',(2.0525891227303E-7,0.,0.999999999999979));
#477=DIRECTION('center_axis',(0.,1.,0.));
#478=DIRECTION('ref_axis',(-1.,0.,0.));
#479=DIRECTION('center_axis',(0.,-1.,0.));
#480=DIRECTION('ref_axis',(-1.,0.,0.));
#481=DIRECTION('',(0.,-1.,0.));
#482=DIRECTION('center_axis',(1.,0.,-6.10622663543836E-16));
#483=DIRECTION('ref_axis',(6.10622663543836E-16,0.,1.));
#484=DIRECTION('',(-6.10622663543836E-16,0.,-1.));
#485=DIRECTION('',(6.10622663543836E-16,0.,1.));
#486=DIRECTION('center_axis',(0.,-1.,0.));
#487=DIRECTION('ref_axis',(2.05162358397024E-7,0.,0.999999999999979));
#488=DIRECTION('center_axis',(0.,1.,0.));
#489=DIRECTION('ref_axis',(-1.,0.,0.));
#490=DIRECTION('',(0.,-1.,0.));
#491=DIRECTION('center_axis',(0.,-1.,0.));
#492=DIRECTION('ref_axis',(-1.,0.,0.));
#493=DIRECTION('',(0.,-1.,0.));
#494=DIRECTION('center_axis',(1.,0.,-1.11022302462516E-15));
#495=DIRECTION('ref_axis',(1.11022302462516E-15,0.,1.));
#496=DIRECTION('',(-1.11022302462516E-15,0.,-1.));
#497=DIRECTION('',(1.11022302462516E-15,0.,1.));
#498=DIRECTION('',(0.,-1.,0.));
#499=DIRECTION('center_axis',(0.,-1.,0.));
#500=DIRECTION('ref_axis',(0.999999999999916,0.,-4.10324716426623E-7));
#501=DIRECTION('center_axis',(0.,1.,0.));
#502=DIRECTION('ref_axis',(0.999999999999916,0.,-4.10324716426623E-7));
#503=DIRECTION('center_axis',(0.,-1.,0.));
#504=DIRECTION('ref_axis',(0.999999999999916,0.,-4.10324716426623E-7));
#505=DIRECTION('',(0.,-1.,0.));
#506=DIRECTION('center_axis',(-1.,0.,5.55111512312578E-16));
#507=DIRECTION('ref_axis',(-5.55111512312578E-16,0.,-1.));
#508=DIRECTION('',(5.55111512312578E-16,0.,1.));
#509=DIRECTION('',(-5.55111512312578E-16,0.,-1.));
#510=DIRECTION('center_axis',(0.,1.,0.));
#511=DIRECTION('ref_axis',(1.,0.,0.));
#512=DIRECTION('center_axis',(0.,-1.,0.));
#513=DIRECTION('ref_axis',(1.,0.,0.));
#514=DIRECTION('center_axis',(0.,-1.,0.));
#515=DIRECTION('ref_axis',(1.,0.,0.));
#516=DIRECTION('',(0.,-1.,0.));
#517=DIRECTION('center_axis',(0.,1.,0.));
#518=DIRECTION('ref_axis',(1.,0.,0.));
#519=DIRECTION('center_axis',(0.,1.,0.));
#520=DIRECTION('ref_axis',(1.,0.,0.));
#521=DIRECTION('center_axis',(0.,-1.,0.));
#522=DIRECTION('ref_axis',(1.,0.,0.));
#523=DIRECTION('center_axis',(0.,-1.,0.));
#524=DIRECTION('ref_axis',(1.,0.,0.));
#525=DIRECTION('',(0.,-1.,0.));
#526=DIRECTION('center_axis',(0.,1.,0.));
#527=DIRECTION('ref_axis',(1.,0.,0.));
#528=DIRECTION('center_axis',(1.,0.,-1.83697019872103E-16));
#529=DIRECTION('ref_axis',(-1.83697019872103E-16,0.,-1.));
#530=DIRECTION('',(-1.83697019872103E-16,0.,-1.));
#531=DIRECTION('',(0.,1.,0.));
#532=DIRECTION('',(-1.83697019872103E-16,0.,-1.));
#533=DIRECTION('',(0.,1.,0.));
#534=DIRECTION('center_axis',(0.,0.,1.));
#535=DIRECTION('ref_axis',(1.,0.,0.));
#536=DIRECTION('',(1.,0.,0.));
#537=DIRECTION('',(1.,0.,0.));
#538=DIRECTION('',(0.,1.,0.));
#539=DIRECTION('center_axis',(-1.,0.,0.));
#540=DIRECTION('ref_axis',(0.,0.,1.));
#541=DIRECTION('',(0.,0.,1.));
#542=DIRECTION('',(0.,0.,1.));
#543=DIRECTION('center_axis',(-1.,0.,3.05311331771918E-16));
#544=DIRECTION('ref_axis',(3.05311331771918E-16,0.,1.));
#545=DIRECTION('',(3.05311331771918E-16,0.,1.));
#546=DIRECTION('',(0.,1.,0.));
#547=DIRECTION('',(3.05311331771918E-16,0.,1.));
#548=DIRECTION('center_axis',(0.,0.,-1.));
#549=DIRECTION('ref_axis',(-1.,0.,0.));
#550=DIRECTION('',(-1.,0.,0.));
#551=DIRECTION('',(-1.,0.,0.));
#552=DIRECTION('center_axis',(0.,1.,0.));
#553=DIRECTION('ref_axis',(0.,0.,1.));
#554=DIRECTION('center_axis',(0.,1.,0.));
#555=DIRECTION('ref_axis',(0.,0.,1.));
#556=CARTESIAN_POINT('',(0.,0.,0.));
#557=CARTESIAN_POINT('Origin',(-22.,0.,-32.));
#558=CARTESIAN_POINT('',(-20.,0.,-32.));
#559=CARTESIAN_POINT('',(-22.,0.,-30.));
#560=CARTESIAN_POINT('Origin',(-22.,0.,-32.));
#561=CARTESIAN_POINT('',(-22.,7.,-30.));
#562=CARTESIAN_POINT('',(-22.,0.,-30.));
#563=CARTESIAN_POINT('',(-20.,7.,-32.));
#564=CARTESIAN_POINT('Origin',(-22.,7.,-32.));
#565=CARTESIAN_POINT('',(-20.,0.,-32.));
#566=CARTESIAN_POINT('Origin',(-20.,0.,-30.));
#567=CARTESIAN_POINT('',(-60.,0.,-30.));
#568=CARTESIAN_POINT('',(-20.,0.,-30.));
#569=CARTESIAN_POINT('',(-60.,7.,-30.));
#570=CARTESIAN_POINT('',(-60.,0.,-30.));
#571=CARTESIAN_POINT('',(-20.,7.,-30.));
#572=CARTESIAN_POINT('Origin',(-10.,7.,-172.));
#573=CARTESIAN_POINT('',(-8.00000000000004,0.,-172.000000821036));
#574=CARTESIAN_POINT('',(-12.,0.,-172.));
#575=CARTESIAN_POINT('Origin',(-10.,0.,-172.));
#576=CARTESIAN_POINT('',(-8.00000000000004,7.,-172.000000821036));
#577=CARTESIAN_POINT('',(-8.00000000000004,7.,-172.000000821036));
#578=CARTESIAN_POINT('',(-12.,7.,-172.));
#579=CARTESIAN_POINT('Origin',(-10.,7.,-172.));
#580=CARTESIAN_POINT('',(-12.,7.,-172.));
#581=CARTESIAN_POINT('Origin',(-12.,7.,-152.));
#582=CARTESIAN_POINT('',(-12.,0.,-152.));
#583=CARTESIAN_POINT('',(-12.,0.,-123.5));
#584=CARTESIAN_POINT('',(-12.,7.,-152.));
#585=CARTESIAN_POINT('',(-12.,7.,-123.5));
#586=CARTESIAN_POINT('',(-12.,7.,-152.));
#587=CARTESIAN_POINT('Origin',(-10.,7.,-152.));
#588=CARTESIAN_POINT('',(-8.00000000000002,0.,-152.000000821036));
#589=CARTESIAN_POINT('Origin',(-10.,0.,-152.));
#590=CARTESIAN_POINT('',(-8.00000000000002,7.,-152.000000821036));
#591=CARTESIAN_POINT('Origin',(-10.,7.,-152.));
#592=CARTESIAN_POINT('',(-8.00000000000002,7.,-152.000000821036));
#593=CARTESIAN_POINT('Origin',(-8.00000000000004,7.,-172.000000821036));
#594=CARTESIAN_POINT('',(-8.00000000000001,0.,-133.500000410518));
#595=CARTESIAN_POINT('',(-8.00000000000001,7.,-133.500000410518));
#596=CARTESIAN_POINT('Origin',(-9.99999999999991,7.,-88.));
#597=CARTESIAN_POINT('',(-12.,0.,-88.));
#598=CARTESIAN_POINT('',(-7.99999999999999,0.,-88.0000008206494));
#599=CARTESIAN_POINT('Origin',(-9.99999999999991,0.,-88.));
#600=CARTESIAN_POINT('',(-12.,7.,-88.));
#601=CARTESIAN_POINT('',(-12.,7.,-88.));
#602=CARTESIAN_POINT('',(-7.99999999999999,7.,-88.0000008206494));
#603=CARTESIAN_POINT('Origin',(-9.99999999999991,7.,-88.));
#604=CARTESIAN_POINT('',(-7.99999999999999,7.,-88.0000008206494));
#605=CARTESIAN_POINT('Origin',(-8.00000000000001,7.,-108.000000820649));
#606=CARTESIAN_POINT('',(-8.00000000000001,0.,-108.000000820649));
#607=CARTESIAN_POINT('',(-8.00000000000001,0.,-101.500000410325));
#608=CARTESIAN_POINT('',(-8.00000000000001,7.,-108.000000820649));
#609=CARTESIAN_POINT('',(-8.00000000000001,7.,-101.500000410325));
#610=CARTESIAN_POINT('',(-8.00000000000001,7.,-108.000000820649));
#611=CARTESIAN_POINT('Origin',(-10.,7.,-108.));
#612=CARTESIAN_POINT('',(-12.,0.,-108.));
#613=CARTESIAN_POINT('Origin',(-10.,0.,-108.));
#614=CARTESIAN_POINT('',(-12.,7.,-108.));
#615=CARTESIAN_POINT('Origin',(-10.,7.,-108.));
#616=CARTESIAN_POINT('',(-12.,7.,-108.));
#617=CARTESIAN_POINT('Origin',(-12.,7.,-88.));
#618=CARTESIAN_POINT('',(-12.,0.,-91.5));
#619=CARTESIAN_POINT('',(-12.,7.,-91.5));
#620=CARTESIAN_POINT('Origin',(-45.,-192.371512508683,-15.));
#621=CARTESIAN_POINT('',(-41.8,7.,-15.));
#622=CARTESIAN_POINT('',(-48.2,6.99999999999999,-15.));
#623=CARTESIAN_POINT('Origin',(-45.,6.99999999999999,-15.));
#624=CARTESIAN_POINT('Origin',(-45.,6.99999999999999,-15.));
#625=CARTESIAN_POINT('',(-48.2,0.,-15.));
#626=CARTESIAN_POINT('',(-48.2,-192.371512508683,-15.));
#627=CARTESIAN_POINT('Origin',(-45.,0.,-15.));
#628=CARTESIAN_POINT('Origin',(-15.,-192.371512508683,-15.));
#629=CARTESIAN_POINT('',(-11.8,7.,-15.));
#630=CARTESIAN_POINT('',(-18.2,6.99999999999999,-15.));
#631=CARTESIAN_POINT('Origin',(-15.,6.99999999999999,-15.));
#632=CARTESIAN_POINT('Origin',(-15.,6.99999999999999,-15.));
#633=CARTESIAN_POINT('',(-18.2,0.,-15.));
#634=CARTESIAN_POINT('',(-18.2,-192.371512508683,-15.));
#635=CARTESIAN_POINT('Origin',(-15.,0.,-15.));
#636=CARTESIAN_POINT('Origin',(0.,0.,0.));
#637=CARTESIAN_POINT('',(0.,0.,0.));
#638=CARTESIAN_POINT('',(-7.54951656745106E-14,0.,-190.));
#639=CARTESIAN_POINT('',(0.,0.,0.));
#640=CARTESIAN_POINT('',(-7.54951656745106E-14,7.,-190.));
#641=CARTESIAN_POINT('',(-7.54951656745106E-14,0.,-190.));
#642=CARTESIAN_POINT('',(0.,7.,0.));
#643=CARTESIAN_POINT('',(0.,7.,0.));
#644=CARTESIAN_POINT('',(0.,0.,0.));
#645=CARTESIAN_POINT('Origin',(-60.,0.,0.));
#646=CARTESIAN_POINT('',(-60.,0.,0.));
#647=CARTESIAN_POINT('',(-60.,0.,0.));
#648=CARTESIAN_POINT('',(-60.,7.,0.));
#649=CARTESIAN_POINT('',(-60.,7.,0.));
#650=CARTESIAN_POINT('',(-60.,0.,0.));
#651=CARTESIAN_POINT('Origin',(-60.,0.,-30.));
#652=CARTESIAN_POINT('',(-60.,0.,-30.));
#653=CARTESIAN_POINT('',(-60.,7.,-30.));
#654=CARTESIAN_POINT('Origin',(-20.,0.,-190.));
#655=CARTESIAN_POINT('',(-20.,7.,-190.));
#656=CARTESIAN_POINT('',(-20.,7.,-190.));
#657=CARTESIAN_POINT('',(-20.,0.,-190.));
#658=CARTESIAN_POINT('',(-20.,0.,-190.));
#659=CARTESIAN_POINT('',(-20.,0.,-190.));
#660=CARTESIAN_POINT('Origin',(-7.54951656745106E-14,0.,-190.));
#661=CARTESIAN_POINT('',(-7.54951656745106E-14,0.,-190.));
#662=CARTESIAN_POINT('',(-7.54951656745106E-14,7.,-190.));
#663=CARTESIAN_POINT('Origin',(-30.,7.,-95.));
#664=CARTESIAN_POINT('Origin',(-30.,0.,-95.));
#665=UNCERTAINTY_MEASURE_WITH_UNIT(LENGTH_MEASURE(0.01),#669,
'DISTANCE_ACCURACY_VALUE',
'Maximum model space distance between geometric entities at asserted c
onnectivities');
#666=UNCERTAINTY_MEASURE_WITH_UNIT(LENGTH_MEASURE(0.01),#669,
'DISTANCE_ACCURACY_VALUE',
'Maximum model space distance between geometric entities at asserted c
onnectivities');
#667=(
GEOMETRIC_REPRESENTATION_CONTEXT(3)
GLOBAL_UNCERTAINTY_ASSIGNED_CONTEXT((#665))
GLOBAL_UNIT_ASSIGNED_CONTEXT((#669,#671,#672))
REPRESENTATION_CONTEXT('','3D')
);
#668=(
GEOMETRIC_REPRESENTATION_CONTEXT(3)
GLOBAL_UNCERTAINTY_ASSIGNED_CONTEXT((#666))
GLOBAL_UNIT_ASSIGNED_CONTEXT((#669,#671,#672))
REPRESENTATION_CONTEXT('','3D')
);
#669=(
LENGTH_UNIT()
NAMED_UNIT(*)
SI_UNIT(.MILLI.,.METRE.)
);
#670=(
LENGTH_UNIT()
NAMED_UNIT(*)
SI_UNIT(.CENTI.,.METRE.)
);
#671=(
NAMED_UNIT(*)
PLANE_ANGLE_UNIT()
SI_UNIT($,.RADIAN.)
);
#672=(
NAMED_UNIT(*)
SI_UNIT($,.STERADIAN.)
SOLID_ANGLE_UNIT()
);
#673=SHAPE_DEFINITION_REPRESENTATION(#674,#675);
#674=PRODUCT_DEFINITION_SHAPE('',$,#677);
#675=SHAPE_REPRESENTATION('',(#411),#667);
#676=PRODUCT_DEFINITION_CONTEXT('part definition',#681,'design');
#677=PRODUCT_DEFINITION('GSE-1201-001-001-A',
'GSE-1201-001-001-A - Support bobine M6',#678,#676);
#678=PRODUCT_DEFINITION_FORMATION('A',$,#683);
#679=PRODUCT_RELATED_PRODUCT_CATEGORY(
'GSE-1201-001-001-A - Support bobine M6',
'GSE-1201-001-001-A - Support bobine M6',(#683));
#680=APPLICATION_PROTOCOL_DEFINITION('international standard',
'automotive_design',2009,#681);
#681=APPLICATION_CONTEXT(
'Core Data for Automotive Mechanical Design Process');
#682=PRODUCT_CONTEXT('part definition',#681,'mechanical');
#683=PRODUCT('GSE-1201-001-001-A',
'GSE-1201-001-001-A - Support bobine M6',$,(#682));
#684=PRESENTATION_STYLE_ASSIGNMENT((#685));
#685=SURFACE_STYLE_USAGE(.BOTH.,#688);
#686=SURFACE_STYLE_RENDERING_WITH_PROPERTIES($,#692,(#687));
#687=SURFACE_STYLE_TRANSPARENT(0.);
#688=SURFACE_SIDE_STYLE('',(#689,#686));
#689=SURFACE_STYLE_FILL_AREA(#690);
#690=FILL_AREA_STYLE('',(#691));
#691=FILL_AREA_STYLE_COLOUR('',#692);
#692=COLOUR_RGB('',0.996078431372549,0.996078431372549,1.);
ENDSEC;
END-ISO-10303-21;
