ISO-10303-21;
HEADER;
FILE_DESCRIPTION(('STEP AP214'),'1');
FILE_NAME('C:/Users/GECIS/Desktop/USINEUR.FR/PIECES CORIGEES/bouchon triangle corig\X2\00E9\X0\.step','2019-08-13T14:30:52',(' '),(' '),'Spatial InterOp 3D',' ',' ');
FILE_SCHEMA(('automotive_design'));
ENDSEC;
DATA;
#1=MECHANICAL_DESIGN_GEOMETRIC_PRESENTATION_REPRESENTATION(' ',(#10,#11,#12,#13,#14,#15,#16,#17,#18,#19,#20,#21,#22,#23,#24,#25,#26,#27,#28),#6);
#2=PRODUCT_DEFINITION_CONTEXT('',#29,'design');
#3=APPLICATION_PROTOCOL_DEFINITION('INTERNATIONAL STANDARD','automotive_design',1994,#29);
#4=PRODUCT_CATEGORY_RELATIONSHIP('NONE','NONE',#30,#31);
#5=SHAPE_DEFINITION_REPRESENTATION(#32,#33);
#6= (GEOMETRIC_REPRESENTATION_CONTEXT(3)GLOBAL_UNCERTAINTY_ASSIGNED_CONTEXT((#36))GLOBAL_UNIT_ASSIGNED_CONTEXT((#38,#39,#40))REPRESENTATION_CONTEXT('NONE','WORKSPACE'));
#10=STYLED_ITEM('',(#42),#43);
#11=STYLED_ITEM('',(#44),#45);
#12=STYLED_ITEM('',(#46),#47);
#13=STYLED_ITEM('',(#48),#49);
#14=STYLED_ITEM('',(#50),#51);
#15=STYLED_ITEM('',(#52),#53);
#16=STYLED_ITEM('',(#54),#55);
#17=STYLED_ITEM('',(#56),#57);
#18=STYLED_ITEM('',(#58),#59);
#19=STYLED_ITEM('',(#60),#61);
#20=STYLED_ITEM('',(#62),#63);
#21=STYLED_ITEM('',(#64),#65);
#22=STYLED_ITEM('',(#66),#67);
#23=STYLED_ITEM('',(#68),#69);
#24=STYLED_ITEM('',(#70),#71);
#25=STYLED_ITEM('',(#72),#73);
#26=STYLED_ITEM('',(#74),#75);
#27=STYLED_ITEM('',(#76),#77);
#28=STYLED_ITEM('',(#78),#79);
#29=APPLICATION_CONTEXT(' ');
#30=PRODUCT_CATEGORY('part','NONE');
#31=PRODUCT_RELATED_PRODUCT_CATEGORY('detail',' ',(#80));
#32=PRODUCT_DEFINITION_SHAPE('NONE','NONE',#81);
#33=ADVANCED_BREP_SHAPE_REPRESENTATION('@29',(#82,#83),#6);
#36=UNCERTAINTY_MEASURE_WITH_UNIT(LENGTH_MEASURE(1.0E-006),#38,'','');
#38= (CONVERSION_BASED_UNIT('METRE',#86)LENGTH_UNIT()NAMED_UNIT(#89));
#39= (NAMED_UNIT(#91)PLANE_ANGLE_UNIT()SI_UNIT($,.RADIAN.));
#40= (NAMED_UNIT(#91)SOLID_ANGLE_UNIT()SI_UNIT($,.STERADIAN.));
#42=PRESENTATION_STYLE_ASSIGNMENT((#97));
#43=ADVANCED_FACE('',(#98),#99,.F.);
#44=PRESENTATION_STYLE_ASSIGNMENT((#100));
#45=ADVANCED_FACE('',(#101),#102,.T.);
#46=PRESENTATION_STYLE_ASSIGNMENT((#103));
#47=ADVANCED_FACE('',(#104),#105,.F.);
#48=PRESENTATION_STYLE_ASSIGNMENT((#106));
#49=ADVANCED_FACE('',(#107),#108,.T.);
#50=PRESENTATION_STYLE_ASSIGNMENT((#109));
#51=ADVANCED_FACE('',(#110,#111),#112,.F.);
#52=PRESENTATION_STYLE_ASSIGNMENT((#113));
#53=ADVANCED_FACE('',(#114),#115,.F.);
#54=PRESENTATION_STYLE_ASSIGNMENT((#116));
#55=ADVANCED_FACE('',(#117),#118,.T.);
#56=PRESENTATION_STYLE_ASSIGNMENT((#119));
#57=ADVANCED_FACE('',(#120),#121,.F.);
#58=PRESENTATION_STYLE_ASSIGNMENT((#122));
#59=ADVANCED_FACE('',(#123),#124,.T.);
#60=PRESENTATION_STYLE_ASSIGNMENT((#125));
#61=ADVANCED_FACE('',(#126),#127,.F.);
#62=PRESENTATION_STYLE_ASSIGNMENT((#128));
#63=ADVANCED_FACE('',(#129),#130,.F.);
#64=PRESENTATION_STYLE_ASSIGNMENT((#131));
#65=ADVANCED_FACE('',(#132,#133),#134,.T.);
#66=PRESENTATION_STYLE_ASSIGNMENT((#135));
#67=ADVANCED_FACE('',(#136),#137,.F.);
#68=PRESENTATION_STYLE_ASSIGNMENT((#138));
#69=ADVANCED_FACE('',(#139),#140,.T.);
#70=PRESENTATION_STYLE_ASSIGNMENT((#141));
#71=ADVANCED_FACE('',(#142),#143,.F.);
#72=PRESENTATION_STYLE_ASSIGNMENT((#144));
#73=ADVANCED_FACE('',(#145),#146,.F.);
#74=PRESENTATION_STYLE_ASSIGNMENT((#147));
#75=ADVANCED_FACE('',(#148),#149,.F.);
#76=PRESENTATION_STYLE_ASSIGNMENT((#150));
#77=ADVANCED_FACE('',(#151),#152,.T.);
#78=PRESENTATION_STYLE_ASSIGNMENT((#153));
#79=ADVANCED_FACE('',(#154),#155,.F.);
#80=PRODUCT('@29','@29','PART-@29-DESC',(#156));
#81=PRODUCT_DEFINITION('NONE','NONE',#157,#2);
#82=MANIFOLD_SOLID_BREP('@29',#158);
#83=AXIS2_PLACEMENT_3D('',#159,#160,#161);
#86=LENGTH_MEASURE_WITH_UNIT(LENGTH_MEASURE(1.0),#162);
#89=DIMENSIONAL_EXPONENTS(1.0,0.0,0.0,0.0,0.0,0.0,0.0);
#91=DIMENSIONAL_EXPONENTS(0.0,0.0,0.0,0.0,0.0,0.0,0.0);
#97=SURFACE_STYLE_USAGE(.BOTH.,#163);
#98=FACE_OUTER_BOUND('',#164,.T.);
#99=CYLINDRICAL_SURFACE('',#165,0.003);
#100=SURFACE_STYLE_USAGE(.BOTH.,#166);
#101=FACE_OUTER_BOUND('',#167,.T.);
#102=PLANE('',#168);
#103=SURFACE_STYLE_USAGE(.BOTH.,#169);
#104=FACE_OUTER_BOUND('',#170,.T.);
#105=PLANE('',#171);
#106=SURFACE_STYLE_USAGE(.BOTH.,#172);
#107=FACE_OUTER_BOUND('',#173,.T.);
#108=PLANE('',#174);
#109=SURFACE_STYLE_USAGE(.BOTH.,#175);
#110=FACE_OUTER_BOUND('',#176,.T.);
#111=FACE_BOUND('',#177,.T.);
#112=PLANE('',#178);
#113=SURFACE_STYLE_USAGE(.BOTH.,#179);
#114=FACE_OUTER_BOUND('',#180,.T.);
#115=PLANE('',#181);
#116=SURFACE_STYLE_USAGE(.BOTH.,#182);
#117=FACE_OUTER_BOUND('',#183,.T.);
#118=CYLINDRICAL_SURFACE('',#184,0.033027778);
#119=SURFACE_STYLE_USAGE(.BOTH.,#185);
#120=FACE_OUTER_BOUND('',#186,.T.);
#121=PLANE('',#187);
#122=SURFACE_STYLE_USAGE(.BOTH.,#188);
#123=FACE_OUTER_BOUND('',#189,.T.);
#124=CYLINDRICAL_SURFACE('',#190,0.038527778);
#125=SURFACE_STYLE_USAGE(.BOTH.,#191);
#126=FACE_OUTER_BOUND('',#192,.T.);
#127=PLANE('',#193);
#128=SURFACE_STYLE_USAGE(.BOTH.,#194);
#129=FACE_OUTER_BOUND('',#195,.T.);
#130=CYLINDRICAL_SURFACE('',#196,0.032027778);
#131=SURFACE_STYLE_USAGE(.BOTH.,#197);
#132=FACE_OUTER_BOUND('',#198,.T.);
#133=FACE_BOUND('',#199,.T.);
#134=PLANE('',#200);
#135=SURFACE_STYLE_USAGE(.BOTH.,#201);
#136=FACE_OUTER_BOUND('',#202,.T.);
#137=PLANE('',#203);
#138=SURFACE_STYLE_USAGE(.BOTH.,#204);
#139=FACE_OUTER_BOUND('',#205,.T.);
#140=PLANE('',#206);
#141=SURFACE_STYLE_USAGE(.BOTH.,#207);
#142=FACE_OUTER_BOUND('',#208,.T.);
#143=PLANE('',#209);
#144=SURFACE_STYLE_USAGE(.BOTH.,#210);
#145=FACE_OUTER_BOUND('',#211,.T.);
#146=CYLINDRICAL_SURFACE('',#212,0.003);
#147=SURFACE_STYLE_USAGE(.BOTH.,#213);
#148=FACE_OUTER_BOUND('',#214,.T.);
#149=CYLINDRICAL_SURFACE('',#215,0.003);
#150=SURFACE_STYLE_USAGE(.BOTH.,#216);
#151=FACE_OUTER_BOUND('',#217,.T.);
#152=PLANE('',#218);
#153=SURFACE_STYLE_USAGE(.BOTH.,#219);
#154=FACE_OUTER_BOUND('',#220,.T.);
#155=PLANE('',#221);
#156=PRODUCT_CONTEXT('',#29,'mechanical');
#157=PRODUCT_DEFINITION_FORMATION_WITH_SPECIFIED_SOURCE(' ','NONE',#80,.NOT_KNOWN.);
#158=CLOSED_SHELL('',(#65,#55,#45,#73,#51,#59,#67,#79,#75,#43,#61,#77,#47,#57,#71,#69,#53,#49,#63));
#159=CARTESIAN_POINT('',(0.0,0.0,0.0));
#160=DIRECTION('',(0.0,0.0,1.0));
#161=DIRECTION('',(1.0,0.0,0.0));
#162= (NAMED_UNIT(#89)LENGTH_UNIT()SI_UNIT($,.METRE.));
#163=SURFACE_SIDE_STYLE('',(#223));
#164=EDGE_LOOP('',(#224,#225,#226,#227));
#165=AXIS2_PLACEMENT_3D('',#228,#229,#230);
#166=SURFACE_SIDE_STYLE('',(#231));
#167=EDGE_LOOP('',(#232,#233,#234,#235));
#168=AXIS2_PLACEMENT_3D('',#236,#237,#238);
#169=SURFACE_SIDE_STYLE('',(#239));
#170=EDGE_LOOP('',(#240,#241,#242,#243));
#171=AXIS2_PLACEMENT_3D('',#244,#245,#246);
#172=SURFACE_SIDE_STYLE('',(#247));
#173=EDGE_LOOP('',(#248,#249,#250,#251));
#174=AXIS2_PLACEMENT_3D('',#252,#253,#254);
#175=SURFACE_SIDE_STYLE('',(#255));
#176=EDGE_LOOP('',(#256,#257,#258,#259));
#177=EDGE_LOOP('',(#260,#261,#262,#263));
#178=AXIS2_PLACEMENT_3D('',#264,#265,#266);
#179=SURFACE_SIDE_STYLE('',(#267));
#180=EDGE_LOOP('',(#268,#269,#270,#271));
#181=AXIS2_PLACEMENT_3D('',#272,#273,#274);
#182=SURFACE_SIDE_STYLE('',(#275));
#183=EDGE_LOOP('',(#276,#277,#278,#279));
#184=AXIS2_PLACEMENT_3D('',#280,#281,#282);
#185=SURFACE_SIDE_STYLE('',(#283));
#186=EDGE_LOOP('',(#284,#285,#286,#287));
#187=AXIS2_PLACEMENT_3D('',#288,#289,#290);
#188=SURFACE_SIDE_STYLE('',(#291));
#189=EDGE_LOOP('',(#292,#293,#294,#295));
#190=AXIS2_PLACEMENT_3D('',#296,#297,#298);
#191=SURFACE_SIDE_STYLE('',(#299));
#192=EDGE_LOOP('',(#300,#301,#302,#303,#304,#305,#306));
#193=AXIS2_PLACEMENT_3D('',#307,#308,#309);
#194=SURFACE_SIDE_STYLE('',(#310));
#195=EDGE_LOOP('',(#311,#312,#313,#314));
#196=AXIS2_PLACEMENT_3D('',#315,#316,#317);
#197=SURFACE_SIDE_STYLE('',(#318));
#198=EDGE_LOOP('',(#319,#320,#321,#322));
#199=EDGE_LOOP('',(#323,#324,#325,#326,#327,#328,#329));
#200=AXIS2_PLACEMENT_3D('',#330,#331,#332);
#201=SURFACE_SIDE_STYLE('',(#333));
#202=EDGE_LOOP('',(#334,#335,#336,#337));
#203=AXIS2_PLACEMENT_3D('',#338,#339,#340);
#204=SURFACE_SIDE_STYLE('',(#341));
#205=EDGE_LOOP('',(#342,#343,#344,#345));
#206=AXIS2_PLACEMENT_3D('',#346,#347,#348);
#207=SURFACE_SIDE_STYLE('',(#349));
#208=EDGE_LOOP('',(#350,#351,#352,#353));
#209=AXIS2_PLACEMENT_3D('',#354,#355,#356);
#210=SURFACE_SIDE_STYLE('',(#357));
#211=EDGE_LOOP('',(#358,#359,#360,#361));
#212=AXIS2_PLACEMENT_3D('',#362,#363,#364);
#213=SURFACE_SIDE_STYLE('',(#365));
#214=EDGE_LOOP('',(#366,#367,#368,#369));
#215=AXIS2_PLACEMENT_3D('',#370,#371,#372);
#216=SURFACE_SIDE_STYLE('',(#373));
#217=EDGE_LOOP('',(#374,#375,#376,#377));
#218=AXIS2_PLACEMENT_3D('',#378,#379,#380);
#219=SURFACE_SIDE_STYLE('',(#381));
#220=EDGE_LOOP('',(#382,#383,#384,#385));
#221=AXIS2_PLACEMENT_3D('',#386,#387,#388);
#223=SURFACE_STYLE_FILL_AREA(#389);
#224=ORIENTED_EDGE('',*,*,#390,.F.);
#225=ORIENTED_EDGE('',*,*,#391,.F.);
#226=ORIENTED_EDGE('',*,*,#392,.F.);
#227=ORIENTED_EDGE('',*,*,#393,.F.);
#228=CARTESIAN_POINT('',(0.066903525,0.0589383540424267,-0.015));
#229=DIRECTION('',(-0.0,-0.0,1.0));
#230=DIRECTION('',(-1.0,0.0,0.0));
#231=SURFACE_STYLE_FILL_AREA(#394);
#232=ORIENTED_EDGE('',*,*,#395,.T.);
#233=ORIENTED_EDGE('',*,*,#396,.T.);
#234=ORIENTED_EDGE('',*,*,#397,.T.);
#235=ORIENTED_EDGE('',*,*,#398,.T.);
#236=CARTESIAN_POINT('',(0.037875747,0.038527778,0.006));
#237=DIRECTION('',(0.0,0.0,1.0));
#238=DIRECTION('',(1.0,0.0,0.0));
#239=SURFACE_STYLE_FILL_AREA(#399);
#240=ORIENTED_EDGE('',*,*,#400,.T.);
#241=ORIENTED_EDGE('',*,*,#401,.F.);
#242=ORIENTED_EDGE('',*,*,#402,.F.);
#243=ORIENTED_EDGE('',*,*,#403,.T.);
#244=CARTESIAN_POINT('',(0.0125012840405511,0.0055,-0.015));
#245=DIRECTION('',(0.737214251505244,-0.675659046692607,0.0));
#246=DIRECTION('',(0.0,0.0,-1.0));
#247=SURFACE_STYLE_FILL_AREA(#404);
#248=ORIENTED_EDGE('',*,*,#405,.T.);
#249=ORIENTED_EDGE('',*,*,#406,.T.);
#250=ORIENTED_EDGE('',*,*,#407,.F.);
#251=ORIENTED_EDGE('',*,*,#408,.F.);
#252=CARTESIAN_POINT('',(0.037875747,0.0065,-0.015));
#253=DIRECTION('',(4.23418766122654E-049,1.0,5.63871401008048E-033));
#254=DIRECTION('',(1.0,5.31751793762549E-064,-7.50913710760463E-017));
#255=SURFACE_STYLE_FILL_AREA(#409);
#256=ORIENTED_EDGE('',*,*,#410,.F.);
#257=ORIENTED_EDGE('',*,*,#411,.F.);
#258=ORIENTED_EDGE('',*,*,#412,.F.);
#259=ORIENTED_EDGE('',*,*,#413,.F.);
#260=ORIENTED_EDGE('',*,*,#414,.F.);
#261=ORIENTED_EDGE('',*,*,#415,.F.);
#262=ORIENTED_EDGE('',*,*,#400,.F.);
#263=ORIENTED_EDGE('',*,*,#416,.F.);
#264=CARTESIAN_POINT('',(0.037875747,0.038527778,0.0));
#265=DIRECTION('',(0.0,0.0,1.0));
#266=DIRECTION('',(1.0,0.0,0.0));
#267=SURFACE_STYLE_FILL_AREA(#417);
#268=ORIENTED_EDGE('',*,*,#411,.T.);
#269=ORIENTED_EDGE('',*,*,#418,.F.);
#270=ORIENTED_EDGE('',*,*,#398,.F.);
#271=ORIENTED_EDGE('',*,*,#419,.T.);
#272=CARTESIAN_POINT('',(0.0,0.0,0.006));
#273=DIRECTION('',(-0.0,1.0,0.0));
#274=DIRECTION('',(1.0,0.0,0.0));
#275=SURFACE_STYLE_FILL_AREA(#420);
#276=ORIENTED_EDGE('',*,*,#414,.T.);
#277=ORIENTED_EDGE('',*,*,#421,.F.);
#278=ORIENTED_EDGE('',*,*,#422,.F.);
#279=ORIENTED_EDGE('',*,*,#423,.T.);
#280=CARTESIAN_POINT('',(0.037875747,0.038527778,-0.015));
#281=DIRECTION('',(-0.0,-0.0,-1.0));
#282=DIRECTION('',(1.0,0.0,0.0));
#283=SURFACE_STYLE_FILL_AREA(#424);
#284=ORIENTED_EDGE('',*,*,#415,.T.);
#285=ORIENTED_EDGE('',*,*,#423,.F.);
#286=ORIENTED_EDGE('',*,*,#425,.F.);
#287=ORIENTED_EDGE('',*,*,#401,.T.);
#288=CARTESIAN_POINT('',(0.070903525,0.0692229155235999,-0.015));
#289=DIRECTION('',(-1.0,0.0,0.0));
#290=DIRECTION('',(0.0,0.0,1.0));
#291=SURFACE_STYLE_FILL_AREA(#426);
#292=ORIENTED_EDGE('',*,*,#410,.T.);
#293=ORIENTED_EDGE('',*,*,#427,.F.);
#294=ORIENTED_EDGE('',*,*,#395,.F.);
#295=ORIENTED_EDGE('',*,*,#418,.T.);
#296=CARTESIAN_POINT('',(0.037875747,0.038527778,0.006));
#297=DIRECTION('',(-0.0,-0.0,1.0));
#298=DIRECTION('',(-1.0,0.0,0.0));
#299=SURFACE_STYLE_FILL_AREA(#428);
#300=ORIENTED_EDGE('',*,*,#407,.T.);
#301=ORIENTED_EDGE('',*,*,#429,.T.);
#302=ORIENTED_EDGE('',*,*,#430,.T.);
#303=ORIENTED_EDGE('',*,*,#431,.T.);
#304=ORIENTED_EDGE('',*,*,#392,.T.);
#305=ORIENTED_EDGE('',*,*,#432,.T.);
#306=ORIENTED_EDGE('',*,*,#433,.T.);
#307=CARTESIAN_POINT('',(0.037875747,0.038527778,0.0));
#308=DIRECTION('',(0.0,0.0,1.0));
#309=DIRECTION('',(1.0,0.0,0.0));
#310=SURFACE_STYLE_FILL_AREA(#434);
#311=ORIENTED_EDGE('',*,*,#433,.F.);
#312=ORIENTED_EDGE('',*,*,#435,.F.);
#313=ORIENTED_EDGE('',*,*,#436,.T.);
#314=ORIENTED_EDGE('',*,*,#408,.T.);
#315=CARTESIAN_POINT('',(0.037875747,0.038527778,-0.015));
#316=DIRECTION('',(-0.0,-0.0,-1.0));
#317=DIRECTION('',(1.0,0.0,0.0));
#318=SURFACE_STYLE_FILL_AREA(#437);
#319=ORIENTED_EDGE('',*,*,#422,.T.);
#320=ORIENTED_EDGE('',*,*,#438,.T.);
#321=ORIENTED_EDGE('',*,*,#402,.T.);
#322=ORIENTED_EDGE('',*,*,#425,.T.);
#323=ORIENTED_EDGE('',*,*,#405,.F.);
#324=ORIENTED_EDGE('',*,*,#436,.F.);
#325=ORIENTED_EDGE('',*,*,#439,.F.);
#326=ORIENTED_EDGE('',*,*,#390,.T.);
#327=ORIENTED_EDGE('',*,*,#440,.F.);
#328=ORIENTED_EDGE('',*,*,#441,.T.);
#329=ORIENTED_EDGE('',*,*,#442,.T.);
#330=CARTESIAN_POINT('',(0.037875747,0.038527778,-0.015));
#331=DIRECTION('',(0.0,0.0,-1.0));
#332=DIRECTION('',(0.0,-1.0,0.0));
#333=SURFACE_STYLE_FILL_AREA(#443);
#334=ORIENTED_EDGE('',*,*,#413,.T.);
#335=ORIENTED_EDGE('',*,*,#444,.F.);
#336=ORIENTED_EDGE('',*,*,#396,.F.);
#337=ORIENTED_EDGE('',*,*,#427,.T.);
#338=CARTESIAN_POINT('',(0.076403525,0.038527778,0.006));
#339=DIRECTION('',(-1.0,0.0,0.0));
#340=DIRECTION('',(0.0,0.0,1.0));
#341=SURFACE_STYLE_FILL_AREA(#445);
#342=ORIENTED_EDGE('',*,*,#431,.F.);
#343=ORIENTED_EDGE('',*,*,#446,.T.);
#344=ORIENTED_EDGE('',*,*,#440,.T.);
#345=ORIENTED_EDGE('',*,*,#393,.T.);
#346=CARTESIAN_POINT('',(0.0147742447751968,0.0065,-0.015));
#347=DIRECTION('',(0.737214251505244,-0.675659046692607,0.0));
#348=DIRECTION('',(0.0,0.0,-1.0));
#349=SURFACE_STYLE_FILL_AREA(#447);
#350=ORIENTED_EDGE('',*,*,#416,.T.);
#351=ORIENTED_EDGE('',*,*,#403,.F.);
#352=ORIENTED_EDGE('',*,*,#438,.F.);
#353=ORIENTED_EDGE('',*,*,#421,.T.);
#354=CARTESIAN_POINT('',(0.037875747,0.0055,-0.015));
#355=DIRECTION('',(3.19521575854129E-049,1.0,4.67376414946478E-033));
#356=DIRECTION('',(1.0,-3.41840438847353E-064,-6.8364933624372E-017));
#357=SURFACE_STYLE_FILL_AREA(#448);
#358=ORIENTED_EDGE('',*,*,#430,.F.);
#359=ORIENTED_EDGE('',*,*,#449,.T.);
#360=ORIENTED_EDGE('',*,*,#441,.F.);
#361=ORIENTED_EDGE('',*,*,#446,.F.);
#362=CARTESIAN_POINT('',(0.0215931269791337,0.0095,-0.015));
#363=DIRECTION('',(-0.0,-0.0,1.0));
#364=DIRECTION('',(-1.0,0.0,0.0));
#365=SURFACE_STYLE_FILL_AREA(#450);
#366=ORIENTED_EDGE('',*,*,#449,.F.);
#367=ORIENTED_EDGE('',*,*,#429,.F.);
#368=ORIENTED_EDGE('',*,*,#406,.F.);
#369=ORIENTED_EDGE('',*,*,#442,.F.);
#370=CARTESIAN_POINT('',(0.0215931269791337,0.0095,-0.015));
#371=DIRECTION('',(-0.0,-0.0,1.0));
#372=DIRECTION('',(-1.0,0.0,0.0));
#373=SURFACE_STYLE_FILL_AREA(#451);
#374=ORIENTED_EDGE('',*,*,#432,.F.);
#375=ORIENTED_EDGE('',*,*,#391,.T.);
#376=ORIENTED_EDGE('',*,*,#439,.T.);
#377=ORIENTED_EDGE('',*,*,#435,.T.);
#378=CARTESIAN_POINT('',(0.069903525,0.0666517751533066,-0.015));
#379=DIRECTION('',(-1.0,0.0,0.0));
#380=DIRECTION('',(0.0,0.0,1.0));
#381=SURFACE_STYLE_FILL_AREA(#452);
#382=ORIENTED_EDGE('',*,*,#412,.T.);
#383=ORIENTED_EDGE('',*,*,#419,.F.);
#384=ORIENTED_EDGE('',*,*,#397,.F.);
#385=ORIENTED_EDGE('',*,*,#444,.T.);
#386=CARTESIAN_POINT('',(0.0,0.0,0.006));
#387=DIRECTION('',(0.737214251505244,-0.675659046692607,0.0));
#388=DIRECTION('',(0.0,0.0,-1.0));
#389=FILL_AREA_STYLE('',(#453));
#390=EDGE_CURVE('',#454,#455,#456,.T.);
#391=EDGE_CURVE('',#457,#454,#458,.T.);
#392=EDGE_CURVE('',#459,#457,#460,.T.);
#393=EDGE_CURVE('',#455,#459,#461,.T.);
#394=FILL_AREA_STYLE('',(#462));
#395=EDGE_CURVE('',#463,#464,#465,.T.);
#396=EDGE_CURVE('',#464,#466,#467,.T.);
#397=EDGE_CURVE('',#466,#468,#469,.T.);
#398=EDGE_CURVE('',#468,#463,#470,.T.);
#399=FILL_AREA_STYLE('',(#471));
#400=EDGE_CURVE('',#472,#473,#474,.T.);
#401=EDGE_CURVE('',#475,#473,#476,.T.);
#402=EDGE_CURVE('',#477,#475,#478,.T.);
#403=EDGE_CURVE('',#477,#472,#479,.T.);
#404=FILL_AREA_STYLE('',(#480));
#405=EDGE_CURVE('',#481,#482,#483,.T.);
#406=EDGE_CURVE('',#482,#484,#485,.T.);
#407=EDGE_CURVE('',#486,#484,#487,.T.);
#408=EDGE_CURVE('',#481,#486,#488,.T.);
#409=FILL_AREA_STYLE('',(#489));
#410=EDGE_CURVE('',#490,#491,#492,.T.);
#411=EDGE_CURVE('',#493,#490,#494,.T.);
#412=EDGE_CURVE('',#495,#493,#496,.T.);
#413=EDGE_CURVE('',#491,#495,#497,.T.);
#414=EDGE_CURVE('',#498,#499,#500,.T.);
#415=EDGE_CURVE('',#473,#498,#501,.T.);
#416=EDGE_CURVE('',#499,#472,#502,.T.);
#417=FILL_AREA_STYLE('',(#503));
#418=EDGE_CURVE('',#463,#490,#504,.T.);
#419=EDGE_CURVE('',#468,#493,#505,.T.);
#420=FILL_AREA_STYLE('',(#506));
#421=EDGE_CURVE('',#507,#499,#508,.T.);
#422=EDGE_CURVE('',#509,#507,#510,.T.);
#423=EDGE_CURVE('',#509,#498,#511,.T.);
#424=FILL_AREA_STYLE('',(#512));
#425=EDGE_CURVE('',#475,#509,#513,.T.);
#426=FILL_AREA_STYLE('',(#514));
#427=EDGE_CURVE('',#464,#491,#515,.T.);
#428=FILL_AREA_STYLE('',(#516));
#429=EDGE_CURVE('',#484,#517,#518,.T.);
#430=EDGE_CURVE('',#517,#519,#520,.T.);
#431=EDGE_CURVE('',#519,#459,#521,.T.);
#432=EDGE_CURVE('',#457,#522,#523,.T.);
#433=EDGE_CURVE('',#522,#486,#524,.T.);
#434=FILL_AREA_STYLE('',(#525));
#435=EDGE_CURVE('',#526,#522,#527,.T.);
#436=EDGE_CURVE('',#526,#481,#528,.T.);
#437=FILL_AREA_STYLE('',(#529));
#438=EDGE_CURVE('',#507,#477,#530,.T.);
#439=EDGE_CURVE('',#454,#526,#531,.T.);
#440=EDGE_CURVE('',#532,#455,#533,.T.);
#441=EDGE_CURVE('',#532,#534,#535,.T.);
#442=EDGE_CURVE('',#534,#482,#536,.T.);
#443=FILL_AREA_STYLE('',(#537));
#444=EDGE_CURVE('',#466,#495,#538,.T.);
#445=FILL_AREA_STYLE('',(#539));
#446=EDGE_CURVE('',#519,#532,#540,.T.);
#447=FILL_AREA_STYLE('',(#541));
#448=FILL_AREA_STYLE('',(#542));
#449=EDGE_CURVE('',#517,#534,#543,.T.);
#450=FILL_AREA_STYLE('',(#544));
#451=FILL_AREA_STYLE('',(#545));
#452=FILL_AREA_STYLE('',(#546));
#453=FILL_AREA_STYLE_COLOUR('',#547);
#454=VERTEX_POINT('',#548);
#455=VERTEX_POINT('',#549);
#456=CIRCLE('',#550,0.003);
#457=VERTEX_POINT('',#551);
#458=LINE('',#552,#553);
#459=VERTEX_POINT('',#554);
#460=CIRCLE('',#555,0.003);
#461=LINE('',#556,#557);
#462=FILL_AREA_STYLE_COLOUR('',#558);
#463=VERTEX_POINT('',#559);
#464=VERTEX_POINT('',#560);
#465=CIRCLE('',#561,0.038527778);
#466=VERTEX_POINT('',#562);
#467=LINE('',#563,#564);
#468=VERTEX_POINT('',#565);
#469=LINE('',#566,#567);
#470=LINE('',#568,#569);
#471=FILL_AREA_STYLE_COLOUR('',#570);
#472=VERTEX_POINT('',#571);
#473=VERTEX_POINT('',#572);
#474=LINE('',#573,#574);
#475=VERTEX_POINT('',#575);
#476=LINE('',#576,#577);
#477=VERTEX_POINT('',#578);
#478=LINE('',#579,#580);
#479=LINE('',#581,#582);
#480=FILL_AREA_STYLE_COLOUR('',#583);
#481=VERTEX_POINT('',#584);
#482=VERTEX_POINT('',#585);
#483=LINE('',#586,#587);
#484=VERTEX_POINT('',#588);
#485=LINE('',#589,#590);
#486=VERTEX_POINT('',#591);
#487=LINE('',#592,#593);
#488=LINE('',#594,#595);
#489=FILL_AREA_STYLE_COLOUR('',#596);
#490=VERTEX_POINT('',#597);
#491=VERTEX_POINT('',#598);
#492=CIRCLE('',#599,0.038527778);
#493=VERTEX_POINT('',#600);
#494=LINE('',#601,#602);
#495=VERTEX_POINT('',#603);
#496=LINE('',#604,#605);
#497=LINE('',#606,#607);
#498=VERTEX_POINT('',#608);
#499=VERTEX_POINT('',#609);
#500=CIRCLE('',#610,0.033027778);
#501=LINE('',#611,#612);
#502=LINE('',#613,#614);
#503=FILL_AREA_STYLE_COLOUR('',#615);
#504=LINE('',#616,#617);
#505=LINE('',#618,#619);
#506=FILL_AREA_STYLE_COLOUR('',#620);
#507=VERTEX_POINT('',#621);
#508=LINE('',#622,#623);
#509=VERTEX_POINT('',#624);
#510=CIRCLE('',#625,0.033027778);
#511=LINE('',#626,#627);
#512=FILL_AREA_STYLE_COLOUR('',#628);
#513=LINE('',#629,#630);
#514=FILL_AREA_STYLE_COLOUR('',#631);
#515=LINE('',#632,#633);
#516=FILL_AREA_STYLE_COLOUR('',#634);
#517=VERTEX_POINT('',#635);
#518=CIRCLE('',#636,0.003);
#519=VERTEX_POINT('',#637);
#520=CIRCLE('',#638,0.003);
#521=LINE('',#639,#640);
#522=VERTEX_POINT('',#641);
#523=LINE('',#642,#643);
#524=CIRCLE('',#644,0.032027778);
#525=FILL_AREA_STYLE_COLOUR('',#645);
#526=VERTEX_POINT('',#646);
#527=LINE('',#647,#648);
#528=CIRCLE('',#649,0.032027778);
#529=FILL_AREA_STYLE_COLOUR('',#650);
#530=LINE('',#651,#652);
#531=LINE('',#653,#654);
#532=VERTEX_POINT('',#655);
#533=LINE('',#656,#657);
#534=VERTEX_POINT('',#658);
#535=CIRCLE('',#659,0.003);
#536=CIRCLE('',#660,0.003);
#537=FILL_AREA_STYLE_COLOUR('',#661);
#538=LINE('',#662,#663);
#539=FILL_AREA_STYLE_COLOUR('',#664);
#540=LINE('',#665,#666);
#541=FILL_AREA_STYLE_COLOUR('',#667);
#542=FILL_AREA_STYLE_COLOUR('',#668);
#543=LINE('',#669,#670);
#544=FILL_AREA_STYLE_COLOUR('',#671);
#545=FILL_AREA_STYLE_COLOUR('',#672);
#546=FILL_AREA_STYLE_COLOUR('',#673);
#547=COLOUR_RGB('',0.792156875133514,0.819607853889465,0.933333337306976);
#548=CARTESIAN_POINT('',(0.069903525,0.0589383540424267,-0.015));
#549=CARTESIAN_POINT('',(0.0646918822454843,0.0609653311825045,-0.015));
#550=AXIS2_PLACEMENT_3D('',#674,#675,#676);
#551=CARTESIAN_POINT('',(0.069903525,0.0589383540424267,0.0));
#552=CARTESIAN_POINT('',(0.069903525,0.0589383540424267,-0.015));
#553=VECTOR('',#677,1.0);
#554=CARTESIAN_POINT('',(0.0646918822454843,0.0609653311825045,0.0));
#555=AXIS2_PLACEMENT_3D('',#678,#679,#680);
#556=CARTESIAN_POINT('',(0.0646918822454843,0.0609653311825046,0.0));
#557=VECTOR('',#681,1.0);
#558=COLOUR_RGB('',0.792156875133514,0.819607853889465,0.933333337306976);
#559=CARTESIAN_POINT('',(0.037875747,0.0,0.006));
#560=CARTESIAN_POINT('',(0.076403525,0.038527778,0.006));
#561=AXIS2_PLACEMENT_3D('',#682,#683,#684);
#562=CARTESIAN_POINT('',(0.076403525,0.083364187560213,0.006));
#563=CARTESIAN_POINT('',(0.076403525,0.038527778,0.006));
#564=VECTOR('',#685,1.0);
#565=CARTESIAN_POINT('',(0.0,0.0,0.006));
#566=CARTESIAN_POINT('',(0.0,0.0,0.006));
#567=VECTOR('',#686,1.0);
#568=CARTESIAN_POINT('',(0.0,0.0,0.006));
#569=VECTOR('',#687,1.0);
#570=COLOUR_RGB('',0.792156875133514,0.819607853889465,0.933333337306976);
#571=CARTESIAN_POINT('',(0.0125012840405511,0.0055,0.0));
#572=CARTESIAN_POINT('',(0.070903525,0.0692229155235999,0.0));
#573=CARTESIAN_POINT('',(0.0125012840405511,0.0055,0.0));
#574=VECTOR('',#688,1.0);
#575=CARTESIAN_POINT('',(0.070903525,0.0692229155235999,-0.015));
#576=CARTESIAN_POINT('',(0.070903525,0.0692229155235999,-0.015));
#577=VECTOR('',#689,1.0);
#578=CARTESIAN_POINT('',(0.0125012840405511,0.0055,-0.015));
#579=CARTESIAN_POINT('',(0.0125012840405511,0.0055,-0.015));
#580=VECTOR('',#690,1.0);
#581=CARTESIAN_POINT('',(0.0125012840405511,0.0055,-0.015));
#582=VECTOR('',#691,1.0);
#583=COLOUR_RGB('',0.792156875133514,0.819607853889465,0.933333337306976);
#584=CARTESIAN_POINT('',(0.037875747,0.0065,-0.015));
#585=CARTESIAN_POINT('',(0.0215931269791337,0.0065,-0.015));
#586=CARTESIAN_POINT('',(0.037875747,0.0065,-0.015));
#587=VECTOR('',#692,1.0);
#588=CARTESIAN_POINT('',(0.0215931269791337,0.0065,0.0));
#589=CARTESIAN_POINT('',(0.0215931269791337,0.0065,0.0));
#590=VECTOR('',#693,1.0);
#591=CARTESIAN_POINT('',(0.037875747,0.0065,0.0));
#592=CARTESIAN_POINT('',(0.037875747,0.0065,0.0));
#593=VECTOR('',#694,1.0);
#594=CARTESIAN_POINT('',(0.037875747,0.0065,-0.015));
#595=VECTOR('',#695,1.0);
#596=COLOUR_RGB('',0.792156875133514,0.819607853889465,0.933333337306976);
#597=CARTESIAN_POINT('',(0.037875747,0.0,0.0));
#598=CARTESIAN_POINT('',(0.076403525,0.038527778,0.0));
#599=AXIS2_PLACEMENT_3D('',#696,#697,#698);
#600=CARTESIAN_POINT('',(0.0,0.0,0.0));
#601=CARTESIAN_POINT('',(0.0,0.0,0.0));
#602=VECTOR('',#699,1.0);
#603=CARTESIAN_POINT('',(0.076403525,0.083364187560213,0.0));
#604=CARTESIAN_POINT('',(0.0,0.0,0.0));
#605=VECTOR('',#700,1.0);
#606=CARTESIAN_POINT('',(0.076403525,0.038527778,0.0));
#607=VECTOR('',#701,1.0);
#608=CARTESIAN_POINT('',(0.070903525,0.038527778,0.0));
#609=CARTESIAN_POINT('',(0.037875747,0.0055,0.0));
#610=AXIS2_PLACEMENT_3D('',#702,#703,#704);
#611=CARTESIAN_POINT('',(0.070903525,0.0692229155235999,0.0));
#612=VECTOR('',#705,1.0);
#613=CARTESIAN_POINT('',(0.037875747,0.0055,0.0));
#614=VECTOR('',#706,1.0);
#615=COLOUR_RGB('',0.792156875133514,0.819607853889465,0.933333337306976);
#616=CARTESIAN_POINT('',(0.037875747,0.0,0.006));
#617=VECTOR('',#707,1.0);
#618=CARTESIAN_POINT('',(0.0,0.0,0.006));
#619=VECTOR('',#708,1.0);
#620=COLOUR_RGB('',0.792156875133514,0.819607853889465,0.933333337306976);
#621=CARTESIAN_POINT('',(0.037875747,0.0055,-0.015));
#622=CARTESIAN_POINT('',(0.037875747,0.0055,-0.015));
#623=VECTOR('',#709,1.0);
#624=CARTESIAN_POINT('',(0.070903525,0.038527778,-0.015));
#625=AXIS2_PLACEMENT_3D('',#710,#711,#712);
#626=CARTESIAN_POINT('',(0.070903525,0.038527778,-0.015));
#627=VECTOR('',#713,1.0);
#628=COLOUR_RGB('',0.792156875133514,0.819607853889465,0.933333337306976);
#629=CARTESIAN_POINT('',(0.070903525,0.0692229155235999,-0.015));
#630=VECTOR('',#714,1.0);
#631=COLOUR_RGB('',0.792156875133514,0.819607853889465,0.933333337306976);
#632=CARTESIAN_POINT('',(0.076403525,0.038527778,0.006));
#633=VECTOR('',#715,1.0);
#634=COLOUR_RGB('',0.792156875133514,0.819607853889465,0.933333337306976);
#635=CARTESIAN_POINT('',(0.0185931269791337,0.0095,0.0));
#636=AXIS2_PLACEMENT_3D('',#716,#717,#718);
#637=CARTESIAN_POINT('',(0.019381484224618,0.0115269771400778,0.0));
#638=AXIS2_PLACEMENT_3D('',#719,#720,#721);
#639=CARTESIAN_POINT('',(0.0147742447751968,0.0065,0.0));
#640=VECTOR('',#722,1.0);
#641=CARTESIAN_POINT('',(0.069903525,0.038527778,0.0));
#642=CARTESIAN_POINT('',(0.069903525,0.0666517751533066,0.0));
#643=VECTOR('',#723,1.0);
#644=AXIS2_PLACEMENT_3D('',#724,#725,#726);
#645=COLOUR_RGB('',0.792156875133514,0.819607853889465,0.933333337306976);
#646=CARTESIAN_POINT('',(0.069903525,0.038527778,-0.015));
#647=CARTESIAN_POINT('',(0.069903525,0.038527778,-0.015));
#648=VECTOR('',#727,1.0);
#649=AXIS2_PLACEMENT_3D('',#728,#729,#730);
#650=COLOUR_RGB('',0.792156875133514,0.819607853889465,0.933333337306976);
#651=CARTESIAN_POINT('',(0.037875747,0.0055,-0.015));
#652=VECTOR('',#731,1.0);
#653=CARTESIAN_POINT('',(0.069903525,0.0666517751533066,-0.015));
#654=VECTOR('',#732,1.0);
#655=CARTESIAN_POINT('',(0.019381484224618,0.0115269771400778,-0.015));
#656=CARTESIAN_POINT('',(0.0147742447751968,0.0065,-0.015));
#657=VECTOR('',#733,1.0);
#658=CARTESIAN_POINT('',(0.0185931269791337,0.0095,-0.015));
#659=AXIS2_PLACEMENT_3D('',#734,#735,#736);
#660=AXIS2_PLACEMENT_3D('',#737,#738,#739);
#661=COLOUR_RGB('',0.792156875133514,0.819607853889465,0.933333337306976);
#662=CARTESIAN_POINT('',(0.076403525,0.083364187560213,0.006));
#663=VECTOR('',#740,1.0);
#664=COLOUR_RGB('',0.792156875133514,0.819607853889465,0.933333337306976);
#665=CARTESIAN_POINT('',(0.019381484224618,0.0115269771400778,-0.015));
#666=VECTOR('',#741,1.0);
#667=COLOUR_RGB('',0.792156875133514,0.819607853889465,0.933333337306976);
#668=COLOUR_RGB('',0.792156875133514,0.819607853889465,0.933333337306976);
#669=CARTESIAN_POINT('',(0.0185931269791337,0.0095,-0.015));
#670=VECTOR('',#742,1.0);
#671=COLOUR_RGB('',0.792156875133514,0.819607853889465,0.933333337306976);
#672=COLOUR_RGB('',0.792156875133514,0.819607853889465,0.933333337306976);
#673=COLOUR_RGB('',0.792156875133514,0.819607853889465,0.933333337306976);
#674=CARTESIAN_POINT('',(0.066903525,0.0589383540424267,-0.015));
#675=DIRECTION('',(0.0,0.0,1.0));
#676=DIRECTION('',(-1.0,0.0,0.0));
#677=DIRECTION('',(0.0,0.0,-1.0));
#678=CARTESIAN_POINT('',(0.066903525,0.0589383540424267,0.0));
#679=DIRECTION('',(0.0,0.0,-1.0));
#680=DIRECTION('',(1.0,0.0,0.0));
#681=DIRECTION('',(0.0,0.0,1.0));
#682=CARTESIAN_POINT('',(0.037875747,0.038527778,0.006));
#683=DIRECTION('',(0.0,0.0,1.0));
#684=DIRECTION('',(1.0,0.0,0.0));
#685=DIRECTION('',(0.0,1.0,0.0));
#686=DIRECTION('',(-0.675659046692607,-0.737214251505244,0.0));
#687=DIRECTION('',(1.0,0.0,0.0));
#688=DIRECTION('',(0.675659046692607,0.737214251505244,0.0));
#689=DIRECTION('',(0.0,0.0,1.0));
#690=DIRECTION('',(0.675659046692607,0.737214251505244,0.0));
#691=DIRECTION('',(0.0,0.0,1.0));
#692=DIRECTION('',(-1.0,7.50913710760463E-017,0.0));
#693=DIRECTION('',(0.0,0.0,1.0));
#694=DIRECTION('',(-1.0,7.50913710760463E-017,0.0));
#695=DIRECTION('',(0.0,0.0,1.0));
#696=CARTESIAN_POINT('',(0.037875747,0.038527778,0.0));
#697=DIRECTION('',(0.0,0.0,1.0));
#698=DIRECTION('',(1.0,0.0,0.0));
#699=DIRECTION('',(1.0,0.0,0.0));
#700=DIRECTION('',(-0.675659046692607,-0.737214251505244,0.0));
#701=DIRECTION('',(0.0,1.0,0.0));
#702=CARTESIAN_POINT('',(0.037875747,0.038527778,0.0));
#703=DIRECTION('',(0.0,0.0,-1.0));
#704=DIRECTION('',(-1.0,0.0,0.0));
#705=DIRECTION('',(0.0,-1.0,0.0));
#706=DIRECTION('',(-1.0,6.8364933624372E-017,0.0));
#707=DIRECTION('',(0.0,0.0,-1.0));
#708=DIRECTION('',(0.0,0.0,-1.0));
#709=DIRECTION('',(0.0,0.0,1.0));
#710=CARTESIAN_POINT('',(0.037875747,0.038527778,-0.015));
#711=DIRECTION('',(0.0,0.0,-1.0));
#712=DIRECTION('',(-1.0,0.0,0.0));
#713=DIRECTION('',(0.0,0.0,1.0));
#714=DIRECTION('',(0.0,-1.0,0.0));
#715=DIRECTION('',(0.0,0.0,-1.0));
#716=CARTESIAN_POINT('',(0.0215931269791337,0.0095,0.0));
#717=DIRECTION('',(0.0,0.0,-1.0));
#718=DIRECTION('',(1.0,0.0,0.0));
#719=CARTESIAN_POINT('',(0.0215931269791337,0.0095,0.0));
#720=DIRECTION('',(0.0,0.0,-1.0));
#721=DIRECTION('',(1.0,1.73472347597681E-015,0.0));
#722=DIRECTION('',(0.675659046692607,0.737214251505244,0.0));
#723=DIRECTION('',(0.0,-1.0,0.0));
#724=CARTESIAN_POINT('',(0.037875747,0.038527778,0.0));
#725=DIRECTION('',(0.0,0.0,-1.0));
#726=DIRECTION('',(-1.0,0.0,0.0));
#727=DIRECTION('',(0.0,0.0,1.0));
#728=CARTESIAN_POINT('',(0.037875747,0.038527778,-0.015));
#729=DIRECTION('',(0.0,0.0,-1.0));
#730=DIRECTION('',(-1.0,0.0,0.0));
#731=DIRECTION('',(-1.0,6.8364933624372E-017,0.0));
#732=DIRECTION('',(0.0,-1.0,0.0));
#733=DIRECTION('',(0.675659046692607,0.737214251505244,0.0));
#734=CARTESIAN_POINT('',(0.0215931269791337,0.0095,-0.015));
#735=DIRECTION('',(0.0,0.0,1.0));
#736=DIRECTION('',(-1.0,1.73472347597681E-015,0.0));
#737=CARTESIAN_POINT('',(0.0215931269791337,0.0095,-0.015));
#738=DIRECTION('',(0.0,0.0,1.0));
#739=DIRECTION('',(-1.0,0.0,0.0));
#740=DIRECTION('',(0.0,0.0,-1.0));
#741=DIRECTION('',(0.0,0.0,-1.0));
#742=DIRECTION('',(0.0,0.0,-1.0));
ENDSEC;
END-ISO-10303-21;
