ISO-10303-21;
HEADER;
FILE_DESCRIPTION (( 'STEP AP214' ),
    '1' );
FILE_NAME ('Platine 20x10.STEP',
    '2019-10-20T13:09:05',
    ( 'Olivier' ),
    ( 'Microsoft' ),
    'SwSTEP 2.0',
    'SolidWorks 2010',
    '' );
FILE_SCHEMA (( 'AUTOMOTIVE_DESIGN' ));
ENDSEC;

DATA;
#1 = UNCERTAINTY_MEASURE_WITH_UNIT (LENGTH_MEASURE( 1.000000000000000100E-005 ), #261, 'distance_accuracy_value', 'NONE');
#2 = ADVANCED_BREP_SHAPE_REPRESENTATION ( 'Platine 20x10', ( #158, #180 ), #50 ) ;
#3 = UNCERTAINTY_MEASURE_WITH_UNIT (LENGTH_MEASURE( 1.000000000000000100E-005 ), #215, 'distance_accuracy_value', 'NONE');
#4 = UNCERTAINTY_MEASURE_WITH_UNIT (LENGTH_MEASURE( 1.000000000000000100E-005 ), #269, 'distance_accuracy_value', 'NONE');
#5 = EDGE_CURVE ( 'NONE', #332, #272, #116, .T. ) ;
#6 = EDGE_CURVE ( 'NONE', #195, #311, #132, .T. ) ;
#7 = EDGE_CURVE ( 'NONE', #205, #243, #110, .T. ) ;
#8 = EDGE_CURVE ( 'NONE', #184, #300, #111, .T. ) ;
#9 = EDGE_CURVE ( 'NONE', #235, #272, #112, .T. ) ;
#10 = EDGE_CURVE ( 'NONE', #260, #205, #113, .T. ) ;
#11 = EDGE_CURVE ( 'NONE', #331, #270, #102, .T. ) ;
#12 = EDGE_CURVE ( 'NONE', #184, #195, #103, .T. ) ;
#13 = LINE ( 'NONE', #284, #55 ) ;
#14 = VECTOR ( 'NONE', #312, 1000.000000000000000 ) ;
#15 = LINE ( 'NONE', #333, #14 ) ;
#16 = VECTOR ( 'NONE', #320, 1000.000000000000000 ) ;
#17 = LINE ( 'NONE', #335, #16 ) ;
#18 = ORIENTED_EDGE ( 'NONE', *, *, #7, .T. ) ;
#19 = ORIENTED_EDGE ( 'NONE', *, *, #8, .F. ) ;
#20 = VECTOR ( 'NONE', #290, 1000.000000000000000 ) ;
#21 = LINE ( 'NONE', #325, #20 ) ;
#22 = PRODUCT ( 'Platine 20x10', 'Platine 20x10', '', ( #247 ) ) ;
#23 = CIRCLE ( 'NONE', #341, 4.000000000000000000 ) ;
#24 = ORIENTED_EDGE ( 'NONE', *, *, #9, .T. ) ;
#25 = VECTOR ( 'NONE', #191, 1000.000000000000000 ) ;
#26 = CIRCLE ( 'NONE', #342, 4.000000000000000000 ) ;
#27 = LINE ( 'NONE', #228, #39 ) ;
#28 = ORIENTED_EDGE ( 'NONE', *, *, #163, .T. ) ;
#29 = ORIENTED_EDGE ( 'NONE', *, *, #175, .T. ) ;
#30 = VECTOR ( 'NONE', #187, 1000.000000000000000 ) ;
#31 = ORIENTED_EDGE ( 'NONE', *, *, #176, .F. ) ;
#32 = ORIENTED_EDGE ( 'NONE', *, *, #10, .F. ) ;
#33 = CLOSED_SHELL ( 'NONE', ( #151, #149, #148, #152, #156, #157, #150, #154, #155, #153 ) ) ;
#34 = VECTOR ( 'NONE', #202, 1000.000000000000000 ) ;
#35 = LINE ( 'NONE', #203, #34 ) ;
#36 = VECTOR ( 'NONE', #206, 1000.000000000000000 ) ;
#37 = ORIENTED_EDGE ( 'NONE', *, *, #178, .F. ) ;
#38 = LINE ( 'NONE', #208, #36 ) ;
#39 = VECTOR ( 'NONE', #197, 1000.000000000000000 ) ;
#40 = LINE ( 'NONE', #188, #30 ) ;
#41 =( GEOMETRIC_REPRESENTATION_CONTEXT ( 3 ) GLOBAL_UNCERTAINTY_ASSIGNED_CONTEXT ( ( #3 ) ) GLOBAL_UNIT_ASSIGNED_CONTEXT ( ( #215, #213, #212 ) ) REPRESENTATION_CONTEXT ( 'NONE', 'WORKASPACE' ) );
#42 = ORIENTED_EDGE ( 'NONE', *, *, #11, .T. ) ;
#43 = ORIENTED_EDGE ( 'NONE', *, *, #236, .T. ) ;
#44 = SHAPE_DEFINITION_REPRESENTATION ( #160, #2 ) ;
#45 =( GEOMETRIC_REPRESENTATION_CONTEXT ( 3 ) GLOBAL_UNCERTAINTY_ASSIGNED_CONTEXT ( ( #1 ) ) GLOBAL_UNIT_ASSIGNED_CONTEXT ( ( #261, #257, #256 ) ) REPRESENTATION_CONTEXT ( 'NONE', 'WORKASPACE' ) );
#46 = STYLED_ITEM ( 'NONE', ( #47 ), #2 ) ;
#47 = PRESENTATION_STYLE_ASSIGNMENT (( #262 ) ) ;
#48 = SURFACE_STYLE_FILL_AREA ( #265 ) ;
#49 = COLOUR_RGB ( '',0.7921568627450980000, 0.8196078431372548800, 0.9333333333333333500 ) ;
#50 =( GEOMETRIC_REPRESENTATION_CONTEXT ( 3 ) GLOBAL_UNCERTAINTY_ASSIGNED_CONTEXT ( ( #4 ) ) GLOBAL_UNIT_ASSIGNED_CONTEXT ( ( #269, #268, #267 ) ) REPRESENTATION_CONTEXT ( 'NONE', 'WORKASPACE' ) );
#51 = ORIENTED_EDGE ( 'NONE', *, *, #239, .T. ) ;
#52 = CIRCLE ( 'NONE', #169, 4.000000000000003600 ) ;
#53 = CIRCLE ( 'NONE', #339, 4.000000000000000000 ) ;
#54 = CIRCLE ( 'NONE', #170, 4.000000000000003600 ) ;
#55 = VECTOR ( 'NONE', #282, 1000.000000000000000 ) ;
#56 = CIRCLE ( 'NONE', #167, 4.000000000000003600 ) ;
#57 = PRESENTATION_STYLE_ASSIGNMENT (( #217 ) ) ;
#58 = STYLED_ITEM ( 'NONE', ( #57 ), #158 ) ;
#59 = VECTOR ( 'NONE', #210, 1000.000000000000000 ) ;
#60 = ORIENTED_EDGE ( 'NONE', *, *, #238, .T. ) ;
#61 = ORIENTED_EDGE ( 'NONE', *, *, #166, .F. ) ;
#62 = ORIENTED_EDGE ( 'NONE', *, *, #174, .T. ) ;
#63 = ORIENTED_EDGE ( 'NONE', *, *, #161, .T. ) ;
#64 = ORIENTED_EDGE ( 'NONE', *, *, #175, .F. ) ;
#65 = ORIENTED_EDGE ( 'NONE', *, *, #173, .F. ) ;
#66 = SURFACE_STYLE_FILL_AREA ( #219 ) ;
#67 = COLOUR_RGB ( '',0.7921568627450980000, 0.8196078431372548800, 0.9333333333333333500 ) ;
#68 = FACE_OUTER_BOUND ( 'NONE', #120, .T. ) ;
#69 = CYLINDRICAL_SURFACE ( 'NONE', #345, 4.000000000000000000 ) ;
#70 = FACE_BOUND ( 'NONE', #127, .T. ) ;
#71 = CYLINDRICAL_SURFACE ( 'NONE', #340, 4.000000000000003600 ) ;
#72 = FACE_OUTER_BOUND ( 'NONE', #126, .T. ) ;
#73 = ORIENTED_EDGE ( 'NONE', *, *, #172, .F. ) ;
#74 = ORIENTED_EDGE ( 'NONE', *, *, #11, .F. ) ;
#75 = ORIENTED_EDGE ( 'NONE', *, *, #173, .T. ) ;
#76 = ORIENTED_EDGE ( 'NONE', *, *, #237, .T. ) ;
#77 = ORIENTED_EDGE ( 'NONE', *, *, #174, .F. ) ;
#78 = ORIENTED_EDGE ( 'NONE', *, *, #7, .F. ) ;
#79 = ORIENTED_EDGE ( 'NONE', *, *, #147, .T. ) ;
#80 = LINE ( 'NONE', #220, #59 ) ;
#81 = FACE_OUTER_BOUND ( 'NONE', #130, .T. ) ;
#82 = FACE_OUTER_BOUND ( 'NONE', #131, .T. ) ;
#83 = FACE_OUTER_BOUND ( 'NONE', #128, .T. ) ;
#84 = CYLINDRICAL_SURFACE ( 'NONE', #349, 4.000000000000003600 ) ;
#85 = ORIENTED_EDGE ( 'NONE', *, *, #6, .T. ) ;
#86 = FACE_BOUND ( 'NONE', #119, .T. ) ;
#87 = FACE_OUTER_BOUND ( 'NONE', #121, .T. ) ;
#88 = ORIENTED_EDGE ( 'NONE', *, *, #9, .F. ) ;
#89 = ORIENTED_EDGE ( 'NONE', *, *, #6, .F. ) ;
#90 = ORIENTED_EDGE ( 'NONE', *, *, #5, .T. ) ;
#91 = ORIENTED_EDGE ( 'NONE', *, *, #177, .F. ) ;
#92 = ORIENTED_EDGE ( 'NONE', *, *, #166, .T. ) ;
#93 = ORIENTED_EDGE ( 'NONE', *, *, #8, .T. ) ;
#94 = ORIENTED_EDGE ( 'NONE', *, *, #163, .F. ) ;
#95 = FACE_BOUND ( 'NONE', #117, .T. ) ;
#96 = ORIENTED_EDGE ( 'NONE', *, *, #12, .F. ) ;
#97 = FACE_OUTER_BOUND ( 'NONE', #129, .T. ) ;
#98 = FACE_OUTER_BOUND ( 'NONE', #125, .T. ) ;
#99 = CYLINDRICAL_SURFACE ( 'NONE', #343, 4.000000000000000000 ) ;
#100 = LINE ( 'NONE', #323, #108 ) ;
#101 = FACE_OUTER_BOUND ( 'NONE', #123, .T. ) ;
#102 = CIRCLE ( 'NONE', #347, 4.000000000000000000 ) ;
#103 = LINE ( 'NONE', #330, #106 ) ;
#104 = FACE_BOUND ( 'NONE', #124, .T. ) ;
#105 = FACE_OUTER_BOUND ( 'NONE', #118, .T. ) ;
#106 = VECTOR ( 'NONE', #322, 1000.000000000000000 ) ;
#107 = VECTOR ( 'NONE', #329, 1000.000000000000000 ) ;
#108 = VECTOR ( 'NONE', #318, 1000.000000000000000 ) ;
#109 = VECTOR ( 'NONE', #189, 1000.000000000000000 ) ;
#110 = CIRCLE ( 'NONE', #162, 4.000000000000003600 ) ;
#111 = LINE ( 'NONE', #216, #25 ) ;
#112 = LINE ( 'NONE', #198, #109 ) ;
#113 = LINE ( 'NONE', #190, #107 ) ;
#114 = VECTOR ( 'NONE', #214, 1000.000000000000000 ) ;
#115 = VECTOR ( 'NONE', #222, 1000.000000000000000 ) ;
#116 = LINE ( 'NONE', #185, #115 ) ;
#117 = EDGE_LOOP ( 'NONE', ( #139, #140 ) ) ;
#118 = EDGE_LOOP ( 'NONE', ( #135, #136, #137, #138 ) ) ;
#119 = EDGE_LOOP ( 'NONE', ( #141, #142 ) ) ;
#120 = EDGE_LOOP ( 'NONE', ( #92, #94, #91, #85 ) ) ;
#121 = EDGE_LOOP ( 'NONE', ( #62, #75, #73, #64 ) ) ;
#122 = ORIENTED_EDGE ( 'NONE', *, *, #179, .F. ) ;
#123 = EDGE_LOOP ( 'NONE', ( #76, #146, #133, #134 ) ) ;
#124 = EDGE_LOOP ( 'NONE', ( #77, #74 ) ) ;
#125 = EDGE_LOOP ( 'NONE', ( #90, #88, #37, #28 ) ) ;
#126 = EDGE_LOOP ( 'NONE', ( #32, #43, #51, #78 ) ) ;
#127 = EDGE_LOOP ( 'NONE', ( #60, #18 ) ) ;
#128 = EDGE_LOOP ( 'NONE', ( #63, #19, #31, #24 ) ) ;
#129 = EDGE_LOOP ( 'NONE', ( #65, #42, #29, #122 ) ) ;
#130 = EDGE_LOOP ( 'NONE', ( #143, #144, #145, #61 ) ) ;
#131 = EDGE_LOOP ( 'NONE', ( #79, #89, #96, #93 ) ) ;
#132 = LINE ( 'NONE', #334, #114 ) ;
#133 = ORIENTED_EDGE ( 'NONE', *, *, #238, .F. ) ;
#134 = ORIENTED_EDGE ( 'NONE', *, *, #239, .F. ) ;
#135 = ORIENTED_EDGE ( 'NONE', *, *, #12, .T. ) ;
#136 = ORIENTED_EDGE ( 'NONE', *, *, #177, .T. ) ;
#137 = ORIENTED_EDGE ( 'NONE', *, *, #178, .T. ) ;
#138 = ORIENTED_EDGE ( 'NONE', *, *, #176, .T. ) ;
#139 = ORIENTED_EDGE ( 'NONE', *, *, #237, .F. ) ;
#140 = ORIENTED_EDGE ( 'NONE', *, *, #236, .F. ) ;
#141 = ORIENTED_EDGE ( 'NONE', *, *, #172, .T. ) ;
#142 = ORIENTED_EDGE ( 'NONE', *, *, #179, .T. ) ;
#143 = ORIENTED_EDGE ( 'NONE', *, *, #147, .F. ) ;
#144 = ORIENTED_EDGE ( 'NONE', *, *, #161, .F. ) ;
#145 = ORIENTED_EDGE ( 'NONE', *, *, #5, .F. ) ;
#146 = ORIENTED_EDGE ( 'NONE', *, *, #10, .T. ) ;
#147 = EDGE_CURVE ( 'NONE', #300, #311, #100, .T. ) ;
#148 = ADVANCED_FACE ( 'NONE', ( #104, #105, #95 ), #317, .F. ) ;
#149 = ADVANCED_FACE ( 'NONE', ( #87 ), #99, .F. ) ;
#150 = ADVANCED_FACE ( 'NONE', ( #98 ), #297, .F. ) ;
#151 = ADVANCED_FACE ( 'NONE', ( #101 ), #84, .F. ) ;
#152 = ADVANCED_FACE ( 'NONE', ( #86, #81, #70 ), #277, .T. ) ;
#153 = ADVANCED_FACE ( 'NONE', ( #72 ), #71, .F. ) ;
#154 = ADVANCED_FACE ( 'NONE', ( #83 ), #241, .F. ) ;
#155 = ADVANCED_FACE ( 'NONE', ( #97 ), #69, .F. ) ;
#156 = ADVANCED_FACE ( 'NONE', ( #82 ), #229, .F. ) ;
#157 = ADVANCED_FACE ( 'NONE', ( #68 ), #240, .F. ) ;
#158 = MANIFOLD_SOLID_BREP ( 'Boss.-Extru.1', #33 ) ;
#159 = PRODUCT_DEFINITION_CONTEXT ( 'detailed design', #246, 'design' ) ;
#160 = PRODUCT_DEFINITION_SHAPE ( 'NONE', 'NONE',  #181 ) ;
#161 = EDGE_CURVE ( 'NONE', #272, #300, #80, .T. ) ;
#162 = AXIS2_PLACEMENT_3D ( 'NONE', #211, #207, #204 ) ;
#163 = EDGE_CURVE ( 'NONE', #227, #332, #38, .T. ) ;
#164 = AXIS2_PLACEMENT_3D ( 'NONE', #186, #316, #315 ) ;
#165 = AXIS2_PLACEMENT_3D ( 'NONE', #258, #255, #251 ) ;
#166 = EDGE_CURVE ( 'NONE', #311, #332, #35, .T. ) ;
#167 = AXIS2_PLACEMENT_3D ( 'NONE', #298, #296, #295 ) ;
#168 = PRESENTATION_LAYER_ASSIGNMENT (  '', '', ( #46 ) ) ;
#169 = AXIS2_PLACEMENT_3D ( 'NONE', #299, #287, #286 ) ;
#170 = AXIS2_PLACEMENT_3D ( 'NONE', #293, #291, #289 ) ;
#171 = MECHANICAL_DESIGN_GEOMETRIC_PRESENTATION_REPRESENTATION (  '', ( #46 ), #45 ) ;
#172 = EDGE_CURVE ( 'NONE', #306, #192, #26, .T. ) ;
#173 = EDGE_CURVE ( 'NONE', #331, #192, #27, .T. ) ;
#174 = EDGE_CURVE ( 'NONE', #270, #331, #23, .T. ) ;
#175 = EDGE_CURVE ( 'NONE', #270, #306, #40, .T. ) ;
#176 = EDGE_CURVE ( 'NONE', #235, #184, #21, .T. ) ;
#177 = EDGE_CURVE ( 'NONE', #195, #227, #17, .T. ) ;
#178 = EDGE_CURVE ( 'NONE', #227, #235, #15, .T. ) ;
#179 = EDGE_CURVE ( 'NONE', #192, #306, #53, .T. ) ;
#180 = AXIS2_PLACEMENT_3D ( 'NONE', #254, #253, #252 ) ;
#181 = PRODUCT_DEFINITION ( 'UNKNOWN', '', #182, #159 ) ;
#182 = PRODUCT_DEFINITION_FORMATION_WITH_SPECIFIED_SOURCE ( 'ANY', '', #22, .NOT_KNOWN. ) ;
#183 = PRODUCT_RELATED_PRODUCT_CATEGORY ( 'part', '', ( #22 ) ) ;
#184 = VERTEX_POINT ( 'NONE', #310 ) ;
#185 = CARTESIAN_POINT ( 'NONE',  ( 352.0000000000000000, 0.0000000000000000000, 0.0000000000000000000 ) ) ;
#186 = CARTESIAN_POINT ( 'NONE',  ( 0.0000000000000000000, 20.00000000000000000, 10.00000000000000000 ) ) ;
#187 = DIRECTION ( 'NONE',  ( -0.0000000000000000000, -0.0000000000000000000, -1.000000000000000000 ) ) ;
#188 = CARTESIAN_POINT ( 'NONE',  ( 11.00000000000000000, 10.00000000000000000, 10.00000000000000000 ) ) ;
#189 = DIRECTION ( 'NONE',  ( -0.0000000000000000000, -0.0000000000000000000, -1.000000000000000000 ) ) ;
#190 = CARTESIAN_POINT ( 'NONE',  ( 340.9999999999999400, 10.00000000000000000, 10.00000000000000000 ) ) ;
#191 = DIRECTION ( 'NONE',  ( -0.0000000000000000000, -0.0000000000000000000, -1.000000000000000000 ) ) ;
#192 = VERTEX_POINT ( 'NONE', #309 ) ;
#193 = DIRECTION ( 'NONE',  ( 1.000000000000000000, 0.0000000000000000000, 0.0000000000000000000 ) ) ;
#194 = DIRECTION ( 'NONE',  ( 0.0000000000000000000, 0.0000000000000000000, 1.000000000000000000 ) ) ;
#195 = VERTEX_POINT ( 'NONE', #305 ) ;
#196 = CARTESIAN_POINT ( 'NONE',  ( 15.00000000000000000, 10.00000000000000000, 10.00000000000000000 ) ) ;
#197 = DIRECTION ( 'NONE',  ( -0.0000000000000000000, -0.0000000000000000000, -1.000000000000000000 ) ) ;
#198 = CARTESIAN_POINT ( 'NONE',  ( 352.0000000000000000, 20.00000000000000000, 10.00000000000000000 ) ) ;
#199 = CARTESIAN_POINT ( 'NONE',  ( 15.00000000000000000, 10.00000000000000000, 0.0000000000000000000 ) ) ;
#200 = DIRECTION ( 'NONE',  ( 1.000000000000000000, 0.0000000000000000000, 0.0000000000000000000 ) ) ;
#201 = DIRECTION ( 'NONE',  ( 0.0000000000000000000, 0.0000000000000000000, 1.000000000000000000 ) ) ;
#202 = DIRECTION ( 'NONE',  ( 1.000000000000000000, 0.0000000000000000000, 0.0000000000000000000 ) ) ;
#203 = CARTESIAN_POINT ( 'NONE',  ( 0.0000000000000000000, 0.0000000000000000000, 0.0000000000000000000 ) ) ;
#204 = DIRECTION ( 'NONE',  ( 1.000000000000000000, 0.0000000000000000000, 0.0000000000000000000 ) ) ;
#205 = VERTEX_POINT ( 'NONE', #304 ) ;
#206 = DIRECTION ( 'NONE',  ( -0.0000000000000000000, -0.0000000000000000000, -1.000000000000000000 ) ) ;
#207 = DIRECTION ( 'NONE',  ( 0.0000000000000000000, 0.0000000000000000000, 1.000000000000000000 ) ) ;
#208 = CARTESIAN_POINT ( 'NONE',  ( 352.0000000000000000, 0.0000000000000000000, 10.00000000000000000 ) ) ;
#209 = CARTESIAN_POINT ( 'NONE',  ( 15.00000000000000000, 10.00000000000000000, 0.0000000000000000000 ) ) ;
#210 = DIRECTION ( 'NONE',  ( -1.000000000000000000, -0.0000000000000000000, -0.0000000000000000000 ) ) ;
#211 = CARTESIAN_POINT ( 'NONE',  ( 336.9999999999999400, 10.00000000000000000, 0.0000000000000000000 ) ) ;
#212 =( NAMED_UNIT ( * ) SI_UNIT ( $, .STERADIAN. ) SOLID_ANGLE_UNIT ( ) );
#213 =( NAMED_UNIT ( * ) PLANE_ANGLE_UNIT ( ) SI_UNIT ( $, .RADIAN. ) );
#214 = DIRECTION ( 'NONE',  ( -0.0000000000000000000, -0.0000000000000000000, -1.000000000000000000 ) ) ;
#215 =( LENGTH_UNIT ( ) NAMED_UNIT ( * ) SI_UNIT ( .MILLI., .METRE. ) );
#216 = CARTESIAN_POINT ( 'NONE',  ( 0.0000000000000000000, 20.00000000000000000, 10.00000000000000000 ) ) ;
#217 = SURFACE_STYLE_USAGE ( .BOTH. , #218 ) ;
#218 = SURFACE_SIDE_STYLE ('',( #66 ) ) ;
#219 = FILL_AREA_STYLE ('',( #224 ) ) ;
#220 = CARTESIAN_POINT ( 'NONE',  ( 0.0000000000000000000, 20.00000000000000000, 0.0000000000000000000 ) ) ;
#221 = DIRECTION ( 'NONE',  ( 0.0000000000000000000, -0.0000000000000000000, 1.000000000000000000 ) ) ;
#222 = DIRECTION ( 'NONE',  ( 0.0000000000000000000, 1.000000000000000000, 0.0000000000000000000 ) ) ;
#223 = DIRECTION ( 'NONE',  ( 0.0000000000000000000, 1.000000000000000000, 0.0000000000000000000 ) ) ;
#224 = FILL_AREA_STYLE_COLOUR ( '', #67 ) ;
#225 = DIRECTION ( 'NONE',  ( 0.0000000000000000000, 0.0000000000000000000, -1.000000000000000000 ) ) ;
#226 = DIRECTION ( 'NONE',  ( 1.000000000000000000, 0.0000000000000000000, 0.0000000000000000000 ) ) ;
#227 = VERTEX_POINT ( 'NONE', #303 ) ;
#228 = CARTESIAN_POINT ( 'NONE',  ( 19.00000000000000000, 10.00000000000000000, 10.00000000000000000 ) ) ;
#229 = PLANE ( 'NONE',  #348 ) ;
#230 = CARTESIAN_POINT ( 'NONE',  ( 0.0000000000000000000, 0.0000000000000000000, 10.00000000000000000 ) ) ;
#231 = CARTESIAN_POINT ( 'NONE',  ( 15.00000000000000000, 10.00000000000000000, 10.00000000000000000 ) ) ;
#232 = CARTESIAN_POINT ( 'NONE',  ( 0.0000000000000000000, 0.0000000000000000000, 10.00000000000000000 ) ) ;
#233 = DIRECTION ( 'NONE',  ( 0.0000000000000000000, -0.0000000000000000000, -1.000000000000000000 ) ) ;
#234 = DIRECTION ( 'NONE',  ( 0.0000000000000000000, -1.000000000000000000, 0.0000000000000000000 ) ) ;
#235 = VERTEX_POINT ( 'NONE', #301 ) ;
#236 = EDGE_CURVE ( 'NONE', #260, #336, #56, .T. ) ;
#237 = EDGE_CURVE ( 'NONE', #336, #260, #54, .T. ) ;
#238 = EDGE_CURVE ( 'NONE', #243, #205, #52, .T. ) ;
#239 = EDGE_CURVE ( 'NONE', #336, #243, #13, .T. ) ;
#240 = PLANE ( 'NONE',  #337 ) ;
#241 = PLANE ( 'NONE',  #346 ) ;
#242 = CARTESIAN_POINT ( 'NONE',  ( 0.0000000000000000000, 20.00000000000000000, 10.00000000000000000 ) ) ;
#243 = VERTEX_POINT ( 'NONE', #288 ) ;
#244 = APPLICATION_PROTOCOL_DEFINITION ( 'draft international standard', 'automotive_design', 1998, #246 ) ;
#245 = CARTESIAN_POINT ( 'NONE',  ( 336.9999999999999400, 10.00000000000000000, 10.00000000000000000 ) ) ;
#246 = APPLICATION_CONTEXT ( 'automotive_design' ) ;
#247 = PRODUCT_CONTEXT ( 'NONE', #250, 'mechanical' ) ;
#248 = APPLICATION_PROTOCOL_DEFINITION ( 'draft international standard', 'automotive_design', 1998, #250 ) ;
#249 = DIRECTION ( 'NONE',  ( -1.000000000000000000, 0.0000000000000000000, 0.0000000000000000000 ) ) ;
#250 = APPLICATION_CONTEXT ( 'automotive_design' ) ;
#251 = DIRECTION ( 'NONE',  ( -1.000000000000000000, 0.0000000000000000000, -0.0000000000000000000 ) ) ;
#252 = DIRECTION ( 'NONE',  ( 1.000000000000000000, 0.0000000000000000000, 0.0000000000000000000 ) ) ;
#253 = DIRECTION ( 'NONE',  ( 0.0000000000000000000, 0.0000000000000000000, 1.000000000000000000 ) ) ;
#254 = CARTESIAN_POINT ( 'NONE',  ( 0.0000000000000000000, 0.0000000000000000000, 0.0000000000000000000 ) ) ;
#255 = DIRECTION ( 'NONE',  ( 0.0000000000000000000, 0.0000000000000000000, -1.000000000000000000 ) ) ;
#256 =( NAMED_UNIT ( * ) SI_UNIT ( $, .STERADIAN. ) SOLID_ANGLE_UNIT ( ) );
#257 =( NAMED_UNIT ( * ) PLANE_ANGLE_UNIT ( ) SI_UNIT ( $, .RADIAN. ) );
#258 = CARTESIAN_POINT ( 'NONE',  ( 0.0000000000000000000, 20.00000000000000000, 0.0000000000000000000 ) ) ;
#259 = DIRECTION ( 'NONE',  ( -0.0000000000000000000, -0.0000000000000000000, -1.000000000000000000 ) ) ;
#260 = VERTEX_POINT ( 'NONE', #281 ) ;
#261 =( LENGTH_UNIT ( ) NAMED_UNIT ( * ) SI_UNIT ( .MILLI., .METRE. ) );
#262 = SURFACE_STYLE_USAGE ( .BOTH. , #263 ) ;
#263 = SURFACE_SIDE_STYLE ('',( #48 ) ) ;
#264 = DIRECTION ( 'NONE',  ( -1.000000000000000000, 0.0000000000000000000, 0.0000000000000000000 ) ) ;
#265 = FILL_AREA_STYLE ('',( #266 ) ) ;
#266 = FILL_AREA_STYLE_COLOUR ( '', #49 ) ;
#267 =( NAMED_UNIT ( * ) SI_UNIT ( $, .STERADIAN. ) SOLID_ANGLE_UNIT ( ) );
#268 =( NAMED_UNIT ( * ) PLANE_ANGLE_UNIT ( ) SI_UNIT ( $, .RADIAN. ) );
#269 =( LENGTH_UNIT ( ) NAMED_UNIT ( * ) SI_UNIT ( .MILLI., .METRE. ) );
#270 = VERTEX_POINT ( 'NONE', #285 ) ;
#271 = CARTESIAN_POINT ( 'NONE',  ( 332.9999999999999400, 10.00000000000000000, 10.00000000000000000 ) ) ;
#272 = VERTEX_POINT ( 'NONE', #279 ) ;
#273 = CARTESIAN_POINT ( 'NONE',  ( 336.9999999999999400, 10.00000000000000000, 10.00000000000000000 ) ) ;
#274 = CARTESIAN_POINT ( 'NONE',  ( 352.0000000000000000, 0.0000000000000000000, 0.0000000000000000000 ) ) ;
#275 = CARTESIAN_POINT ( 'NONE',  ( 19.00000000000000000, 10.00000000000000000, 10.00000000000000000 ) ) ;
#276 = CARTESIAN_POINT ( 'NONE',  ( 11.00000000000000000, 10.00000000000000000, 0.0000000000000000000 ) ) ;
#277 = PLANE ( 'NONE',  #165 ) ;
#278 = CARTESIAN_POINT ( 'NONE',  ( 0.0000000000000000000, 20.00000000000000000, 0.0000000000000000000 ) ) ;
#279 = CARTESIAN_POINT ( 'NONE',  ( 352.0000000000000000, 20.00000000000000000, 0.0000000000000000000 ) ) ;
#280 = DIRECTION ( 'NONE',  ( 0.0000000000000000000, 0.0000000000000000000, 1.000000000000000000 ) ) ;
#281 = CARTESIAN_POINT ( 'NONE',  ( 340.9999999999999400, 10.00000000000000000, 10.00000000000000000 ) ) ;
#282 = DIRECTION ( 'NONE',  ( -0.0000000000000000000, -0.0000000000000000000, -1.000000000000000000 ) ) ;
#283 = DIRECTION ( 'NONE',  ( -1.000000000000000000, 0.0000000000000000000, 0.0000000000000000000 ) ) ;
#284 = CARTESIAN_POINT ( 'NONE',  ( 332.9999999999999400, 10.00000000000000000, 10.00000000000000000 ) ) ;
#285 = CARTESIAN_POINT ( 'NONE',  ( 11.00000000000000000, 10.00000000000000000, 10.00000000000000000 ) ) ;
#286 = DIRECTION ( 'NONE',  ( 1.000000000000000000, 0.0000000000000000000, 0.0000000000000000000 ) ) ;
#287 = DIRECTION ( 'NONE',  ( 0.0000000000000000000, 0.0000000000000000000, 1.000000000000000000 ) ) ;
#288 = CARTESIAN_POINT ( 'NONE',  ( 332.9999999999999400, 10.00000000000000000, 0.0000000000000000000 ) ) ;
#289 = DIRECTION ( 'NONE',  ( 1.000000000000000000, 0.0000000000000000000, 0.0000000000000000000 ) ) ;
#290 = DIRECTION ( 'NONE',  ( -1.000000000000000000, -0.0000000000000000000, -0.0000000000000000000 ) ) ;
#291 = DIRECTION ( 'NONE',  ( 0.0000000000000000000, 0.0000000000000000000, 1.000000000000000000 ) ) ;
#292 = CARTESIAN_POINT ( 'NONE',  ( 0.0000000000000000000, 0.0000000000000000000, 0.0000000000000000000 ) ) ;
#293 = CARTESIAN_POINT ( 'NONE',  ( 336.9999999999999400, 10.00000000000000000, 10.00000000000000000 ) ) ;
#294 = DIRECTION ( 'NONE',  ( -0.0000000000000000000, -0.0000000000000000000, -1.000000000000000000 ) ) ;
#295 = DIRECTION ( 'NONE',  ( 1.000000000000000000, 0.0000000000000000000, 0.0000000000000000000 ) ) ;
#296 = DIRECTION ( 'NONE',  ( 0.0000000000000000000, 0.0000000000000000000, 1.000000000000000000 ) ) ;
#297 = PLANE ( 'NONE',  #350 ) ;
#298 = CARTESIAN_POINT ( 'NONE',  ( 336.9999999999999400, 10.00000000000000000, 10.00000000000000000 ) ) ;
#299 = CARTESIAN_POINT ( 'NONE',  ( 336.9999999999999400, 10.00000000000000000, 0.0000000000000000000 ) ) ;
#300 = VERTEX_POINT ( 'NONE', #278 ) ;
#301 = CARTESIAN_POINT ( 'NONE',  ( 352.0000000000000000, 20.00000000000000000, 10.00000000000000000 ) ) ;
#302 = CARTESIAN_POINT ( 'NONE',  ( 352.0000000000000000, 0.0000000000000000000, 10.00000000000000000 ) ) ;
#303 = CARTESIAN_POINT ( 'NONE',  ( 352.0000000000000000, 0.0000000000000000000, 10.00000000000000000 ) ) ;
#304 = CARTESIAN_POINT ( 'NONE',  ( 340.9999999999999400, 10.00000000000000000, 0.0000000000000000000 ) ) ;
#305 = CARTESIAN_POINT ( 'NONE',  ( 0.0000000000000000000, 0.0000000000000000000, 10.00000000000000000 ) ) ;
#306 = VERTEX_POINT ( 'NONE', #276 ) ;
#307 = DIRECTION ( 'NONE',  ( 1.000000000000000000, 0.0000000000000000000, 0.0000000000000000000 ) ) ;
#308 = DIRECTION ( 'NONE',  ( 0.0000000000000000000, 0.0000000000000000000, 1.000000000000000000 ) ) ;
#309 = CARTESIAN_POINT ( 'NONE',  ( 19.00000000000000000, 10.00000000000000000, 0.0000000000000000000 ) ) ;
#310 = CARTESIAN_POINT ( 'NONE',  ( 0.0000000000000000000, 20.00000000000000000, 10.00000000000000000 ) ) ;
#311 = VERTEX_POINT ( 'NONE', #292 ) ;
#312 = DIRECTION ( 'NONE',  ( 0.0000000000000000000, 1.000000000000000000, 0.0000000000000000000 ) ) ;
#313 = CARTESIAN_POINT ( 'NONE',  ( 15.00000000000000000, 10.00000000000000000, 10.00000000000000000 ) ) ;
#314 = DIRECTION ( 'NONE',  ( -1.000000000000000000, 0.0000000000000000000, 0.0000000000000000000 ) ) ;
#315 = DIRECTION ( 'NONE',  ( -1.000000000000000000, 0.0000000000000000000, -0.0000000000000000000 ) ) ;
#316 = DIRECTION ( 'NONE',  ( 0.0000000000000000000, 0.0000000000000000000, -1.000000000000000000 ) ) ;
#317 = PLANE ( 'NONE',  #164 ) ;
#318 = DIRECTION ( 'NONE',  ( -0.0000000000000000000, -1.000000000000000000, -0.0000000000000000000 ) ) ;
#319 = DIRECTION ( 'NONE',  ( -1.000000000000000000, 0.0000000000000000000, 0.0000000000000000000 ) ) ;
#320 = DIRECTION ( 'NONE',  ( 1.000000000000000000, 0.0000000000000000000, 0.0000000000000000000 ) ) ;
#321 = DIRECTION ( 'NONE',  ( -0.0000000000000000000, -0.0000000000000000000, -1.000000000000000000 ) ) ;
#322 = DIRECTION ( 'NONE',  ( -0.0000000000000000000, -1.000000000000000000, -0.0000000000000000000 ) ) ;
#323 = CARTESIAN_POINT ( 'NONE',  ( 0.0000000000000000000, 0.0000000000000000000, 0.0000000000000000000 ) ) ;
#324 = DIRECTION ( 'NONE',  ( -0.0000000000000000000, -0.0000000000000000000, -1.000000000000000000 ) ) ;
#325 = CARTESIAN_POINT ( 'NONE',  ( 0.0000000000000000000, 20.00000000000000000, 10.00000000000000000 ) ) ;
#326 = DIRECTION ( 'NONE',  ( 1.000000000000000000, 0.0000000000000000000, 0.0000000000000000000 ) ) ;
#327 = DIRECTION ( 'NONE',  ( 0.0000000000000000000, 0.0000000000000000000, 1.000000000000000000 ) ) ;
#328 = CARTESIAN_POINT ( 'NONE',  ( 15.00000000000000000, 10.00000000000000000, 10.00000000000000000 ) ) ;
#329 = DIRECTION ( 'NONE',  ( -0.0000000000000000000, -0.0000000000000000000, -1.000000000000000000 ) ) ;
#330 = CARTESIAN_POINT ( 'NONE',  ( 0.0000000000000000000, 0.0000000000000000000, 10.00000000000000000 ) ) ;
#331 = VERTEX_POINT ( 'NONE', #275 ) ;
#332 = VERTEX_POINT ( 'NONE', #274 ) ;
#333 = CARTESIAN_POINT ( 'NONE',  ( 352.0000000000000000, 0.0000000000000000000, 10.00000000000000000 ) ) ;
#334 = CARTESIAN_POINT ( 'NONE',  ( 0.0000000000000000000, 0.0000000000000000000, 10.00000000000000000 ) ) ;
#335 = CARTESIAN_POINT ( 'NONE',  ( 0.0000000000000000000, 0.0000000000000000000, 10.00000000000000000 ) ) ;
#336 = VERTEX_POINT ( 'NONE', #271 ) ;
#337 = AXIS2_PLACEMENT_3D ( 'NONE', #232, #223, #221 ) ;
#338 = MECHANICAL_DESIGN_GEOMETRIC_PRESENTATION_REPRESENTATION (  '', ( #58 ), #41 ) ;
#339 = AXIS2_PLACEMENT_3D ( 'NONE', #199, #308, #307 ) ;
#340 = AXIS2_PLACEMENT_3D ( 'NONE', #245, #259, #264 ) ;
#341 = AXIS2_PLACEMENT_3D ( 'NONE', #196, #194, #193 ) ;
#342 = AXIS2_PLACEMENT_3D ( 'NONE', #209, #201, #200 ) ;
#343 = AXIS2_PLACEMENT_3D ( 'NONE', #313, #324, #319 ) ;
#344 = PRESENTATION_LAYER_ASSIGNMENT (  '', '', ( #58 ) ) ;
#345 = AXIS2_PLACEMENT_3D ( 'NONE', #231, #294, #249 ) ;
#346 = AXIS2_PLACEMENT_3D ( 'NONE', #242, #234, #233 ) ;
#347 = AXIS2_PLACEMENT_3D ( 'NONE', #328, #327, #326 ) ;
#348 = AXIS2_PLACEMENT_3D ( 'NONE', #230, #226, #225 ) ;
#349 = AXIS2_PLACEMENT_3D ( 'NONE', #273, #321, #314 ) ;
#350 = AXIS2_PLACEMENT_3D ( 'NONE', #302, #283, #280 ) ;
ENDSEC;
END-ISO-10303-21;
