ISO-10303-21;
HEADER;
FILE_DESCRIPTION (( 'STEP AP214' ),
    '1' );
FILE_NAME ('entretoise brosse.STEP',
    '2019-10-22T19:24:54',
    ( '' ),
    ( '' ),
    'SwSTEP 2.0',
    'SolidWorks 2016',
    '' );
FILE_SCHEMA (( 'AUTOMOTIVE_DESIGN' ));
ENDSEC;

DATA;
#1 = FACE_OUTER_BOUND ( 'NONE', #38, .T. ) ;
#2 = AXIS2_PLACEMENT_3D ( 'NONE', #149, #242, #266 ) ;
#3 = ADVANCED_BREP_SHAPE_REPRESENTATION ( 'entretoise brosse', ( #190, #34 ), #161 ) ;
#4 = PRESENTATION_LAYER_ASSIGNMENT (  '', '', ( #53 ) ) ;
#5 = CIRCLE ( 'NONE', #91, 45.99999999999995700 ) ;
#6 = ORIENTED_EDGE ( 'NONE', *, *, #234, .F. ) ;
#7 = CARTESIAN_POINT ( 'NONE',  ( -139.9999999999999100, 98.00000000000024200, 0.0000000000000000000 ) ) ;
#8 = CIRCLE ( 'NONE', #166, 49.99999999999998600 ) ;
#9 = AXIS2_PLACEMENT_3D ( 'NONE', #140, #72, #67 ) ;
#10 = LINE ( 'NONE', #257, #253 ) ;
#11 = DIRECTION ( 'NONE',  ( 4.268146184293731700E-015, 1.000000000000000000, -0.0000000000000000000 ) ) ;
#12 = VERTEX_POINT ( 'NONE', #52 ) ;
#13 = CARTESIAN_POINT ( 'NONE',  ( -139.9999999999999700, 88.00000000000029800, 0.0000000000000000000 ) ) ;
#14 = DIRECTION ( 'NONE',  ( 4.268146184293731700E-015, 1.000000000000000000, -0.0000000000000000000 ) ) ;
#15 = ADVANCED_FACE ( 'NONE', ( #164 ), #262, .T. ) ;
#16 = VERTEX_POINT ( 'NONE', #48 ) ;
#17 = SURFACE_SIDE_STYLE ('',( #60 ) ) ;
#18 = EDGE_CURVE ( 'NONE', #16, #57, #222, .T. ) ;
#19 =( GEOMETRIC_REPRESENTATION_CONTEXT ( 3 ) GLOBAL_UNCERTAINTY_ASSIGNED_CONTEXT ( ( #208 ) ) GLOBAL_UNIT_ASSIGNED_CONTEXT ( ( #243, #247, #61 ) ) REPRESENTATION_CONTEXT ( 'NONE', 'WORKASPACE' ) );
#20 = CARTESIAN_POINT ( 'NONE',  ( -139.9999999999999100, 98.00000000000024200, 0.0000000000000000000 ) ) ;
#21 = LINE ( 'NONE', #264, #270 ) ;
#22 = EDGE_LOOP ( 'NONE', ( #267, #254 ) ) ;
#23 = EDGE_CURVE ( 'NONE', #16, #203, #63, .T. ) ;
#24 = ORIENTED_EDGE ( 'NONE', *, *, #18, .T. ) ;
#25 = FACE_OUTER_BOUND ( 'NONE', #22, .T. ) ;
#26 = VERTEX_POINT ( 'NONE', #213 ) ;
#27 = DIRECTION ( 'NONE',  ( -1.000000000000000000, 4.306899664494143600E-015, 0.0000000000000000000 ) ) ;
#28 = DIRECTION ( 'NONE',  ( -1.000000000000000000, 4.163336342344336200E-015, 0.0000000000000000000 ) ) ;
#29 = ORIENTED_EDGE ( 'NONE', *, *, #119, .T. ) ;
#30 = CARTESIAN_POINT ( 'NONE',  ( -89.99999999999995700, 88.00000000000007100, 0.0000000000000000000 ) ) ;
#31 = CARTESIAN_POINT ( 'NONE',  ( -89.99999999999995700, 88.00000000000005700, 6.123233995736769200E-015 ) ) ;
#32 = CIRCLE ( 'NONE', #139, 50.00000000000004300 ) ;
#33 = ORIENTED_EDGE ( 'NONE', *, *, #18, .F. ) ;
#34 = AXIS2_PLACEMENT_3D ( 'NONE', #104, #177, #153 ) ;
#35 = CARTESIAN_POINT ( 'NONE',  ( -139.9999999999999700, 87.50000000000005700, 0.0000000000000000000 ) ) ;
#36 = DIRECTION ( 'NONE',  ( 4.268146184293731700E-015, 1.000000000000000000, -0.0000000000000000000 ) ) ;
#37 = CARTESIAN_POINT ( 'NONE',  ( -190.0000000000000300, 80.00000000000044100, 0.0000000000000000000 ) ) ;
#38 = EDGE_LOOP ( 'NONE', ( #248, #226, #109, #171 ) ) ;
#39 =( NAMED_UNIT ( * ) SI_UNIT ( $, .STERADIAN. ) SOLID_ANGLE_UNIT ( ) );
#40 = DIRECTION ( 'NONE',  ( 4.268146184293731700E-015, 1.000000000000000000, -0.0000000000000000000 ) ) ;
#41 = PRODUCT_CONTEXT ( 'NONE', #150, 'mechanical' ) ;
#42 = VERTEX_POINT ( 'NONE', #189 ) ;
#43 = CARTESIAN_POINT ( 'NONE',  ( -81.99999999999992900, 98.00000000000004300, 7.102951435054648100E-015 ) ) ;
#44 = AXIS2_PLACEMENT_3D ( 'NONE', #95, #58, #287 ) ;
#45 = ORIENTED_EDGE ( 'NONE', *, *, #137, .T. ) ;
#46 = ORIENTED_EDGE ( 'NONE', *, *, #145, .T. ) ;
#47 = DIRECTION ( 'NONE',  ( -1.000000000000000000, 4.268146184293731700E-015, 0.0000000000000000000 ) ) ;
#48 = CARTESIAN_POINT ( 'NONE',  ( -93.99999999999994300, 80.00000000000002800, 5.633375276077825500E-015 ) ) ;
#49 = ORIENTED_EDGE ( 'NONE', *, *, #234, .T. ) ;
#50 = ORIENTED_EDGE ( 'NONE', *, *, #261, .F. ) ;
#51 = EDGE_CURVE ( 'NONE', #275, #76, #279, .T. ) ;
#52 = CARTESIAN_POINT ( 'NONE',  ( -81.99999999999995700, 88.00000000000005700, 7.102951435054646500E-015 ) ) ;
#53 = STYLED_ITEM ( 'NONE', ( #252 ), #3 ) ;
#54 = FACE_BOUND ( 'NONE', #88, .T. ) ;
#55 = CARTESIAN_POINT ( 'NONE',  ( -139.9999999999999700, 88.00000000000025600, 0.0000000000000000000 ) ) ;
#56 = LINE ( 'NONE', #127, #286 ) ;
#57 = VERTEX_POINT ( 'NONE', #69 ) ;
#58 = DIRECTION ( 'NONE',  ( 4.268146184293731700E-015, 1.000000000000000000, -0.0000000000000000000 ) ) ;
#59 = DIRECTION ( 'NONE',  ( 4.268146184293731700E-015, 1.000000000000000000, -0.0000000000000000000 ) ) ;
#60 = SURFACE_STYLE_FILL_AREA ( #293 ) ;
#61 =( NAMED_UNIT ( * ) SI_UNIT ( $, .STERADIAN. ) SOLID_ANGLE_UNIT ( ) );
#62 = CIRCLE ( 'NONE', #217, 46.00000000000004300 ) ;
#63 = CIRCLE ( 'NONE', #202, 46.00000000000004300 ) ;
#64 = EDGE_LOOP ( 'NONE', ( #155, #148 ) ) ;
#65 = ADVANCED_FACE ( 'NONE', ( #228, #154 ), #116, .F. ) ;
#66 = FACE_BOUND ( 'NONE', #138, .T. ) ;
#67 = DIRECTION ( 'NONE',  ( -1.000000000000000000, 4.268146184293731700E-015, 0.0000000000000000000 ) ) ;
#68 = CARTESIAN_POINT ( 'NONE',  ( -139.9999999999999700, 80.00000000000022700, 0.0000000000000000000 ) ) ;
#69 = CARTESIAN_POINT ( 'NONE',  ( -93.99999999999994300, 98.00000000000004300, 5.633375276077827100E-015 ) ) ;
#70 = DIRECTION ( 'NONE',  ( 4.268146184293731700E-015, 1.000000000000000000, -0.0000000000000000000 ) ) ;
#71 = ORIENTED_EDGE ( 'NONE', *, *, #119, .F. ) ;
#72 = DIRECTION ( 'NONE',  ( 4.268146184293731700E-015, 1.000000000000000000, -0.0000000000000000000 ) ) ;
#73 = PLANE ( 'NONE',  #240 ) ;
#74 = VECTOR ( 'NONE', #241, 1000.000000000000000 ) ;
#75 = DIRECTION ( 'NONE',  ( -1.000000000000000000, 4.306899664494142100E-015, 0.0000000000000000000 ) ) ;
#76 = VERTEX_POINT ( 'NONE', #278 ) ;
#77 = CARTESIAN_POINT ( 'NONE',  ( -139.9999999999999700, 87.50000000000005700, 0.0000000000000000000 ) ) ;
#78 = AXIS2_PLACEMENT_3D ( 'NONE', #282, #36, #192 ) ;
#79 = CARTESIAN_POINT ( 'NONE',  ( -185.9999999999999400, 87.50000000000024200, 0.0000000000000000000 ) ) ;
#80 = SURFACE_STYLE_USAGE ( .BOTH. , #17 ) ;
#81 = APPLICATION_PROTOCOL_DEFINITION ( 'draft international standard', 'automotive_design', 1998, #150 ) ;
#82 = ORIENTED_EDGE ( 'NONE', *, *, #294, .F. ) ;
#83 = ORIENTED_EDGE ( 'NONE', *, *, #133, .F. ) ;
#84 = ORIENTED_EDGE ( 'NONE', *, *, #106, .T. ) ;
#85 = MECHANICAL_DESIGN_GEOMETRIC_PRESENTATION_REPRESENTATION (  '', ( #256 ), #251 ) ;
#86 = DIRECTION ( 'NONE',  ( 4.268146184293731700E-015, 1.000000000000000000, -0.0000000000000000000 ) ) ;
#87 = DIRECTION ( 'NONE',  ( 4.268146184293731700E-015, 1.000000000000000000, -0.0000000000000000000 ) ) ;
#88 = EDGE_LOOP ( 'NONE', ( #239, #122 ) ) ;
#89 = UNCERTAINTY_MEASURE_WITH_UNIT (LENGTH_MEASURE( 1.000000000000000100E-005 ), #214, 'distance_accuracy_value', 'NONE');
#90 = DIRECTION ( 'NONE',  ( 4.268146184293731700E-015, 1.000000000000000000, -0.0000000000000000000 ) ) ;
#91 = AXIS2_PLACEMENT_3D ( 'NONE', #20, #291, #156 ) ;
#92 = DIRECTION ( 'NONE',  ( -1.000000000000000000, 4.223674550204395700E-015, 0.0000000000000000000 ) ) ;
#93 = SURFACE_STYLE_USAGE ( .BOTH. , #172 ) ;
#94 = ORIENTED_EDGE ( 'NONE', *, *, #198, .F. ) ;
#95 = CARTESIAN_POINT ( 'NONE',  ( -139.9999999999999100, 98.00000000000029800, 0.0000000000000000000 ) ) ;
#96 = PRODUCT_DEFINITION_SHAPE ( 'NONE', 'NONE',  #110 ) ;
#97 = DIRECTION ( 'NONE',  ( -1.000000000000000000, 4.223674550204395700E-015, 0.0000000000000000000 ) ) ;
#98 = CARTESIAN_POINT ( 'NONE',  ( -139.9999999999999100, 98.00000000000029800, 0.0000000000000000000 ) ) ;
#99 = CYLINDRICAL_SURFACE ( 'NONE', #272, 50.00000000000001400 ) ;
#100 = CARTESIAN_POINT ( 'NONE',  ( -139.9999999999999700, 80.00000000000022700, 0.0000000000000000000 ) ) ;
#101 = EDGE_LOOP ( 'NONE', ( #159, #24, #271, #6 ) ) ;
#102 = DIRECTION ( 'NONE',  ( 4.268146184293731700E-015, 1.000000000000000000, -0.0000000000000000000 ) ) ;
#103 = ADVANCED_FACE ( 'NONE', ( #25, #66 ), #207, .F. ) ;
#104 = CARTESIAN_POINT ( 'NONE',  ( 0.0000000000000000000, 0.0000000000000000000, 0.0000000000000000000 ) ) ;
#105 = SURFACE_STYLE_FILL_AREA ( #218 ) ;
#106 = EDGE_CURVE ( 'NONE', #180, #57, #117, .T. ) ;
#107 = CARTESIAN_POINT ( 'NONE',  ( -139.9999999999999700, 80.00000000000024200, 0.0000000000000000000 ) ) ;
#108 = COLOUR_RGB ( '',0.7921568627450980000, 0.8196078431372548800, 0.9333333333333333500 ) ;
#109 = ORIENTED_EDGE ( 'NONE', *, *, #160, .F. ) ;
#110 = PRODUCT_DEFINITION ( 'UNKNOWN', '', #126, #191 ) ;
#111 = CYLINDRICAL_SURFACE ( 'NONE', #163, 50.00000000000001400 ) ;
#112 = CARTESIAN_POINT ( 'NONE',  ( -139.9999999999999700, 87.50000000000005700, 0.0000000000000000000 ) ) ;
#113 = FACE_OUTER_BOUND ( 'NONE', #216, .T. ) ;
#114 = EDGE_LOOP ( 'NONE', ( #200, #45 ) ) ;
#115 = DIRECTION ( 'NONE',  ( 4.268146184293731700E-015, 1.000000000000000000, -0.0000000000000000000 ) ) ;
#116 = PLANE ( 'NONE',  #152 ) ;
#117 = CIRCLE ( 'NONE', #184, 45.99999999999995700 ) ;
#118 =( NAMED_UNIT ( * ) PLANE_ANGLE_UNIT ( ) SI_UNIT ( $, .RADIAN. ) );
#119 = EDGE_CURVE ( 'NONE', #76, #196, #10, .T. ) ;
#120 = DIRECTION ( 'NONE',  ( 4.268146184293731700E-015, 1.000000000000000000, -0.0000000000000000000 ) ) ;
#121 = FACE_OUTER_BOUND ( 'NONE', #206, .T. ) ;
#122 = ORIENTED_EDGE ( 'NONE', *, *, #221, .F. ) ;
#123 = DIRECTION ( 'NONE',  ( -1.000000000000000000, 4.163336342344336200E-015, 0.0000000000000000000 ) ) ;
#124 = DIRECTION ( 'NONE',  ( 4.268146184293731700E-015, 1.000000000000000000, -0.0000000000000000000 ) ) ;
#125 = DIRECTION ( 'NONE',  ( -1.000000000000000000, 4.163336342344333900E-015, 0.0000000000000000000 ) ) ;
#126 = PRODUCT_DEFINITION_FORMATION_WITH_SPECIFIED_SOURCE ( 'ANY', '', #181, .NOT_KNOWN. ) ;
#127 = CARTESIAN_POINT ( 'NONE',  ( -189.9999999999999700, 87.50000000000025600, 0.0000000000000000000 ) ) ;
#128 = ADVANCED_FACE ( 'NONE', ( #121 ), #111, .T. ) ;
#129 = APPLICATION_CONTEXT ( 'automotive_design' ) ;
#130 = VECTOR ( 'NONE', #59, 1000.000000000000000 ) ;
#131 = EDGE_LOOP ( 'NONE', ( #83, #165, #212, #187 ) ) ;
#132 = EDGE_CURVE ( 'NONE', #12, #42, #142, .T. ) ;
#133 = EDGE_CURVE ( 'NONE', #12, #273, #167, .T. ) ;
#134 = SHAPE_DEFINITION_REPRESENTATION ( #96, #3 ) ;
#135 = ORIENTED_EDGE ( 'NONE', *, *, #145, .F. ) ;
#136 = CLOSED_SHELL ( 'NONE', ( #128, #269, #289, #65, #15, #157, #151, #103, #158 ) ) ;
#137 = EDGE_CURVE ( 'NONE', #273, #281, #183, .T. ) ;
#138 = EDGE_LOOP ( 'NONE', ( #46, #194 ) ) ;
#139 = AXIS2_PLACEMENT_3D ( 'NONE', #107, #40, #125 ) ;
#140 = CARTESIAN_POINT ( 'NONE',  ( -93.99999999999995700, 80.00000000000004300, 0.0000000000000000000 ) ) ;
#141 = CARTESIAN_POINT ( 'NONE',  ( -185.9999999999998600, 98.00000000000044100, 0.0000000000000000000 ) ) ;
#142 = CIRCLE ( 'NONE', #78, 57.99999999999999300 ) ;
#143 = DIRECTION ( 'NONE',  ( -1.000000000000000000, 4.306899664494143600E-015, 0.0000000000000000000 ) ) ;
#144 = DIRECTION ( 'NONE',  ( 4.268146184293731700E-015, 1.000000000000000000, -0.0000000000000000000 ) ) ;
#145 = EDGE_CURVE ( 'NONE', #203, #16, #62, .T. ) ;
#146 = DIRECTION ( 'NONE',  ( -1.000000000000000000, 4.163336342344338600E-015, 0.0000000000000000000 ) ) ;
#147 = FILL_AREA_STYLE_COLOUR ( '', #235 ) ;
#148 = ORIENTED_EDGE ( 'NONE', *, *, #198, .T. ) ;
#149 = CARTESIAN_POINT ( 'NONE',  ( -139.9999999999999700, 87.50000000000005700, 0.0000000000000000000 ) ) ;
#150 = APPLICATION_CONTEXT ( 'automotive_design' ) ;
#151 = ADVANCED_FACE ( 'NONE', ( #113 ), #185, .F. ) ;
#152 = AXIS2_PLACEMENT_3D ( 'NONE', #30, #70, #47 ) ;
#153 = DIRECTION ( 'NONE',  ( 1.000000000000000000, 0.0000000000000000000, 0.0000000000000000000 ) ) ;
#154 = FACE_BOUND ( 'NONE', #64, .T. ) ;
#155 = ORIENTED_EDGE ( 'NONE', *, *, #261, .T. ) ;
#156 = DIRECTION ( 'NONE',  ( -1.000000000000000000, 4.223674550204403600E-015, 0.0000000000000000000 ) ) ;
#157 = ADVANCED_FACE ( 'NONE', ( #54, #229 ), #73, .F. ) ;
#158 = ADVANCED_FACE ( 'NONE', ( #193 ), #99, .T. ) ;
#159 = ORIENTED_EDGE ( 'NONE', *, *, #23, .F. ) ;
#160 = EDGE_CURVE ( 'NONE', #281, #273, #292, .T. ) ;
#161 =( GEOMETRIC_REPRESENTATION_CONTEXT ( 3 ) GLOBAL_UNCERTAINTY_ASSIGNED_CONTEXT ( ( #182 ) ) GLOBAL_UNIT_ASSIGNED_CONTEXT ( ( #174, #288, #39 ) ) REPRESENTATION_CONTEXT ( 'NONE', 'WORKASPACE' ) );
#162 = MECHANICAL_DESIGN_GEOMETRIC_PRESENTATION_REPRESENTATION (  '', ( #53 ), #19 ) ;
#163 = AXIS2_PLACEMENT_3D ( 'NONE', #112, #90, #28 ) ;
#164 = FACE_OUTER_BOUND ( 'NONE', #131, .T. ) ;
#165 = ORIENTED_EDGE ( 'NONE', *, *, #132, .T. ) ;
#166 = AXIS2_PLACEMENT_3D ( 'NONE', #55, #284, #146 ) ;
#167 = LINE ( 'NONE', #236, #74 ) ;
#168 = DIRECTION ( 'NONE',  ( -4.268146184293731700E-015, -1.000000000000000000, 0.0000000000000000000 ) ) ;
#169 = CYLINDRICAL_SURFACE ( 'NONE', #201, 45.99999999999998600 ) ;
#170 = DIRECTION ( 'NONE',  ( -1.000000000000000000, 4.223674550204401200E-015, 0.0000000000000000000 ) ) ;
#171 = ORIENTED_EDGE ( 'NONE', *, *, #232, .F. ) ;
#172 = SURFACE_SIDE_STYLE ('',( #105 ) ) ;
#173 = AXIS2_PLACEMENT_3D ( 'NONE', #277, #86, #27 ) ;
#174 =( LENGTH_UNIT ( ) NAMED_UNIT ( * ) SI_UNIT ( .MILLI., .METRE. ) );
#175 = DIRECTION ( 'NONE',  ( -1.000000000000000000, 4.163336342344338600E-015, 0.0000000000000000000 ) ) ;
#176 = ORIENTED_EDGE ( 'NONE', *, *, #294, .T. ) ;
#177 = DIRECTION ( 'NONE',  ( 0.0000000000000000000, 0.0000000000000000000, 1.000000000000000000 ) ) ;
#178 = DIRECTION ( 'NONE',  ( 4.268146184293731700E-015, 1.000000000000000000, -0.0000000000000000000 ) ) ;
#179 = CIRCLE ( 'NONE', #186, 49.99999999999998600 ) ;
#180 = VERTEX_POINT ( 'NONE', #141 ) ;
#181 = PRODUCT ( 'entretoise brosse', 'entretoise brosse', '', ( #41 ) ) ;
#182 = UNCERTAINTY_MEASURE_WITH_UNIT (LENGTH_MEASURE( 1.000000000000000100E-005 ), #174, 'distance_accuracy_value', 'NONE');
#183 = CIRCLE ( 'NONE', #44, 57.99999999999997200 ) ;
#184 = AXIS2_PLACEMENT_3D ( 'NONE', #7, #87, #233 ) ;
#185 = CYLINDRICAL_SURFACE ( 'NONE', #224, 45.99999999999998600 ) ;
#186 = AXIS2_PLACEMENT_3D ( 'NONE', #195, #102, #175 ) ;
#187 = ORIENTED_EDGE ( 'NONE', *, *, #137, .F. ) ;
#188 = DIRECTION ( 'NONE',  ( -1.000000000000000000, 4.163336342344333900E-015, 0.0000000000000000000 ) ) ;
#189 = CARTESIAN_POINT ( 'NONE',  ( -197.9999999999999400, 88.00000000000055400, 0.0000000000000000000 ) ) ;
#190 = MANIFOLD_SOLID_BREP ( 'Révolution1', #136 ) ;
#191 = PRODUCT_DEFINITION_CONTEXT ( 'detailed design', #129, 'design' ) ;
#192 = DIRECTION ( 'NONE',  ( -1.000000000000000000, 4.306899664494142100E-015, 0.0000000000000000000 ) ) ;
#193 = FACE_OUTER_BOUND ( 'NONE', #223, .T. ) ;
#194 = ORIENTED_EDGE ( 'NONE', *, *, #23, .T. ) ;
#195 = CARTESIAN_POINT ( 'NONE',  ( -139.9999999999999700, 88.00000000000025600, 0.0000000000000000000 ) ) ;
#196 = VERTEX_POINT ( 'NONE', #31 ) ;
#197 = DIRECTION ( 'NONE',  ( -1.000000000000000000, 4.223674550204401200E-015, 0.0000000000000000000 ) ) ;
#198 = EDGE_CURVE ( 'NONE', #196, #26, #8, .T. ) ;
#199 = ORIENTED_EDGE ( 'NONE', *, *, #246, .T. ) ;
#200 = ORIENTED_EDGE ( 'NONE', *, *, #160, .T. ) ;
#201 = AXIS2_PLACEMENT_3D ( 'NONE', #290, #178, #197 ) ;
#202 = AXIS2_PLACEMENT_3D ( 'NONE', #68, #210, #92 ) ;
#203 = VERTEX_POINT ( 'NONE', #260 ) ;
#204 = EDGE_CURVE ( 'NONE', #42, #12, #244, .T. ) ;
#205 = FACE_OUTER_BOUND ( 'NONE', #101, .T. ) ;
#206 = EDGE_LOOP ( 'NONE', ( #230, #29, #50, #82 ) ) ;
#207 = PLANE ( 'NONE',  #9 ) ;
#208 = UNCERTAINTY_MEASURE_WITH_UNIT (LENGTH_MEASURE( 1.000000000000000100E-005 ), #243, 'distance_accuracy_value', 'NONE');
#209 = AXIS2_PLACEMENT_3D ( 'NONE', #98, #11, #143 ) ;
#210 = DIRECTION ( 'NONE',  ( 4.268146184293731700E-015, 1.000000000000000000, -0.0000000000000000000 ) ) ;
#211 = AXIS2_PLACEMENT_3D ( 'NONE', #13, #120, #75 ) ;
#212 = ORIENTED_EDGE ( 'NONE', *, *, #232, .T. ) ;
#213 = CARTESIAN_POINT ( 'NONE',  ( -189.9999999999999400, 88.00000000000046900, 0.0000000000000000000 ) ) ;
#214 =( LENGTH_UNIT ( ) NAMED_UNIT ( * ) SI_UNIT ( .MILLI., .METRE. ) );
#215 = VECTOR ( 'NONE', #115, 1000.000000000000000 ) ;
#216 = EDGE_LOOP ( 'NONE', ( #33, #135, #49, #84 ) ) ;
#217 = AXIS2_PLACEMENT_3D ( 'NONE', #100, #265, #97 ) ;
#218 = FILL_AREA_STYLE ('',( #147 ) ) ;
#219 = EDGE_LOOP ( 'NONE', ( #249, #263 ) ) ;
#220 = FILL_AREA_STYLE_COLOUR ( '', #108 ) ;
#221 = EDGE_CURVE ( 'NONE', #57, #180, #5, .T. ) ;
#222 = LINE ( 'NONE', #255, #215 ) ;
#223 = EDGE_LOOP ( 'NONE', ( #71, #199, #176, #94 ) ) ;
#224 = AXIS2_PLACEMENT_3D ( 'NONE', #35, #144, #170 ) ;
#225 = CYLINDRICAL_SURFACE ( 'NONE', #2, 57.99999999999997200 ) ;
#226 = ORIENTED_EDGE ( 'NONE', *, *, #133, .T. ) ;
#227 = PRODUCT_RELATED_PRODUCT_CATEGORY ( 'part', '', ( #181 ) ) ;
#228 = FACE_OUTER_BOUND ( 'NONE', #219, .T. ) ;
#229 = FACE_OUTER_BOUND ( 'NONE', #114, .T. ) ;
#230 = ORIENTED_EDGE ( 'NONE', *, *, #51, .T. ) ;
#231 = CARTESIAN_POINT ( 'NONE',  ( -139.9999999999999700, 80.00000000000024200, 0.0000000000000000000 ) ) ;
#232 = EDGE_CURVE ( 'NONE', #42, #281, #21, .T. ) ;
#233 = DIRECTION ( 'NONE',  ( -1.000000000000000000, 4.223674550204403600E-015, 0.0000000000000000000 ) ) ;
#234 = EDGE_CURVE ( 'NONE', #203, #180, #274, .T. ) ;
#235 = COLOUR_RGB ( '',0.7921568627450980000, 0.8196078431372548800, 0.9333333333333333500 ) ;
#236 = CARTESIAN_POINT ( 'NONE',  ( -81.99999999999998600, 87.49999999999980100, 7.102951435054644900E-015 ) ) ;
#237 = PRESENTATION_STYLE_ASSIGNMENT (( #93 ) ) ;
#238 =( NAMED_UNIT ( * ) SI_UNIT ( $, .STERADIAN. ) SOLID_ANGLE_UNIT ( ) );
#239 = ORIENTED_EDGE ( 'NONE', *, *, #106, .F. ) ;
#240 = AXIS2_PLACEMENT_3D ( 'NONE', #283, #168, #280 ) ;
#241 = DIRECTION ( 'NONE',  ( 4.268146184293731700E-015, 1.000000000000000000, -0.0000000000000000000 ) ) ;
#242 = DIRECTION ( 'NONE',  ( 4.268146184293731700E-015, 1.000000000000000000, -0.0000000000000000000 ) ) ;
#243 =( LENGTH_UNIT ( ) NAMED_UNIT ( * ) SI_UNIT ( .MILLI., .METRE. ) );
#244 = CIRCLE ( 'NONE', #211, 57.99999999999999300 ) ;
#245 = CARTESIAN_POINT ( 'NONE',  ( -197.9999999999998600, 98.00000000000054000, 0.0000000000000000000 ) ) ;
#246 = EDGE_CURVE ( 'NONE', #76, #275, #32, .T. ) ;
#247 =( NAMED_UNIT ( * ) PLANE_ANGLE_UNIT ( ) SI_UNIT ( $, .RADIAN. ) );
#248 = ORIENTED_EDGE ( 'NONE', *, *, #204, .T. ) ;
#249 = ORIENTED_EDGE ( 'NONE', *, *, #204, .F. ) ;
#250 = AXIS2_PLACEMENT_3D ( 'NONE', #231, #258, #188 ) ;
#251 =( GEOMETRIC_REPRESENTATION_CONTEXT ( 3 ) GLOBAL_UNCERTAINTY_ASSIGNED_CONTEXT ( ( #89 ) ) GLOBAL_UNIT_ASSIGNED_CONTEXT ( ( #214, #118, #238 ) ) REPRESENTATION_CONTEXT ( 'NONE', 'WORKASPACE' ) );
#252 = PRESENTATION_STYLE_ASSIGNMENT (( #80 ) ) ;
#253 = VECTOR ( 'NONE', #276, 1000.000000000000000 ) ;
#254 = ORIENTED_EDGE ( 'NONE', *, *, #246, .F. ) ;
#255 = CARTESIAN_POINT ( 'NONE',  ( -93.99999999999997200, 87.49999999999985800, 5.633375276077823100E-015 ) ) ;
#256 = STYLED_ITEM ( 'NONE', ( #237 ), #190 ) ;
#257 = CARTESIAN_POINT ( 'NONE',  ( -89.99999999999994300, 87.49999999999984400, 6.123233995736767700E-015 ) ) ;
#258 = DIRECTION ( 'NONE',  ( 4.268146184293731700E-015, 1.000000000000000000, -0.0000000000000000000 ) ) ;
#259 = DIRECTION ( 'NONE',  ( 4.268146184293731700E-015, 1.000000000000000000, -0.0000000000000000000 ) ) ;
#260 = CARTESIAN_POINT ( 'NONE',  ( -186.0000000000000300, 80.00000000000041200, 0.0000000000000000000 ) ) ;
#261 = EDGE_CURVE ( 'NONE', #26, #196, #179, .T. ) ;
#262 = CYLINDRICAL_SURFACE ( 'NONE', #173, 57.99999999999997200 ) ;
#263 = ORIENTED_EDGE ( 'NONE', *, *, #132, .F. ) ;
#264 = CARTESIAN_POINT ( 'NONE',  ( -197.9999999999999100, 87.50000000000029800, 0.0000000000000000000 ) ) ;
#265 = DIRECTION ( 'NONE',  ( 4.268146184293731700E-015, 1.000000000000000000, -0.0000000000000000000 ) ) ;
#266 = DIRECTION ( 'NONE',  ( -1.000000000000000000, 4.306899664494143600E-015, 0.0000000000000000000 ) ) ;
#267 = ORIENTED_EDGE ( 'NONE', *, *, #51, .F. ) ;
#268 = APPLICATION_PROTOCOL_DEFINITION ( 'draft international standard', 'automotive_design', 1998, #129 ) ;
#269 = ADVANCED_FACE ( 'NONE', ( #205 ), #169, .F. ) ;
#270 = VECTOR ( 'NONE', #124, 1000.000000000000000 ) ;
#271 = ORIENTED_EDGE ( 'NONE', *, *, #221, .T. ) ;
#272 = AXIS2_PLACEMENT_3D ( 'NONE', #77, #259, #123 ) ;
#273 = VERTEX_POINT ( 'NONE', #43 ) ;
#274 = LINE ( 'NONE', #79, #130 ) ;
#275 = VERTEX_POINT ( 'NONE', #37 ) ;
#276 = DIRECTION ( 'NONE',  ( 4.268146184293731700E-015, 1.000000000000000000, -0.0000000000000000000 ) ) ;
#277 = CARTESIAN_POINT ( 'NONE',  ( -139.9999999999999700, 87.50000000000005700, 0.0000000000000000000 ) ) ;
#278 = CARTESIAN_POINT ( 'NONE',  ( -89.99999999999994300, 80.00000000000002800, 6.123233995736769200E-015 ) ) ;
#279 = CIRCLE ( 'NONE', #250, 50.00000000000004300 ) ;
#280 = DIRECTION ( 'NONE',  ( 1.000000000000000000, -4.268146184293731700E-015, 0.0000000000000000000 ) ) ;
#281 = VERTEX_POINT ( 'NONE', #245 ) ;
#282 = CARTESIAN_POINT ( 'NONE',  ( -139.9999999999999700, 88.00000000000029800, 0.0000000000000000000 ) ) ;
#283 = CARTESIAN_POINT ( 'NONE',  ( -81.99999999999994300, 98.00000000000001400, 0.0000000000000000000 ) ) ;
#284 = DIRECTION ( 'NONE',  ( 4.268146184293731700E-015, 1.000000000000000000, -0.0000000000000000000 ) ) ;
#285 = PRESENTATION_LAYER_ASSIGNMENT (  '', '', ( #256 ) ) ;
#286 = VECTOR ( 'NONE', #14, 1000.000000000000000 ) ;
#287 = DIRECTION ( 'NONE',  ( -1.000000000000000000, 4.306899664494143600E-015, 0.0000000000000000000 ) ) ;
#288 =( NAMED_UNIT ( * ) PLANE_ANGLE_UNIT ( ) SI_UNIT ( $, .RADIAN. ) );
#289 = ADVANCED_FACE ( 'NONE', ( #1 ), #225, .T. ) ;
#290 = CARTESIAN_POINT ( 'NONE',  ( -139.9999999999999700, 87.50000000000005700, 0.0000000000000000000 ) ) ;
#291 = DIRECTION ( 'NONE',  ( 4.268146184293731700E-015, 1.000000000000000000, -0.0000000000000000000 ) ) ;
#292 = CIRCLE ( 'NONE', #209, 57.99999999999997200 ) ;
#293 = FILL_AREA_STYLE ('',( #220 ) ) ;
#294 = EDGE_CURVE ( 'NONE', #275, #26, #56, .T. ) ;
ENDSEC;
END-ISO-10303-21;
