ISO-10303-21;
HEADER;
/* Generated by software containing ST-Developer
 * from STEP Tools, Inc. (www.steptools.com) 
 */

FILE_DESCRIPTION(
/* description */ (''),
/* implementation_level */ '2;1');

FILE_NAME(
/* name */ 'C:\\Users\\manon.carpentier\\Desktop\\Equerres.stp',
/* time_stamp */ '2019-10-10T10:42:43+02:00',
/* author */ ('manon.carpentier'),
/* organization */ (''),
/* preprocessor_version */ 'ST-DEVELOPER v18',
/* originating_system */ 'Autodesk Inventor 2020',
/* authorisation */ '');

FILE_SCHEMA (('AUTOMOTIVE_DESIGN { 1 0 10303 214 3 1 1 }'));
ENDSEC;

DATA;
#10=MECHANICAL_DESIGN_GEOMETRIC_PRESENTATION_REPRESENTATION('',(#13),#570);
#11=SHAPE_REPRESENTATION_RELATIONSHIP('SRR','None',#577,#12);
#12=ADVANCED_BREP_SHAPE_REPRESENTATION('',(#14),#569);
#13=STYLED_ITEM('',(#586),#14);
#14=MANIFOLD_SOLID_BREP('Solide1',#336);
#15=FACE_BOUND('',#61,.T.);
#16=FACE_BOUND('',#64,.T.);
#17=FACE_BOUND('',#66,.T.);
#18=FACE_BOUND('',#69,.T.);
#19=CIRCLE('',#358,1.45);
#20=CIRCLE('',#359,1.45);
#21=CIRCLE('',#362,1.45);
#22=CIRCLE('',#363,1.45);
#23=CIRCLE('',#366,1.45);
#24=CIRCLE('',#367,1.45);
#25=CIRCLE('',#370,1.45);
#26=CIRCLE('',#371,1.45);
#27=CIRCLE('',#373,5.);
#28=CIRCLE('',#374,5.);
#29=CYLINDRICAL_SURFACE('',#357,1.45);
#30=CYLINDRICAL_SURFACE('',#361,1.45);
#31=CYLINDRICAL_SURFACE('',#365,1.45);
#32=CYLINDRICAL_SURFACE('',#369,1.45);
#33=CYLINDRICAL_SURFACE('',#372,5.);
#34=FACE_OUTER_BOUND('',#51,.T.);
#35=FACE_OUTER_BOUND('',#52,.T.);
#36=FACE_OUTER_BOUND('',#53,.T.);
#37=FACE_OUTER_BOUND('',#54,.T.);
#38=FACE_OUTER_BOUND('',#55,.T.);
#39=FACE_OUTER_BOUND('',#56,.T.);
#40=FACE_OUTER_BOUND('',#57,.T.);
#41=FACE_OUTER_BOUND('',#58,.T.);
#42=FACE_OUTER_BOUND('',#59,.T.);
#43=FACE_OUTER_BOUND('',#60,.T.);
#44=FACE_OUTER_BOUND('',#62,.T.);
#45=FACE_OUTER_BOUND('',#63,.T.);
#46=FACE_OUTER_BOUND('',#65,.T.);
#47=FACE_OUTER_BOUND('',#67,.T.);
#48=FACE_OUTER_BOUND('',#68,.T.);
#49=FACE_OUTER_BOUND('',#70,.T.);
#50=FACE_OUTER_BOUND('',#71,.T.);
#51=EDGE_LOOP('',(#217,#218,#219,#220));
#52=EDGE_LOOP('',(#221,#222,#223,#224));
#53=EDGE_LOOP('',(#225,#226,#227,#228));
#54=EDGE_LOOP('',(#229,#230,#231,#232));
#55=EDGE_LOOP('',(#233,#234,#235,#236));
#56=EDGE_LOOP('',(#237,#238,#239,#240));
#57=EDGE_LOOP('',(#241,#242,#243,#244));
#58=EDGE_LOOP('',(#245,#246,#247,#248));
#59=EDGE_LOOP('',(#249,#250,#251,#252));
#60=EDGE_LOOP('',(#253,#254,#255,#256));
#61=EDGE_LOOP('',(#257,#258,#259,#260));
#62=EDGE_LOOP('',(#261,#262,#263,#264));
#63=EDGE_LOOP('',(#265,#266,#267,#268));
#64=EDGE_LOOP('',(#269,#270,#271,#272));
#65=EDGE_LOOP('',(#273,#274,#275,#276));
#66=EDGE_LOOP('',(#277,#278,#279,#280));
#67=EDGE_LOOP('',(#281,#282,#283,#284));
#68=EDGE_LOOP('',(#285,#286,#287,#288));
#69=EDGE_LOOP('',(#289,#290,#291,#292));
#70=EDGE_LOOP('',(#293,#294,#295,#296,#297,#298,#299));
#71=EDGE_LOOP('',(#300,#301,#302,#303,#304,#305,#306));
#72=LINE('',#478,#107);
#73=LINE('',#480,#108);
#74=LINE('',#482,#109);
#75=LINE('',#483,#110);
#76=LINE('',#489,#111);
#77=LINE('',#492,#112);
#78=LINE('',#494,#113);
#79=LINE('',#495,#114);
#80=LINE('',#502,#115);
#81=LINE('',#504,#116);
#82=LINE('',#506,#117);
#83=LINE('',#507,#118);
#84=LINE('',#513,#119);
#85=LINE('',#516,#120);
#86=LINE('',#518,#121);
#87=LINE('',#519,#122);
#88=LINE('',#528,#123);
#89=LINE('',#531,#124);
#90=LINE('',#534,#125);
#91=LINE('',#536,#126);
#92=LINE('',#537,#127);
#93=LINE('',#540,#128);
#94=LINE('',#542,#129);
#95=LINE('',#543,#130);
#96=LINE('',#546,#131);
#97=LINE('',#548,#132);
#98=LINE('',#549,#133);
#99=LINE('',#552,#134);
#100=LINE('',#554,#135);
#101=LINE('',#555,#136);
#102=LINE('',#558,#137);
#103=LINE('',#560,#138);
#104=LINE('',#561,#139);
#105=LINE('',#563,#140);
#106=LINE('',#564,#141);
#107=VECTOR('',#387,10.);
#108=VECTOR('',#388,10.);
#109=VECTOR('',#389,10.);
#110=VECTOR('',#390,10.);
#111=VECTOR('',#397,10.);
#112=VECTOR('',#400,10.);
#113=VECTOR('',#401,10.);
#114=VECTOR('',#402,10.);
#115=VECTOR('',#411,10.);
#116=VECTOR('',#412,10.);
#117=VECTOR('',#413,10.);
#118=VECTOR('',#414,10.);
#119=VECTOR('',#421,10.);
#120=VECTOR('',#424,10.);
#121=VECTOR('',#425,10.);
#122=VECTOR('',#426,10.);
#123=VECTOR('',#437,10.);
#124=VECTOR('',#440,10.);
#125=VECTOR('',#443,10.);
#126=VECTOR('',#444,10.);
#127=VECTOR('',#445,10.);
#128=VECTOR('',#448,10.);
#129=VECTOR('',#449,10.);
#130=VECTOR('',#450,10.);
#131=VECTOR('',#453,10.);
#132=VECTOR('',#454,10.);
#133=VECTOR('',#455,10.);
#134=VECTOR('',#458,10.);
#135=VECTOR('',#459,10.);
#136=VECTOR('',#460,10.);
#137=VECTOR('',#463,10.);
#138=VECTOR('',#464,10.);
#139=VECTOR('',#465,10.);
#140=VECTOR('',#468,10.);
#141=VECTOR('',#469,10.);
#142=VERTEX_POINT('',#476);
#143=VERTEX_POINT('',#477);
#144=VERTEX_POINT('',#479);
#145=VERTEX_POINT('',#481);
#146=VERTEX_POINT('',#485);
#147=VERTEX_POINT('',#487);
#148=VERTEX_POINT('',#491);
#149=VERTEX_POINT('',#493);
#150=VERTEX_POINT('',#500);
#151=VERTEX_POINT('',#501);
#152=VERTEX_POINT('',#503);
#153=VERTEX_POINT('',#505);
#154=VERTEX_POINT('',#509);
#155=VERTEX_POINT('',#511);
#156=VERTEX_POINT('',#515);
#157=VERTEX_POINT('',#517);
#158=VERTEX_POINT('',#524);
#159=VERTEX_POINT('',#525);
#160=VERTEX_POINT('',#527);
#161=VERTEX_POINT('',#529);
#162=VERTEX_POINT('',#533);
#163=VERTEX_POINT('',#535);
#164=VERTEX_POINT('',#539);
#165=VERTEX_POINT('',#541);
#166=VERTEX_POINT('',#545);
#167=VERTEX_POINT('',#547);
#168=VERTEX_POINT('',#551);
#169=VERTEX_POINT('',#553);
#170=VERTEX_POINT('',#557);
#171=VERTEX_POINT('',#559);
#172=EDGE_CURVE('',#142,#143,#72,.T.);
#173=EDGE_CURVE('',#144,#142,#73,.T.);
#174=EDGE_CURVE('',#145,#144,#74,.T.);
#175=EDGE_CURVE('',#145,#143,#75,.T.);
#176=EDGE_CURVE('',#143,#146,#19,.T.);
#177=EDGE_CURVE('',#147,#145,#20,.T.);
#178=EDGE_CURVE('',#147,#146,#76,.T.);
#179=EDGE_CURVE('',#146,#148,#77,.T.);
#180=EDGE_CURVE('',#149,#147,#78,.T.);
#181=EDGE_CURVE('',#149,#148,#79,.T.);
#182=EDGE_CURVE('',#148,#142,#21,.T.);
#183=EDGE_CURVE('',#144,#149,#22,.T.);
#184=EDGE_CURVE('',#150,#151,#80,.T.);
#185=EDGE_CURVE('',#152,#150,#81,.T.);
#186=EDGE_CURVE('',#153,#152,#82,.T.);
#187=EDGE_CURVE('',#153,#151,#83,.T.);
#188=EDGE_CURVE('',#151,#154,#23,.T.);
#189=EDGE_CURVE('',#155,#153,#24,.T.);
#190=EDGE_CURVE('',#155,#154,#84,.T.);
#191=EDGE_CURVE('',#154,#156,#85,.T.);
#192=EDGE_CURVE('',#157,#155,#86,.T.);
#193=EDGE_CURVE('',#157,#156,#87,.T.);
#194=EDGE_CURVE('',#156,#150,#25,.T.);
#195=EDGE_CURVE('',#152,#157,#26,.T.);
#196=EDGE_CURVE('',#158,#159,#27,.T.);
#197=EDGE_CURVE('',#159,#160,#88,.T.);
#198=EDGE_CURVE('',#161,#160,#28,.T.);
#199=EDGE_CURVE('',#158,#161,#89,.T.);
#200=EDGE_CURVE('',#162,#158,#90,.T.);
#201=EDGE_CURVE('',#163,#161,#91,.T.);
#202=EDGE_CURVE('',#162,#163,#92,.T.);
#203=EDGE_CURVE('',#164,#162,#93,.T.);
#204=EDGE_CURVE('',#165,#163,#94,.T.);
#205=EDGE_CURVE('',#164,#165,#95,.T.);
#206=EDGE_CURVE('',#166,#164,#96,.T.);
#207=EDGE_CURVE('',#167,#165,#97,.T.);
#208=EDGE_CURVE('',#166,#167,#98,.T.);
#209=EDGE_CURVE('',#168,#166,#99,.T.);
#210=EDGE_CURVE('',#169,#167,#100,.T.);
#211=EDGE_CURVE('',#168,#169,#101,.T.);
#212=EDGE_CURVE('',#170,#168,#102,.T.);
#213=EDGE_CURVE('',#171,#169,#103,.T.);
#214=EDGE_CURVE('',#170,#171,#104,.T.);
#215=EDGE_CURVE('',#159,#170,#105,.T.);
#216=EDGE_CURVE('',#160,#171,#106,.T.);
#217=ORIENTED_EDGE('',*,*,#172,.F.);
#218=ORIENTED_EDGE('',*,*,#173,.F.);
#219=ORIENTED_EDGE('',*,*,#174,.F.);
#220=ORIENTED_EDGE('',*,*,#175,.T.);
#221=ORIENTED_EDGE('',*,*,#176,.F.);
#222=ORIENTED_EDGE('',*,*,#175,.F.);
#223=ORIENTED_EDGE('',*,*,#177,.F.);
#224=ORIENTED_EDGE('',*,*,#178,.T.);
#225=ORIENTED_EDGE('',*,*,#179,.F.);
#226=ORIENTED_EDGE('',*,*,#178,.F.);
#227=ORIENTED_EDGE('',*,*,#180,.F.);
#228=ORIENTED_EDGE('',*,*,#181,.T.);
#229=ORIENTED_EDGE('',*,*,#182,.F.);
#230=ORIENTED_EDGE('',*,*,#181,.F.);
#231=ORIENTED_EDGE('',*,*,#183,.F.);
#232=ORIENTED_EDGE('',*,*,#173,.T.);
#233=ORIENTED_EDGE('',*,*,#184,.F.);
#234=ORIENTED_EDGE('',*,*,#185,.F.);
#235=ORIENTED_EDGE('',*,*,#186,.F.);
#236=ORIENTED_EDGE('',*,*,#187,.T.);
#237=ORIENTED_EDGE('',*,*,#188,.F.);
#238=ORIENTED_EDGE('',*,*,#187,.F.);
#239=ORIENTED_EDGE('',*,*,#189,.F.);
#240=ORIENTED_EDGE('',*,*,#190,.T.);
#241=ORIENTED_EDGE('',*,*,#191,.F.);
#242=ORIENTED_EDGE('',*,*,#190,.F.);
#243=ORIENTED_EDGE('',*,*,#192,.F.);
#244=ORIENTED_EDGE('',*,*,#193,.T.);
#245=ORIENTED_EDGE('',*,*,#194,.F.);
#246=ORIENTED_EDGE('',*,*,#193,.F.);
#247=ORIENTED_EDGE('',*,*,#195,.F.);
#248=ORIENTED_EDGE('',*,*,#185,.T.);
#249=ORIENTED_EDGE('',*,*,#196,.T.);
#250=ORIENTED_EDGE('',*,*,#197,.T.);
#251=ORIENTED_EDGE('',*,*,#198,.F.);
#252=ORIENTED_EDGE('',*,*,#199,.F.);
#253=ORIENTED_EDGE('',*,*,#200,.T.);
#254=ORIENTED_EDGE('',*,*,#199,.T.);
#255=ORIENTED_EDGE('',*,*,#201,.F.);
#256=ORIENTED_EDGE('',*,*,#202,.F.);
#257=ORIENTED_EDGE('',*,*,#174,.T.);
#258=ORIENTED_EDGE('',*,*,#183,.T.);
#259=ORIENTED_EDGE('',*,*,#180,.T.);
#260=ORIENTED_EDGE('',*,*,#177,.T.);
#261=ORIENTED_EDGE('',*,*,#203,.T.);
#262=ORIENTED_EDGE('',*,*,#202,.T.);
#263=ORIENTED_EDGE('',*,*,#204,.F.);
#264=ORIENTED_EDGE('',*,*,#205,.F.);
#265=ORIENTED_EDGE('',*,*,#206,.T.);
#266=ORIENTED_EDGE('',*,*,#205,.T.);
#267=ORIENTED_EDGE('',*,*,#207,.F.);
#268=ORIENTED_EDGE('',*,*,#208,.F.);
#269=ORIENTED_EDGE('',*,*,#172,.T.);
#270=ORIENTED_EDGE('',*,*,#176,.T.);
#271=ORIENTED_EDGE('',*,*,#179,.T.);
#272=ORIENTED_EDGE('',*,*,#182,.T.);
#273=ORIENTED_EDGE('',*,*,#209,.T.);
#274=ORIENTED_EDGE('',*,*,#208,.T.);
#275=ORIENTED_EDGE('',*,*,#210,.F.);
#276=ORIENTED_EDGE('',*,*,#211,.F.);
#277=ORIENTED_EDGE('',*,*,#184,.T.);
#278=ORIENTED_EDGE('',*,*,#188,.T.);
#279=ORIENTED_EDGE('',*,*,#191,.T.);
#280=ORIENTED_EDGE('',*,*,#194,.T.);
#281=ORIENTED_EDGE('',*,*,#212,.T.);
#282=ORIENTED_EDGE('',*,*,#211,.T.);
#283=ORIENTED_EDGE('',*,*,#213,.F.);
#284=ORIENTED_EDGE('',*,*,#214,.F.);
#285=ORIENTED_EDGE('',*,*,#215,.T.);
#286=ORIENTED_EDGE('',*,*,#214,.T.);
#287=ORIENTED_EDGE('',*,*,#216,.F.);
#288=ORIENTED_EDGE('',*,*,#197,.F.);
#289=ORIENTED_EDGE('',*,*,#186,.T.);
#290=ORIENTED_EDGE('',*,*,#195,.T.);
#291=ORIENTED_EDGE('',*,*,#192,.T.);
#292=ORIENTED_EDGE('',*,*,#189,.T.);
#293=ORIENTED_EDGE('',*,*,#216,.T.);
#294=ORIENTED_EDGE('',*,*,#213,.T.);
#295=ORIENTED_EDGE('',*,*,#210,.T.);
#296=ORIENTED_EDGE('',*,*,#207,.T.);
#297=ORIENTED_EDGE('',*,*,#204,.T.);
#298=ORIENTED_EDGE('',*,*,#201,.T.);
#299=ORIENTED_EDGE('',*,*,#198,.T.);
#300=ORIENTED_EDGE('',*,*,#215,.F.);
#301=ORIENTED_EDGE('',*,*,#196,.F.);
#302=ORIENTED_EDGE('',*,*,#200,.F.);
#303=ORIENTED_EDGE('',*,*,#203,.F.);
#304=ORIENTED_EDGE('',*,*,#206,.F.);
#305=ORIENTED_EDGE('',*,*,#209,.F.);
#306=ORIENTED_EDGE('',*,*,#212,.F.);
#307=PLANE('',#356);
#308=PLANE('',#360);
#309=PLANE('',#364);
#310=PLANE('',#368);
#311=PLANE('',#375);
#312=PLANE('',#376);
#313=PLANE('',#377);
#314=PLANE('',#378);
#315=PLANE('',#379);
#316=PLANE('',#380);
#317=PLANE('',#381);
#318=PLANE('',#382);
#319=ADVANCED_FACE('',(#34),#307,.F.);
#320=ADVANCED_FACE('',(#35),#29,.F.);
#321=ADVANCED_FACE('',(#36),#308,.F.);
#322=ADVANCED_FACE('',(#37),#30,.F.);
#323=ADVANCED_FACE('',(#38),#309,.F.);
#324=ADVANCED_FACE('',(#39),#31,.F.);
#325=ADVANCED_FACE('',(#40),#310,.F.);
#326=ADVANCED_FACE('',(#41),#32,.F.);
#327=ADVANCED_FACE('',(#42),#33,.F.);
#328=ADVANCED_FACE('',(#43,#15),#311,.T.);
#329=ADVANCED_FACE('',(#44),#312,.T.);
#330=ADVANCED_FACE('',(#45,#16),#313,.T.);
#331=ADVANCED_FACE('',(#46,#17),#314,.T.);
#332=ADVANCED_FACE('',(#47),#315,.T.);
#333=ADVANCED_FACE('',(#48,#18),#316,.T.);
#334=ADVANCED_FACE('',(#49),#317,.T.);
#335=ADVANCED_FACE('',(#50),#318,.F.);
#336=CLOSED_SHELL('',(#319,#320,#321,#322,#323,#324,#325,#326,#327,#328,
#329,#330,#331,#332,#333,#334,#335));
#337=DERIVED_UNIT_ELEMENT(#339,1.);
#338=DERIVED_UNIT_ELEMENT(#572,3.);
#339=(
MASS_UNIT()
NAMED_UNIT(*)
SI_UNIT($,.GRAM.)
);
#340=DERIVED_UNIT((#337,#338));
#341=MEASURE_REPRESENTATION_ITEM('density measure',
POSITIVE_RATIO_MEASURE(1.),#340);
#342=PROPERTY_DEFINITION_REPRESENTATION(#347,#344);
#343=PROPERTY_DEFINITION_REPRESENTATION(#348,#345);
#344=REPRESENTATION('material name',(#346),#569);
#345=REPRESENTATION('density',(#341),#569);
#346=DESCRIPTIVE_REPRESENTATION_ITEM('G\X\E9n\X\E9rique','G\X\E9n\X\E9
rique');
#347=PROPERTY_DEFINITION('material property','material name',#579);
#348=PROPERTY_DEFINITION('material property','density of part',#579);
#349=DATE_TIME_ROLE('creation_date');
#350=APPLIED_DATE_AND_TIME_ASSIGNMENT(#351,#349,(#579));
#351=DATE_AND_TIME(#352,#353);
#352=CALENDAR_DATE(2019,8,10);
#353=LOCAL_TIME(7,54,54.,#354);
#354=COORDINATED_UNIVERSAL_TIME_OFFSET(0,0,.BEHIND.);
#355=AXIS2_PLACEMENT_3D('placement',#474,#383,#384);
#356=AXIS2_PLACEMENT_3D('',#475,#385,#386);
#357=AXIS2_PLACEMENT_3D('',#484,#391,#392);
#358=AXIS2_PLACEMENT_3D('',#486,#393,#394);
#359=AXIS2_PLACEMENT_3D('',#488,#395,#396);
#360=AXIS2_PLACEMENT_3D('',#490,#398,#399);
#361=AXIS2_PLACEMENT_3D('',#496,#403,#404);
#362=AXIS2_PLACEMENT_3D('',#497,#405,#406);
#363=AXIS2_PLACEMENT_3D('',#498,#407,#408);
#364=AXIS2_PLACEMENT_3D('',#499,#409,#410);
#365=AXIS2_PLACEMENT_3D('',#508,#415,#416);
#366=AXIS2_PLACEMENT_3D('',#510,#417,#418);
#367=AXIS2_PLACEMENT_3D('',#512,#419,#420);
#368=AXIS2_PLACEMENT_3D('',#514,#422,#423);
#369=AXIS2_PLACEMENT_3D('',#520,#427,#428);
#370=AXIS2_PLACEMENT_3D('',#521,#429,#430);
#371=AXIS2_PLACEMENT_3D('',#522,#431,#432);
#372=AXIS2_PLACEMENT_3D('',#523,#433,#434);
#373=AXIS2_PLACEMENT_3D('',#526,#435,#436);
#374=AXIS2_PLACEMENT_3D('',#530,#438,#439);
#375=AXIS2_PLACEMENT_3D('',#532,#441,#442);
#376=AXIS2_PLACEMENT_3D('',#538,#446,#447);
#377=AXIS2_PLACEMENT_3D('',#544,#451,#452);
#378=AXIS2_PLACEMENT_3D('',#550,#456,#457);
#379=AXIS2_PLACEMENT_3D('',#556,#461,#462);
#380=AXIS2_PLACEMENT_3D('',#562,#466,#467);
#381=AXIS2_PLACEMENT_3D('',#565,#470,#471);
#382=AXIS2_PLACEMENT_3D('',#566,#472,#473);
#383=DIRECTION('axis',(0.,0.,1.));
#384=DIRECTION('refdir',(1.,0.,0.));
#385=DIRECTION('center_axis',(0.,-1.,0.));
#386=DIRECTION('ref_axis',(-1.,0.,4.82705662880503E-16));
#387=DIRECTION('',(1.,0.,-1.48029736616688E-16));
#388=DIRECTION('',(-7.40148683083425E-16,0.,-1.));
#389=DIRECTION('',(-1.,0.,4.82705662880503E-16));
#390=DIRECTION('',(-7.40148683083425E-16,0.,-1.));
#391=DIRECTION('center_axis',(-7.40148683083425E-16,0.,-1.));
#392=DIRECTION('ref_axis',(0.,-1.,0.));
#393=DIRECTION('center_axis',(1.48029736616688E-16,0.,1.));
#394=DIRECTION('ref_axis',(0.,-1.,0.));
#395=DIRECTION('center_axis',(-4.82705662880503E-16,0.,-1.));
#396=DIRECTION('ref_axis',(0.,-1.,0.));
#397=DIRECTION('',(-7.40148683083425E-16,0.,-1.));
#398=DIRECTION('center_axis',(0.,1.,0.));
#399=DIRECTION('ref_axis',(1.,0.,-4.82705662880503E-16));
#400=DIRECTION('',(-1.,0.,1.48029736616688E-16));
#401=DIRECTION('',(1.,0.,-4.82705662880503E-16));
#402=DIRECTION('',(-7.40148683083425E-16,0.,-1.));
#403=DIRECTION('center_axis',(-7.40148683083425E-16,0.,-1.));
#404=DIRECTION('ref_axis',(0.,1.,0.));
#405=DIRECTION('center_axis',(1.48029736616688E-16,0.,1.));
#406=DIRECTION('ref_axis',(0.,1.,0.));
#407=DIRECTION('center_axis',(-4.82705662880503E-16,0.,-1.));
#408=DIRECTION('ref_axis',(0.,1.,0.));
#409=DIRECTION('center_axis',(0.,-1.,0.));
#410=DIRECTION('ref_axis',(-3.41607084500048E-16,0.,-1.));
#411=DIRECTION('',(1.83697019872103E-16,0.,1.));
#412=DIRECTION('',(1.,0.,-3.70074341541718E-16));
#413=DIRECTION('',(-3.41607084500048E-16,0.,-1.));
#414=DIRECTION('',(1.,0.,-3.70074341541718E-16));
#415=DIRECTION('center_axis',(1.,0.,-3.70074341541718E-16));
#416=DIRECTION('ref_axis',(0.,-1.,0.));
#417=DIRECTION('center_axis',(-1.,0.,1.83697019872103E-16));
#418=DIRECTION('ref_axis',(0.,-1.,0.));
#419=DIRECTION('center_axis',(1.,0.,-3.41607084500048E-16));
#420=DIRECTION('ref_axis',(0.,-1.,0.));
#421=DIRECTION('',(1.,0.,-3.70074341541718E-16));
#422=DIRECTION('center_axis',(0.,1.,0.));
#423=DIRECTION('ref_axis',(3.41607084500048E-16,0.,1.));
#424=DIRECTION('',(-1.83697019872103E-16,0.,-1.));
#425=DIRECTION('',(3.41607084500048E-16,0.,1.));
#426=DIRECTION('',(1.,0.,-3.70074341541718E-16));
#427=DIRECTION('center_axis',(1.,0.,-3.70074341541718E-16));
#428=DIRECTION('ref_axis',(0.,1.,0.));
#429=DIRECTION('center_axis',(-1.,0.,1.83697019872103E-16));
#430=DIRECTION('ref_axis',(0.,1.,0.));
#431=DIRECTION('center_axis',(1.,0.,-3.41607084500048E-16));
#432=DIRECTION('ref_axis',(0.,1.,0.));
#433=DIRECTION('center_axis',(0.,1.,0.));
#434=DIRECTION('ref_axis',(-1.,0.,8.88178419700125E-16));
#435=DIRECTION('center_axis',(0.,-1.,0.));
#436=DIRECTION('ref_axis',(-1.,0.,8.88178419700125E-16));
#437=DIRECTION('',(0.,1.,0.));
#438=DIRECTION('center_axis',(0.,-1.,0.));
#439=DIRECTION('ref_axis',(-1.,0.,8.88178419700125E-16));
#440=DIRECTION('',(0.,1.,0.));
#441=DIRECTION('center_axis',(4.82705662880503E-16,0.,1.));
#442=DIRECTION('ref_axis',(1.,0.,-4.82705662880503E-16));
#443=DIRECTION('',(1.,0.,-4.82705662880503E-16));
#444=DIRECTION('',(1.,0.,-4.82705662880503E-16));
#445=DIRECTION('',(0.,1.,0.));
#446=DIRECTION('center_axis',(-1.,0.,0.));
#447=DIRECTION('ref_axis',(0.,0.,1.));
#448=DIRECTION('',(0.,0.,1.));
#449=DIRECTION('',(0.,0.,1.));
#450=DIRECTION('',(0.,1.,0.));
#451=DIRECTION('center_axis',(-1.48029736616688E-16,0.,-1.));
#452=DIRECTION('ref_axis',(-1.,0.,1.48029736616688E-16));
#453=DIRECTION('',(-1.,0.,1.48029736616688E-16));
#454=DIRECTION('',(-1.,0.,1.48029736616688E-16));
#455=DIRECTION('',(0.,1.,0.));
#456=DIRECTION('center_axis',(1.,0.,-1.83697019872103E-16));
#457=DIRECTION('ref_axis',(-1.83697019872103E-16,0.,-1.));
#458=DIRECTION('',(-1.83697019872103E-16,0.,-1.));
#459=DIRECTION('',(-1.83697019872103E-16,0.,-1.));
#460=DIRECTION('',(0.,1.,0.));
#461=DIRECTION('center_axis',(2.44929359829471E-16,0.,1.));
#462=DIRECTION('ref_axis',(1.,0.,-2.44929359829471E-16));
#463=DIRECTION('',(1.,0.,-2.44929359829471E-16));
#464=DIRECTION('',(1.,0.,-2.44929359829471E-16));
#465=DIRECTION('',(0.,1.,0.));
#466=DIRECTION('center_axis',(-1.,0.,3.41607084500048E-16));
#467=DIRECTION('ref_axis',(3.41607084500048E-16,0.,1.));
#468=DIRECTION('',(3.41607084500048E-16,0.,1.));
#469=DIRECTION('',(3.41607084500048E-16,0.,1.));
#470=DIRECTION('center_axis',(0.,1.,0.));
#471=DIRECTION('ref_axis',(0.,0.,1.));
#472=DIRECTION('center_axis',(0.,1.,0.));
#473=DIRECTION('ref_axis',(0.,0.,1.));
#474=CARTESIAN_POINT('',(0.,0.,0.));
#475=CARTESIAN_POINT('Origin',(-11.,3.55,-18.));
#476=CARTESIAN_POINT('',(-26.,3.55,-20.));
#477=CARTESIAN_POINT('',(-11.,3.55,-20.));
#478=CARTESIAN_POINT('',(-5.5,3.55,-20.));
#479=CARTESIAN_POINT('',(-26.,3.55,-18.));
#480=CARTESIAN_POINT('',(-26.,3.55,-18.));
#481=CARTESIAN_POINT('',(-11.,3.55,-18.));
#482=CARTESIAN_POINT('',(-20.5,3.55,-18.));
#483=CARTESIAN_POINT('',(-11.,3.55,-18.));
#484=CARTESIAN_POINT('Origin',(-11.,5.,-18.));
#485=CARTESIAN_POINT('',(-11.,6.45,-20.));
#486=CARTESIAN_POINT('Origin',(-11.,5.,-20.));
#487=CARTESIAN_POINT('',(-11.,6.45,-18.));
#488=CARTESIAN_POINT('Origin',(-11.,5.,-18.));
#489=CARTESIAN_POINT('',(-11.,6.45,-18.));
#490=CARTESIAN_POINT('Origin',(-26.,6.45,-18.));
#491=CARTESIAN_POINT('',(-26.,6.45,-20.));
#492=CARTESIAN_POINT('',(-13.,6.45,-20.));
#493=CARTESIAN_POINT('',(-26.,6.45,-18.));
#494=CARTESIAN_POINT('',(-28.,6.45,-18.));
#495=CARTESIAN_POINT('',(-26.,6.45,-18.));
#496=CARTESIAN_POINT('Origin',(-26.,5.,-18.));
#497=CARTESIAN_POINT('Origin',(-26.,5.,-20.));
#498=CARTESIAN_POINT('Origin',(-26.,5.,-18.));
#499=CARTESIAN_POINT('Origin',(-2.,3.55,-3.));
#500=CARTESIAN_POINT('',(-1.66533453693773E-15,3.55,-9.));
#501=CARTESIAN_POINT('',(-5.55111512312578E-16,3.55,-3.));
#502=CARTESIAN_POINT('',(-2.77555756156289E-16,3.55,-1.5));
#503=CARTESIAN_POINT('',(-2.,3.55,-9.));
#504=CARTESIAN_POINT('',(-2.,3.55,-9.));
#505=CARTESIAN_POINT('',(-2.,3.55,-3.));
#506=CARTESIAN_POINT('',(-2.,3.55,-8.));
#507=CARTESIAN_POINT('',(-2.,3.55,-3.));
#508=CARTESIAN_POINT('Origin',(-2.,5.,-3.));
#509=CARTESIAN_POINT('',(-5.55111512312578E-16,6.45,-3.));
#510=CARTESIAN_POINT('Origin',(-1.11022302462516E-15,5.,-3.));
#511=CARTESIAN_POINT('',(-2.,6.45,-3.));
#512=CARTESIAN_POINT('Origin',(-2.,5.,-3.));
#513=CARTESIAN_POINT('',(-2.,6.45,-3.));
#514=CARTESIAN_POINT('Origin',(-2.,6.45,-9.));
#515=CARTESIAN_POINT('',(-1.66533453693773E-15,6.45,-9.));
#516=CARTESIAN_POINT('',(-8.32667268468867E-16,6.45,-4.5));
#517=CARTESIAN_POINT('',(-2.,6.45,-9.));
#518=CARTESIAN_POINT('',(-2.,6.45,-11.));
#519=CARTESIAN_POINT('',(-2.,6.45,-9.));
#520=CARTESIAN_POINT('Origin',(-2.,5.,-9.));
#521=CARTESIAN_POINT('Origin',(-3.33066907387547E-15,5.,-9.));
#522=CARTESIAN_POINT('Origin',(-2.,5.,-9.));
#523=CARTESIAN_POINT('Origin',(-7.,0.,-13.));
#524=CARTESIAN_POINT('',(-7.00000000000001,0.,-18.));
#525=CARTESIAN_POINT('',(-2.,0.,-13.));
#526=CARTESIAN_POINT('Origin',(-7.,0.,-13.));
#527=CARTESIAN_POINT('',(-2.,10.,-13.));
#528=CARTESIAN_POINT('',(-2.,0.,-13.));
#529=CARTESIAN_POINT('',(-7.00000000000001,10.,-18.));
#530=CARTESIAN_POINT('Origin',(-7.,10.,-13.));
#531=CARTESIAN_POINT('',(-7.00000000000001,0.,-18.));
#532=CARTESIAN_POINT('Origin',(-30.,0.,-18.));
#533=CARTESIAN_POINT('',(-30.,0.,-18.));
#534=CARTESIAN_POINT('',(-30.,0.,-18.));
#535=CARTESIAN_POINT('',(-30.,10.,-18.));
#536=CARTESIAN_POINT('',(-30.,10.,-18.));
#537=CARTESIAN_POINT('',(-30.,0.,-18.));
#538=CARTESIAN_POINT('Origin',(-30.,0.,-20.));
#539=CARTESIAN_POINT('',(-30.,0.,-20.));
#540=CARTESIAN_POINT('',(-30.,0.,-20.));
#541=CARTESIAN_POINT('',(-30.,10.,-20.));
#542=CARTESIAN_POINT('',(-30.,10.,-20.));
#543=CARTESIAN_POINT('',(-30.,0.,-20.));
#544=CARTESIAN_POINT('Origin',(-3.67394039744206E-15,0.,-20.));
#545=CARTESIAN_POINT('',(-3.67394039744206E-15,0.,-20.));
#546=CARTESIAN_POINT('',(-4.44089209850063E-15,0.,-20.));
#547=CARTESIAN_POINT('',(-3.60822483003176E-15,10.,-20.));
#548=CARTESIAN_POINT('',(-4.44089209850063E-15,10.,-20.));
#549=CARTESIAN_POINT('',(-3.67394039744206E-15,0.,-20.));
#550=CARTESIAN_POINT('Origin',(0.,0.,0.));
#551=CARTESIAN_POINT('',(0.,0.,0.));
#552=CARTESIAN_POINT('',(0.,0.,0.));
#553=CARTESIAN_POINT('',(0.,10.,0.));
#554=CARTESIAN_POINT('',(0.,10.,0.));
#555=CARTESIAN_POINT('',(0.,0.,0.));
#556=CARTESIAN_POINT('Origin',(-2.,0.,4.89858719658941E-16));
#557=CARTESIAN_POINT('',(-2.,0.,4.89858719658941E-16));
#558=CARTESIAN_POINT('',(-2.,0.,4.89858719658941E-16));
#559=CARTESIAN_POINT('',(-2.,10.,0.));
#560=CARTESIAN_POINT('',(-2.,10.,4.89858719658941E-16));
#561=CARTESIAN_POINT('',(-2.,0.,4.89858719658941E-16));
#562=CARTESIAN_POINT('Origin',(-2.,0.,-13.));
#563=CARTESIAN_POINT('',(-2.,0.,-13.));
#564=CARTESIAN_POINT('',(-2.,10.,-13.));
#565=CARTESIAN_POINT('Origin',(-15.,10.,-10.));
#566=CARTESIAN_POINT('Origin',(-15.,0.,-10.));
#567=UNCERTAINTY_MEASURE_WITH_UNIT(LENGTH_MEASURE(0.01),#571,
'DISTANCE_ACCURACY_VALUE',
'Maximum model space distance between geometric entities at asserted c
onnectivities');
#568=UNCERTAINTY_MEASURE_WITH_UNIT(LENGTH_MEASURE(0.01),#571,
'DISTANCE_ACCURACY_VALUE',
'Maximum model space distance between geometric entities at asserted c
onnectivities');
#569=(
GEOMETRIC_REPRESENTATION_CONTEXT(3)
GLOBAL_UNCERTAINTY_ASSIGNED_CONTEXT((#567))
GLOBAL_UNIT_ASSIGNED_CONTEXT((#571,#573,#574))
REPRESENTATION_CONTEXT('','3D')
);
#570=(
GEOMETRIC_REPRESENTATION_CONTEXT(3)
GLOBAL_UNCERTAINTY_ASSIGNED_CONTEXT((#568))
GLOBAL_UNIT_ASSIGNED_CONTEXT((#571,#573,#574))
REPRESENTATION_CONTEXT('','3D')
);
#571=(
LENGTH_UNIT()
NAMED_UNIT(*)
SI_UNIT(.MILLI.,.METRE.)
);
#572=(
LENGTH_UNIT()
NAMED_UNIT(*)
SI_UNIT(.CENTI.,.METRE.)
);
#573=(
NAMED_UNIT(*)
PLANE_ANGLE_UNIT()
SI_UNIT($,.RADIAN.)
);
#574=(
NAMED_UNIT(*)
SI_UNIT($,.STERADIAN.)
SOLID_ANGLE_UNIT()
);
#575=SHAPE_DEFINITION_REPRESENTATION(#576,#577);
#576=PRODUCT_DEFINITION_SHAPE('',$,#579);
#577=SHAPE_REPRESENTATION('',(#355),#569);
#578=PRODUCT_DEFINITION_CONTEXT('part definition',#583,'design');
#579=PRODUCT_DEFINITION('Equerres','Equerres',#580,#578);
#580=PRODUCT_DEFINITION_FORMATION('',$,#585);
#581=PRODUCT_RELATED_PRODUCT_CATEGORY('Equerres','Equerres',(#585));
#582=APPLICATION_PROTOCOL_DEFINITION('international standard',
'automotive_design',2009,#583);
#583=APPLICATION_CONTEXT(
'Core Data for Automotive Mechanical Design Process');
#584=PRODUCT_CONTEXT('part definition',#583,'mechanical');
#585=PRODUCT('Equerres','Equerres',$,(#584));
#586=PRESENTATION_STYLE_ASSIGNMENT((#587));
#587=SURFACE_STYLE_USAGE(.BOTH.,#590);
#588=SURFACE_STYLE_RENDERING_WITH_PROPERTIES($,#594,(#589));
#589=SURFACE_STYLE_TRANSPARENT(0.);
#590=SURFACE_SIDE_STYLE('',(#591,#588));
#591=SURFACE_STYLE_FILL_AREA(#592);
#592=FILL_AREA_STYLE('',(#593));
#593=FILL_AREA_STYLE_COLOUR('',#594);
#594=COLOUR_RGB('',0.749019607843137,0.749019607843137,0.749019607843137);
ENDSEC;
END-ISO-10303-21;
