ISO-10303-21;
HEADER;
/* Generated by software containing ST-Developer
 * from STEP Tools, Inc. (www.steptools.com) 
 */

FILE_DESCRIPTION(
/* description */ ('Clampe pivot ext\X\E9rieure'),
/* implementation_level */ '2;1');

FILE_NAME(
/* name */ 
'C:\\Users\\louis.petitjean\\Desktop\\GSE-1201-000-000-A Thruster Bala
nce\\Pivot subsystem\\GSE-1201-029-001-A (Clampe pivot ext\X\E9rieure).
stp',
/* time_stamp */ '2019-10-24T11:43:58+02:00',
/* author */ ('louis.petitjean'),
/* organization */ ('EXOTRAIL'),
/* preprocessor_version */ 'ST-DEVELOPER v18',
/* originating_system */ 'Autodesk Inventor 2020',
/* authorisation */ '');

FILE_SCHEMA (('AUTOMOTIVE_DESIGN { 1 0 10303 214 3 1 1 }'));
ENDSEC;

DATA;
#10=MECHANICAL_DESIGN_GEOMETRIC_PRESENTATION_REPRESENTATION('',(#13),#655);
#11=SHAPE_REPRESENTATION_RELATIONSHIP('SRR','None',#662,#12);
#12=ADVANCED_BREP_SHAPE_REPRESENTATION('',(#14),#654);
#13=STYLED_ITEM('',(#671),#14);
#14=MANIFOLD_SOLID_BREP('Solide1',#381);
#15=FACE_BOUND('',#56,.T.);
#16=FACE_BOUND('',#57,.T.);
#17=FACE_BOUND('',#62,.T.);
#18=FACE_BOUND('',#66,.T.);
#19=FACE_BOUND('',#68,.T.);
#20=FACE_BOUND('',#71,.T.);
#21=FACE_BOUND('',#76,.T.);
#22=FACE_BOUND('',#77,.T.);
#23=PLANE('',#412);
#24=PLANE('',#419);
#25=PLANE('',#420);
#26=PLANE('',#429);
#27=PLANE('',#430);
#28=PLANE('',#431);
#29=PLANE('',#432);
#30=PLANE('',#433);
#31=PLANE('',#434);
#32=PLANE('',#435);
#33=PLANE('',#436);
#34=FACE_OUTER_BOUND('',#52,.T.);
#35=FACE_OUTER_BOUND('',#53,.T.);
#36=FACE_OUTER_BOUND('',#54,.T.);
#37=FACE_OUTER_BOUND('',#55,.T.);
#38=FACE_OUTER_BOUND('',#58,.T.);
#39=FACE_OUTER_BOUND('',#59,.T.);
#40=FACE_OUTER_BOUND('',#60,.T.);
#41=FACE_OUTER_BOUND('',#61,.T.);
#42=FACE_OUTER_BOUND('',#63,.T.);
#43=FACE_OUTER_BOUND('',#64,.T.);
#44=FACE_OUTER_BOUND('',#65,.T.);
#45=FACE_OUTER_BOUND('',#67,.T.);
#46=FACE_OUTER_BOUND('',#69,.T.);
#47=FACE_OUTER_BOUND('',#70,.T.);
#48=FACE_OUTER_BOUND('',#72,.T.);
#49=FACE_OUTER_BOUND('',#73,.T.);
#50=FACE_OUTER_BOUND('',#74,.T.);
#51=FACE_OUTER_BOUND('',#75,.T.);
#52=EDGE_LOOP('',(#252,#253,#254,#255,#256));
#53=EDGE_LOOP('',(#257,#258,#259,#260,#261));
#54=EDGE_LOOP('',(#262,#263,#264,#265));
#55=EDGE_LOOP('',(#266,#267,#268,#269,#270,#271,#272,#273,#274,#275,#276,
#277));
#56=EDGE_LOOP('',(#278));
#57=EDGE_LOOP('',(#279));
#58=EDGE_LOOP('',(#280,#281,#282,#283));
#59=EDGE_LOOP('',(#284,#285,#286,#287));
#60=EDGE_LOOP('',(#288,#289,#290,#291));
#61=EDGE_LOOP('',(#292,#293,#294,#295));
#62=EDGE_LOOP('',(#296,#297));
#63=EDGE_LOOP('',(#298,#299,#300,#301,#302));
#64=EDGE_LOOP('',(#303,#304,#305,#306,#307));
#65=EDGE_LOOP('',(#308,#309,#310,#311));
#66=EDGE_LOOP('',(#312));
#67=EDGE_LOOP('',(#313,#314,#315,#316));
#68=EDGE_LOOP('',(#317));
#69=EDGE_LOOP('',(#318,#319,#320,#321));
#70=EDGE_LOOP('',(#322,#323,#324,#325));
#71=EDGE_LOOP('',(#326,#327));
#72=EDGE_LOOP('',(#328,#329,#330,#331));
#73=EDGE_LOOP('',(#332,#333,#334,#335));
#74=EDGE_LOOP('',(#336,#337,#338,#339));
#75=EDGE_LOOP('',(#340,#341,#342,#343,#344,#345,#346,#347,#348,#349,#350,
#351));
#76=EDGE_LOOP('',(#352,#353));
#77=EDGE_LOOP('',(#354,#355));
#78=LINE('',#552,#112);
#79=LINE('',#560,#113);
#80=LINE('',#565,#114);
#81=LINE('',#569,#115);
#82=LINE('',#573,#116);
#83=LINE('',#577,#117);
#84=LINE('',#579,#118);
#85=LINE('',#581,#119);
#86=LINE('',#583,#120);
#87=LINE('',#585,#121);
#88=LINE('',#587,#122);
#89=LINE('',#589,#123);
#90=LINE('',#592,#124);
#91=LINE('',#595,#125);
#92=LINE('',#598,#126);
#93=LINE('',#601,#127);
#94=LINE('',#604,#128);
#95=LINE('',#606,#129);
#96=LINE('',#609,#130);
#97=LINE('',#610,#131);
#98=LINE('',#617,#132);
#99=LINE('',#625,#133);
#100=LINE('',#629,#134);
#101=LINE('',#631,#135);
#102=LINE('',#632,#136);
#103=LINE('',#635,#137);
#104=LINE('',#636,#138);
#105=LINE('',#639,#139);
#106=LINE('',#640,#140);
#107=LINE('',#643,#141);
#108=LINE('',#644,#142);
#109=LINE('',#646,#143);
#110=LINE('',#648,#144);
#111=LINE('',#650,#145);
#112=VECTOR('',#445,2.4585);
#113=VECTOR('',#454,2.4585);
#114=VECTOR('',#459,10.);
#115=VECTOR('',#462,10.);
#116=VECTOR('',#467,10.);
#117=VECTOR('',#470,10.);
#118=VECTOR('',#471,10.);
#119=VECTOR('',#472,10.);
#120=VECTOR('',#473,10.);
#121=VECTOR('',#474,10.);
#122=VECTOR('',#475,10.);
#123=VECTOR('',#476,10.);
#124=VECTOR('',#479,10.);
#125=VECTOR('',#482,10.);
#126=VECTOR('',#485,10.);
#127=VECTOR('',#488,10.);
#128=VECTOR('',#491,10.);
#129=VECTOR('',#494,10.);
#130=VECTOR('',#497,10.);
#131=VECTOR('',#498,10.);
#132=VECTOR('',#505,2.15);
#133=VECTOR('',#514,1.621);
#134=VECTOR('',#519,10.);
#135=VECTOR('',#520,10.);
#136=VECTOR('',#521,10.);
#137=VECTOR('',#524,10.);
#138=VECTOR('',#525,10.);
#139=VECTOR('',#528,10.);
#140=VECTOR('',#529,10.);
#141=VECTOR('',#532,10.);
#142=VECTOR('',#533,10.);
#143=VECTOR('',#536,10.);
#144=VECTOR('',#539,10.);
#145=VECTOR('',#542,10.);
#146=CIRCLE('',#402,2.4585);
#147=CIRCLE('',#403,2.4585);
#148=CIRCLE('',#404,2.4585);
#149=CIRCLE('',#406,2.4585);
#150=CIRCLE('',#407,2.4585);
#151=CIRCLE('',#408,2.4585);
#152=CIRCLE('',#410,1.25);
#153=CIRCLE('',#411,1.25);
#154=CIRCLE('',#413,4.75);
#155=CIRCLE('',#414,4.75);
#156=CIRCLE('',#416,4.75);
#157=CIRCLE('',#418,4.75);
#158=CIRCLE('',#421,2.15);
#159=CIRCLE('',#422,2.15);
#160=CIRCLE('',#424,2.15);
#161=CIRCLE('',#426,1.621);
#162=CIRCLE('',#427,1.621);
#163=CIRCLE('',#428,1.621);
#164=VERTEX_POINT('',#547);
#165=VERTEX_POINT('',#548);
#166=VERTEX_POINT('',#551);
#167=VERTEX_POINT('',#555);
#168=VERTEX_POINT('',#556);
#169=VERTEX_POINT('',#559);
#170=VERTEX_POINT('',#563);
#171=VERTEX_POINT('',#564);
#172=VERTEX_POINT('',#566);
#173=VERTEX_POINT('',#568);
#174=VERTEX_POINT('',#572);
#175=VERTEX_POINT('',#574);
#176=VERTEX_POINT('',#576);
#177=VERTEX_POINT('',#578);
#178=VERTEX_POINT('',#580);
#179=VERTEX_POINT('',#582);
#180=VERTEX_POINT('',#584);
#181=VERTEX_POINT('',#586);
#182=VERTEX_POINT('',#588);
#183=VERTEX_POINT('',#590);
#184=VERTEX_POINT('',#594);
#185=VERTEX_POINT('',#596);
#186=VERTEX_POINT('',#600);
#187=VERTEX_POINT('',#602);
#188=VERTEX_POINT('',#608);
#189=VERTEX_POINT('',#611);
#190=VERTEX_POINT('',#612);
#191=VERTEX_POINT('',#616);
#192=VERTEX_POINT('',#620);
#193=VERTEX_POINT('',#621);
#194=VERTEX_POINT('',#624);
#195=VERTEX_POINT('',#628);
#196=VERTEX_POINT('',#630);
#197=VERTEX_POINT('',#634);
#198=VERTEX_POINT('',#638);
#199=VERTEX_POINT('',#642);
#200=EDGE_CURVE('',#164,#165,#146,.T.);
#201=EDGE_CURVE('',#165,#164,#147,.T.);
#202=EDGE_CURVE('',#165,#166,#78,.T.);
#203=EDGE_CURVE('',#166,#166,#148,.T.);
#204=EDGE_CURVE('',#167,#168,#149,.T.);
#205=EDGE_CURVE('',#168,#167,#150,.T.);
#206=EDGE_CURVE('',#168,#169,#79,.T.);
#207=EDGE_CURVE('',#169,#169,#151,.T.);
#208=EDGE_CURVE('',#170,#171,#80,.T.);
#209=EDGE_CURVE('',#172,#171,#152,.T.);
#210=EDGE_CURVE('',#173,#172,#81,.T.);
#211=EDGE_CURVE('',#170,#173,#153,.T.);
#212=EDGE_CURVE('',#174,#173,#82,.T.);
#213=EDGE_CURVE('',#174,#175,#154,.T.);
#214=EDGE_CURVE('',#176,#175,#83,.T.);
#215=EDGE_CURVE('',#177,#176,#84,.T.);
#216=EDGE_CURVE('',#178,#177,#85,.T.);
#217=EDGE_CURVE('',#179,#178,#86,.T.);
#218=EDGE_CURVE('',#180,#179,#87,.T.);
#219=EDGE_CURVE('',#181,#180,#88,.T.);
#220=EDGE_CURVE('',#182,#181,#89,.T.);
#221=EDGE_CURVE('',#182,#183,#155,.T.);
#222=EDGE_CURVE('',#170,#183,#90,.T.);
#223=EDGE_CURVE('',#184,#182,#91,.T.);
#224=EDGE_CURVE('',#185,#184,#156,.T.);
#225=EDGE_CURVE('',#183,#185,#92,.T.);
#226=EDGE_CURVE('',#186,#174,#93,.T.);
#227=EDGE_CURVE('',#187,#186,#157,.T.);
#228=EDGE_CURVE('',#175,#187,#94,.T.);
#229=EDGE_CURVE('',#186,#172,#95,.T.);
#230=EDGE_CURVE('',#181,#188,#96,.T.);
#231=EDGE_CURVE('',#184,#188,#97,.T.);
#232=EDGE_CURVE('',#189,#190,#158,.T.);
#233=EDGE_CURVE('',#190,#189,#159,.T.);
#234=EDGE_CURVE('',#190,#191,#98,.T.);
#235=EDGE_CURVE('',#191,#191,#160,.T.);
#236=EDGE_CURVE('',#192,#193,#161,.T.);
#237=EDGE_CURVE('',#193,#192,#162,.T.);
#238=EDGE_CURVE('',#193,#194,#99,.T.);
#239=EDGE_CURVE('',#194,#194,#163,.T.);
#240=EDGE_CURVE('',#179,#195,#100,.T.);
#241=EDGE_CURVE('',#196,#195,#101,.T.);
#242=EDGE_CURVE('',#180,#196,#102,.T.);
#243=EDGE_CURVE('',#197,#187,#103,.T.);
#244=EDGE_CURVE('',#176,#197,#104,.T.);
#245=EDGE_CURVE('',#198,#197,#105,.T.);
#246=EDGE_CURVE('',#177,#198,#106,.T.);
#247=EDGE_CURVE('',#199,#198,#107,.T.);
#248=EDGE_CURVE('',#178,#199,#108,.T.);
#249=EDGE_CURVE('',#195,#199,#109,.T.);
#250=EDGE_CURVE('',#188,#196,#110,.T.);
#251=EDGE_CURVE('',#171,#185,#111,.T.);
#252=ORIENTED_EDGE('',*,*,#200,.F.);
#253=ORIENTED_EDGE('',*,*,#201,.F.);
#254=ORIENTED_EDGE('',*,*,#202,.T.);
#255=ORIENTED_EDGE('',*,*,#203,.F.);
#256=ORIENTED_EDGE('',*,*,#202,.F.);
#257=ORIENTED_EDGE('',*,*,#204,.F.);
#258=ORIENTED_EDGE('',*,*,#205,.F.);
#259=ORIENTED_EDGE('',*,*,#206,.T.);
#260=ORIENTED_EDGE('',*,*,#207,.F.);
#261=ORIENTED_EDGE('',*,*,#206,.F.);
#262=ORIENTED_EDGE('',*,*,#208,.T.);
#263=ORIENTED_EDGE('',*,*,#209,.F.);
#264=ORIENTED_EDGE('',*,*,#210,.F.);
#265=ORIENTED_EDGE('',*,*,#211,.F.);
#266=ORIENTED_EDGE('',*,*,#211,.T.);
#267=ORIENTED_EDGE('',*,*,#212,.F.);
#268=ORIENTED_EDGE('',*,*,#213,.T.);
#269=ORIENTED_EDGE('',*,*,#214,.F.);
#270=ORIENTED_EDGE('',*,*,#215,.F.);
#271=ORIENTED_EDGE('',*,*,#216,.F.);
#272=ORIENTED_EDGE('',*,*,#217,.F.);
#273=ORIENTED_EDGE('',*,*,#218,.F.);
#274=ORIENTED_EDGE('',*,*,#219,.F.);
#275=ORIENTED_EDGE('',*,*,#220,.F.);
#276=ORIENTED_EDGE('',*,*,#221,.T.);
#277=ORIENTED_EDGE('',*,*,#222,.F.);
#278=ORIENTED_EDGE('',*,*,#203,.T.);
#279=ORIENTED_EDGE('',*,*,#207,.T.);
#280=ORIENTED_EDGE('',*,*,#223,.F.);
#281=ORIENTED_EDGE('',*,*,#224,.F.);
#282=ORIENTED_EDGE('',*,*,#225,.F.);
#283=ORIENTED_EDGE('',*,*,#221,.F.);
#284=ORIENTED_EDGE('',*,*,#226,.F.);
#285=ORIENTED_EDGE('',*,*,#227,.F.);
#286=ORIENTED_EDGE('',*,*,#228,.F.);
#287=ORIENTED_EDGE('',*,*,#213,.F.);
#288=ORIENTED_EDGE('',*,*,#226,.T.);
#289=ORIENTED_EDGE('',*,*,#212,.T.);
#290=ORIENTED_EDGE('',*,*,#210,.T.);
#291=ORIENTED_EDGE('',*,*,#229,.F.);
#292=ORIENTED_EDGE('',*,*,#223,.T.);
#293=ORIENTED_EDGE('',*,*,#220,.T.);
#294=ORIENTED_EDGE('',*,*,#230,.T.);
#295=ORIENTED_EDGE('',*,*,#231,.F.);
#296=ORIENTED_EDGE('',*,*,#232,.T.);
#297=ORIENTED_EDGE('',*,*,#233,.T.);
#298=ORIENTED_EDGE('',*,*,#232,.F.);
#299=ORIENTED_EDGE('',*,*,#233,.F.);
#300=ORIENTED_EDGE('',*,*,#234,.T.);
#301=ORIENTED_EDGE('',*,*,#235,.F.);
#302=ORIENTED_EDGE('',*,*,#234,.F.);
#303=ORIENTED_EDGE('',*,*,#236,.F.);
#304=ORIENTED_EDGE('',*,*,#237,.F.);
#305=ORIENTED_EDGE('',*,*,#238,.T.);
#306=ORIENTED_EDGE('',*,*,#239,.F.);
#307=ORIENTED_EDGE('',*,*,#238,.F.);
#308=ORIENTED_EDGE('',*,*,#218,.T.);
#309=ORIENTED_EDGE('',*,*,#240,.T.);
#310=ORIENTED_EDGE('',*,*,#241,.F.);
#311=ORIENTED_EDGE('',*,*,#242,.F.);
#312=ORIENTED_EDGE('',*,*,#235,.T.);
#313=ORIENTED_EDGE('',*,*,#228,.T.);
#314=ORIENTED_EDGE('',*,*,#243,.F.);
#315=ORIENTED_EDGE('',*,*,#244,.F.);
#316=ORIENTED_EDGE('',*,*,#214,.T.);
#317=ORIENTED_EDGE('',*,*,#239,.T.);
#318=ORIENTED_EDGE('',*,*,#215,.T.);
#319=ORIENTED_EDGE('',*,*,#244,.T.);
#320=ORIENTED_EDGE('',*,*,#245,.F.);
#321=ORIENTED_EDGE('',*,*,#246,.F.);
#322=ORIENTED_EDGE('',*,*,#216,.T.);
#323=ORIENTED_EDGE('',*,*,#246,.T.);
#324=ORIENTED_EDGE('',*,*,#247,.F.);
#325=ORIENTED_EDGE('',*,*,#248,.F.);
#326=ORIENTED_EDGE('',*,*,#236,.T.);
#327=ORIENTED_EDGE('',*,*,#237,.T.);
#328=ORIENTED_EDGE('',*,*,#217,.T.);
#329=ORIENTED_EDGE('',*,*,#248,.T.);
#330=ORIENTED_EDGE('',*,*,#249,.F.);
#331=ORIENTED_EDGE('',*,*,#240,.F.);
#332=ORIENTED_EDGE('',*,*,#219,.T.);
#333=ORIENTED_EDGE('',*,*,#242,.T.);
#334=ORIENTED_EDGE('',*,*,#250,.F.);
#335=ORIENTED_EDGE('',*,*,#230,.F.);
#336=ORIENTED_EDGE('',*,*,#225,.T.);
#337=ORIENTED_EDGE('',*,*,#251,.F.);
#338=ORIENTED_EDGE('',*,*,#208,.F.);
#339=ORIENTED_EDGE('',*,*,#222,.T.);
#340=ORIENTED_EDGE('',*,*,#209,.T.);
#341=ORIENTED_EDGE('',*,*,#251,.T.);
#342=ORIENTED_EDGE('',*,*,#224,.T.);
#343=ORIENTED_EDGE('',*,*,#231,.T.);
#344=ORIENTED_EDGE('',*,*,#250,.T.);
#345=ORIENTED_EDGE('',*,*,#241,.T.);
#346=ORIENTED_EDGE('',*,*,#249,.T.);
#347=ORIENTED_EDGE('',*,*,#247,.T.);
#348=ORIENTED_EDGE('',*,*,#245,.T.);
#349=ORIENTED_EDGE('',*,*,#243,.T.);
#350=ORIENTED_EDGE('',*,*,#227,.T.);
#351=ORIENTED_EDGE('',*,*,#229,.T.);
#352=ORIENTED_EDGE('',*,*,#200,.T.);
#353=ORIENTED_EDGE('',*,*,#201,.T.);
#354=ORIENTED_EDGE('',*,*,#204,.T.);
#355=ORIENTED_EDGE('',*,*,#205,.T.);
#356=CYLINDRICAL_SURFACE('',#401,2.4585);
#357=CYLINDRICAL_SURFACE('',#405,2.4585);
#358=CYLINDRICAL_SURFACE('',#409,1.25);
#359=CYLINDRICAL_SURFACE('',#415,4.75);
#360=CYLINDRICAL_SURFACE('',#417,4.75);
#361=CYLINDRICAL_SURFACE('',#423,2.15);
#362=CYLINDRICAL_SURFACE('',#425,1.621);
#363=ADVANCED_FACE('',(#34),#356,.F.);
#364=ADVANCED_FACE('',(#35),#357,.F.);
#365=ADVANCED_FACE('',(#36),#358,.F.);
#366=ADVANCED_FACE('',(#37,#15,#16),#23,.F.);
#367=ADVANCED_FACE('',(#38),#359,.F.);
#368=ADVANCED_FACE('',(#39),#360,.F.);
#369=ADVANCED_FACE('',(#40),#24,.T.);
#370=ADVANCED_FACE('',(#41,#17),#25,.T.);
#371=ADVANCED_FACE('',(#42),#361,.F.);
#372=ADVANCED_FACE('',(#43),#362,.F.);
#373=ADVANCED_FACE('',(#44,#18),#26,.T.);
#374=ADVANCED_FACE('',(#45,#19),#27,.T.);
#375=ADVANCED_FACE('',(#46),#28,.T.);
#376=ADVANCED_FACE('',(#47,#20),#29,.T.);
#377=ADVANCED_FACE('',(#48),#30,.T.);
#378=ADVANCED_FACE('',(#49),#31,.T.);
#379=ADVANCED_FACE('',(#50),#32,.T.);
#380=ADVANCED_FACE('',(#51,#21,#22),#33,.T.);
#381=CLOSED_SHELL('',(#363,#364,#365,#366,#367,#368,#369,#370,#371,#372,
#373,#374,#375,#376,#377,#378,#379,#380));
#382=DERIVED_UNIT_ELEMENT(#384,1.);
#383=DERIVED_UNIT_ELEMENT(#657,3.);
#384=(
MASS_UNIT()
NAMED_UNIT(*)
SI_UNIT($,.GRAM.)
);
#385=DERIVED_UNIT((#382,#383));
#386=MEASURE_REPRESENTATION_ITEM('density measure',
POSITIVE_RATIO_MEASURE(2.7),#385);
#387=PROPERTY_DEFINITION_REPRESENTATION(#392,#389);
#388=PROPERTY_DEFINITION_REPRESENTATION(#393,#390);
#389=REPRESENTATION('material name',(#391),#654);
#390=REPRESENTATION('density',(#386),#654);
#391=DESCRIPTIVE_REPRESENTATION_ITEM('Aluminium 6061','Aluminium 6061');
#392=PROPERTY_DEFINITION('material property','material name',#664);
#393=PROPERTY_DEFINITION('material property','density of part',#664);
#394=DATE_TIME_ROLE('creation_date');
#395=APPLIED_DATE_AND_TIME_ASSIGNMENT(#396,#394,(#664));
#396=DATE_AND_TIME(#397,#398);
#397=CALENDAR_DATE(2019,13,10);
#398=LOCAL_TIME(22,0,0.,#399);
#399=COORDINATED_UNIVERSAL_TIME_OFFSET(0,0,.BEHIND.);
#400=AXIS2_PLACEMENT_3D('placement',#545,#437,#438);
#401=AXIS2_PLACEMENT_3D('',#546,#439,#440);
#402=AXIS2_PLACEMENT_3D('',#549,#441,#442);
#403=AXIS2_PLACEMENT_3D('',#550,#443,#444);
#404=AXIS2_PLACEMENT_3D('',#553,#446,#447);
#405=AXIS2_PLACEMENT_3D('',#554,#448,#449);
#406=AXIS2_PLACEMENT_3D('',#557,#450,#451);
#407=AXIS2_PLACEMENT_3D('',#558,#452,#453);
#408=AXIS2_PLACEMENT_3D('',#561,#455,#456);
#409=AXIS2_PLACEMENT_3D('',#562,#457,#458);
#410=AXIS2_PLACEMENT_3D('',#567,#460,#461);
#411=AXIS2_PLACEMENT_3D('',#570,#463,#464);
#412=AXIS2_PLACEMENT_3D('',#571,#465,#466);
#413=AXIS2_PLACEMENT_3D('',#575,#468,#469);
#414=AXIS2_PLACEMENT_3D('',#591,#477,#478);
#415=AXIS2_PLACEMENT_3D('',#593,#480,#481);
#416=AXIS2_PLACEMENT_3D('',#597,#483,#484);
#417=AXIS2_PLACEMENT_3D('',#599,#486,#487);
#418=AXIS2_PLACEMENT_3D('',#603,#489,#490);
#419=AXIS2_PLACEMENT_3D('',#605,#492,#493);
#420=AXIS2_PLACEMENT_3D('',#607,#495,#496);
#421=AXIS2_PLACEMENT_3D('',#613,#499,#500);
#422=AXIS2_PLACEMENT_3D('',#614,#501,#502);
#423=AXIS2_PLACEMENT_3D('',#615,#503,#504);
#424=AXIS2_PLACEMENT_3D('',#618,#506,#507);
#425=AXIS2_PLACEMENT_3D('',#619,#508,#509);
#426=AXIS2_PLACEMENT_3D('',#622,#510,#511);
#427=AXIS2_PLACEMENT_3D('',#623,#512,#513);
#428=AXIS2_PLACEMENT_3D('',#626,#515,#516);
#429=AXIS2_PLACEMENT_3D('',#627,#517,#518);
#430=AXIS2_PLACEMENT_3D('',#633,#522,#523);
#431=AXIS2_PLACEMENT_3D('',#637,#526,#527);
#432=AXIS2_PLACEMENT_3D('',#641,#530,#531);
#433=AXIS2_PLACEMENT_3D('',#645,#534,#535);
#434=AXIS2_PLACEMENT_3D('',#647,#537,#538);
#435=AXIS2_PLACEMENT_3D('',#649,#540,#541);
#436=AXIS2_PLACEMENT_3D('',#651,#543,#544);
#437=DIRECTION('axis',(0.,0.,1.));
#438=DIRECTION('refdir',(1.,0.,0.));
#439=DIRECTION('center_axis',(0.,0.,1.));
#440=DIRECTION('ref_axis',(1.,0.,0.));
#441=DIRECTION('center_axis',(0.,0.,-1.));
#442=DIRECTION('ref_axis',(1.,0.,0.));
#443=DIRECTION('center_axis',(0.,0.,-1.));
#444=DIRECTION('ref_axis',(1.,0.,0.));
#445=DIRECTION('',(0.,0.,-1.));
#446=DIRECTION('center_axis',(0.,0.,1.));
#447=DIRECTION('ref_axis',(1.,0.,0.));
#448=DIRECTION('center_axis',(0.,0.,1.));
#449=DIRECTION('ref_axis',(1.,0.,0.));
#450=DIRECTION('center_axis',(0.,0.,-1.));
#451=DIRECTION('ref_axis',(1.,0.,0.));
#452=DIRECTION('center_axis',(0.,0.,-1.));
#453=DIRECTION('ref_axis',(1.,0.,0.));
#454=DIRECTION('',(0.,0.,-1.));
#455=DIRECTION('center_axis',(0.,0.,1.));
#456=DIRECTION('ref_axis',(1.,0.,0.));
#457=DIRECTION('center_axis',(0.,0.,1.));
#458=DIRECTION('ref_axis',(1.,0.,0.));
#459=DIRECTION('',(0.,0.,1.));
#460=DIRECTION('center_axis',(0.,0.,-1.));
#461=DIRECTION('ref_axis',(1.,0.,0.));
#462=DIRECTION('',(0.,0.,1.));
#463=DIRECTION('center_axis',(0.,0.,1.));
#464=DIRECTION('ref_axis',(1.,0.,0.));
#465=DIRECTION('center_axis',(0.,0.,1.));
#466=DIRECTION('ref_axis',(1.,0.,0.));
#467=DIRECTION('',(4.9960036108132E-15,-1.,0.));
#468=DIRECTION('center_axis',(0.,0.,1.));
#469=DIRECTION('ref_axis',(1.,0.,0.));
#470=DIRECTION('',(3.33066907387547E-16,-1.,0.));
#471=DIRECTION('',(-1.,0.,0.));
#472=DIRECTION('',(-4.03717463500057E-17,1.,0.));
#473=DIRECTION('',(1.,0.,0.));
#474=DIRECTION('',(0.,-1.,0.));
#475=DIRECTION('',(-1.,0.,0.));
#476=DIRECTION('',(3.70074341541719E-16,1.,0.));
#477=DIRECTION('center_axis',(0.,0.,1.));
#478=DIRECTION('ref_axis',(1.,0.,0.));
#479=DIRECTION('',(1.22256702116461E-16,1.,0.));
#480=DIRECTION('center_axis',(0.,0.,1.));
#481=DIRECTION('ref_axis',(-0.998459826063403,-0.0554795073647825,0.));
#482=DIRECTION('',(0.,0.,-1.));
#483=DIRECTION('center_axis',(0.,0.,-1.));
#484=DIRECTION('ref_axis',(1.,0.,0.));
#485=DIRECTION('',(0.,0.,1.));
#486=DIRECTION('center_axis',(0.,0.,1.));
#487=DIRECTION('ref_axis',(1.,0.,0.));
#488=DIRECTION('',(0.,0.,-1.));
#489=DIRECTION('center_axis',(0.,0.,-1.));
#490=DIRECTION('ref_axis',(1.,0.,0.));
#491=DIRECTION('',(0.,0.,1.));
#492=DIRECTION('center_axis',(-1.,-4.9960036108132E-15,0.));
#493=DIRECTION('ref_axis',(4.9960036108132E-15,-1.,0.));
#494=DIRECTION('',(4.9960036108132E-15,-1.,0.));
#495=DIRECTION('center_axis',(1.,-3.70074341541719E-16,0.));
#496=DIRECTION('ref_axis',(3.70074341541719E-16,1.,0.));
#497=DIRECTION('',(0.,0.,1.));
#498=DIRECTION('',(3.70074341541719E-16,1.,0.));
#499=DIRECTION('center_axis',(-1.,3.70074341541719E-16,0.));
#500=DIRECTION('ref_axis',(0.,0.,-1.));
#501=DIRECTION('center_axis',(-1.,3.70074341541719E-16,0.));
#502=DIRECTION('ref_axis',(0.,0.,-1.));
#503=DIRECTION('center_axis',(1.,-3.70074341541719E-16,0.));
#504=DIRECTION('ref_axis',(0.,0.,-1.));
#505=DIRECTION('',(-1.,3.70074341541719E-16,0.));
#506=DIRECTION('center_axis',(1.,0.,0.));
#507=DIRECTION('ref_axis',(0.,0.,-1.));
#508=DIRECTION('center_axis',(1.,4.03717463500057E-17,0.));
#509=DIRECTION('ref_axis',(0.,0.,-1.));
#510=DIRECTION('center_axis',(-1.,-4.03717463500057E-17,0.));
#511=DIRECTION('ref_axis',(0.,0.,-1.));
#512=DIRECTION('center_axis',(-1.,-4.03717463500057E-17,0.));
#513=DIRECTION('ref_axis',(0.,0.,-1.));
#514=DIRECTION('',(-1.,-4.03717463500057E-17,0.));
#515=DIRECTION('center_axis',(1.,3.33066907387547E-16,0.));
#516=DIRECTION('ref_axis',(0.,0.,-1.));
#517=DIRECTION('center_axis',(-1.,0.,0.));
#518=DIRECTION('ref_axis',(0.,-1.,0.));
#519=DIRECTION('',(0.,0.,1.));
#520=DIRECTION('',(0.,-1.,0.));
#521=DIRECTION('',(0.,0.,1.));
#522=DIRECTION('center_axis',(-1.,-3.33066907387547E-16,0.));
#523=DIRECTION('ref_axis',(3.33066907387547E-16,-1.,0.));
#524=DIRECTION('',(3.33066907387547E-16,-1.,0.));
#525=DIRECTION('',(0.,0.,1.));
#526=DIRECTION('center_axis',(0.,1.,0.));
#527=DIRECTION('ref_axis',(-1.,0.,0.));
#528=DIRECTION('',(-1.,0.,0.));
#529=DIRECTION('',(0.,0.,1.));
#530=DIRECTION('center_axis',(1.,4.03717463500057E-17,0.));
#531=DIRECTION('ref_axis',(-4.03717463500057E-17,1.,0.));
#532=DIRECTION('',(-4.03717463500057E-17,1.,0.));
#533=DIRECTION('',(0.,0.,1.));
#534=DIRECTION('center_axis',(0.,-1.,0.));
#535=DIRECTION('ref_axis',(1.,0.,0.));
#536=DIRECTION('',(1.,0.,0.));
#537=DIRECTION('center_axis',(0.,1.,0.));
#538=DIRECTION('ref_axis',(-1.,0.,0.));
#539=DIRECTION('',(-1.,0.,0.));
#540=DIRECTION('center_axis',(1.,-1.22256702116461E-16,0.));
#541=DIRECTION('ref_axis',(1.22256702116461E-16,1.,0.));
#542=DIRECTION('',(1.22256702116461E-16,1.,0.));
#543=DIRECTION('center_axis',(0.,0.,1.));
#544=DIRECTION('ref_axis',(1.,0.,0.));
#545=CARTESIAN_POINT('',(0.,0.,0.));
#546=CARTESIAN_POINT('Origin',(2.22044604925031E-15,-12.,-109.589021781641));
#547=CARTESIAN_POINT('',(2.4585,-12.,7.));
#548=CARTESIAN_POINT('',(-2.4585,-12.,6.99999999999999));
#549=CARTESIAN_POINT('Origin',(2.22044604925031E-15,-12.,6.99999999999999));
#550=CARTESIAN_POINT('Origin',(2.22044604925031E-15,-12.,6.99999999999999));
#551=CARTESIAN_POINT('',(-2.4585,-12.,0.));
#552=CARTESIAN_POINT('',(-2.4585,-12.,-109.589021781641));
#553=CARTESIAN_POINT('Origin',(2.22044604925031E-15,-12.,0.));
#554=CARTESIAN_POINT('Origin',(2.22044604925031E-15,-37.,-109.589021781641));
#555=CARTESIAN_POINT('',(2.4585,-37.,7.));
#556=CARTESIAN_POINT('',(-2.4585,-37.,6.99999999999999));
#557=CARTESIAN_POINT('Origin',(2.22044604925031E-15,-37.,6.99999999999999));
#558=CARTESIAN_POINT('Origin',(2.22044604925031E-15,-37.,6.99999999999999));
#559=CARTESIAN_POINT('',(-2.4585,-37.,0.));
#560=CARTESIAN_POINT('',(-2.4585,-37.,-109.589021781641));
#561=CARTESIAN_POINT('Origin',(2.22044604925031E-15,-37.,0.));
#562=CARTESIAN_POINT('Origin',(8.32667268468867E-16,-3.,-109.589021781641));
#563=CARTESIAN_POINT('',(-1.25,-3.,0.));
#564=CARTESIAN_POINT('',(-1.25,-3.,7.));
#565=CARTESIAN_POINT('',(-1.25,-3.,0.));
#566=CARTESIAN_POINT('',(1.25,-3.,7.));
#567=CARTESIAN_POINT('Origin',(8.32667268468867E-16,-3.,6.99999999999999));
#568=CARTESIAN_POINT('',(1.25,-3.,0.));
#569=CARTESIAN_POINT('',(1.25,-3.,0.));
#570=CARTESIAN_POINT('Origin',(8.32667268468867E-16,-3.,0.));
#571=CARTESIAN_POINT('Origin',(2.22044604925031E-15,0.,0.));
#572=CARTESIAN_POINT('',(1.25000000000002,36.4174243050442,0.));
#573=CARTESIAN_POINT('',(1.25,41.,0.));
#574=CARTESIAN_POINT('',(1.74999999999999,45.4158804331639,0.));
#575=CARTESIAN_POINT('Origin',(-1.0547118733939E-14,41.,0.));
#576=CARTESIAN_POINT('',(1.74999999999999,55.,0.));
#577=CARTESIAN_POINT('',(1.74999999999999,55.,0.));
#578=CARTESIAN_POINT('',(19.,55.,0.));
#579=CARTESIAN_POINT('',(19.,55.,0.));
#580=CARTESIAN_POINT('',(19.,-55.,0.));
#581=CARTESIAN_POINT('',(19.,-55.,0.));
#582=CARTESIAN_POINT('',(-19.,-55.,0.));
#583=CARTESIAN_POINT('',(-19.,-55.,0.));
#584=CARTESIAN_POINT('',(-19.,55.,0.));
#585=CARTESIAN_POINT('',(-19.,55.,0.));
#586=CARTESIAN_POINT('',(-1.74999999999999,55.,0.));
#587=CARTESIAN_POINT('',(-1.74999999999998,55.,0.));
#588=CARTESIAN_POINT('',(-1.74999999999999,45.4158804331639,0.));
#589=CARTESIAN_POINT('',(-1.74999999999999,42.,0.));
#590=CARTESIAN_POINT('',(-1.25,36.4174243050442,0.));
#591=CARTESIAN_POINT('Origin',(-1.0547118733939E-14,41.,0.));
#592=CARTESIAN_POINT('',(-1.25,-3.,0.));
#593=CARTESIAN_POINT('Origin',(-1.0547118733939E-14,41.,-109.589021781641));
#594=CARTESIAN_POINT('',(-1.74999999999999,45.4158804331639,7.));
#595=CARTESIAN_POINT('',(-1.74999999999999,45.4158804331639,-109.589021781641));
#596=CARTESIAN_POINT('',(-1.25,36.4174243050442,7.));
#597=CARTESIAN_POINT('Origin',(-1.0547118733939E-14,41.,6.99999999999999));
#598=CARTESIAN_POINT('',(-1.25,36.4174243050442,-109.589021781641));
#599=CARTESIAN_POINT('Origin',(-1.0547118733939E-14,41.,-109.589021781641));
#600=CARTESIAN_POINT('',(1.25000000000002,36.4174243050442,7.));
#601=CARTESIAN_POINT('',(1.25000000000002,36.4174243050442,-109.589021781641));
#602=CARTESIAN_POINT('',(1.74999999999999,45.4158804331639,7.));
#603=CARTESIAN_POINT('Origin',(-1.0547118733939E-14,41.,6.99999999999999));
#604=CARTESIAN_POINT('',(1.74999999999999,45.4158804331639,-109.589021781641));
#605=CARTESIAN_POINT('Origin',(1.25,41.,0.));
#606=CARTESIAN_POINT('',(1.25,41.,7.));
#607=CARTESIAN_POINT('Origin',(-1.74999999999999,42.,0.));
#608=CARTESIAN_POINT('',(-1.74999999999999,55.,7.));
#609=CARTESIAN_POINT('',(-1.74999999999999,55.,0.));
#610=CARTESIAN_POINT('',(-1.74999999999999,42.,7.));
#611=CARTESIAN_POINT('',(-1.74999999999999,51.,1.35));
#612=CARTESIAN_POINT('',(-1.74999999999999,51.,5.65));
#613=CARTESIAN_POINT('Origin',(-1.74999999999999,51.,3.5));
#614=CARTESIAN_POINT('Origin',(-1.74999999999999,51.,3.5));
#615=CARTESIAN_POINT('Origin',(-118.339021781641,51.0000000000001,3.5));
#616=CARTESIAN_POINT('',(-19.,51.,5.65));
#617=CARTESIAN_POINT('',(-118.339021781641,51.0000000000001,5.65));
#618=CARTESIAN_POINT('Origin',(-19.,51.,3.5));
#619=CARTESIAN_POINT('Origin',(-97.5890217816412,51.,3.5));
#620=CARTESIAN_POINT('',(19.,51.,1.879));
#621=CARTESIAN_POINT('',(19.,51.,5.121));
#622=CARTESIAN_POINT('Origin',(19.,51.,3.5));
#623=CARTESIAN_POINT('Origin',(19.,51.,3.5));
#624=CARTESIAN_POINT('',(1.74999999999999,51.,5.121));
#625=CARTESIAN_POINT('',(-97.5890217816412,51.,5.121));
#626=CARTESIAN_POINT('Origin',(1.74999999999999,51.,3.5));
#627=CARTESIAN_POINT('Origin',(-19.,55.,0.));
#628=CARTESIAN_POINT('',(-19.,-55.,7.));
#629=CARTESIAN_POINT('',(-19.,-55.,0.));
#630=CARTESIAN_POINT('',(-19.,55.,7.));
#631=CARTESIAN_POINT('',(-19.,55.,7.));
#632=CARTESIAN_POINT('',(-19.,55.,0.));
#633=CARTESIAN_POINT('Origin',(1.74999999999999,55.,0.));
#634=CARTESIAN_POINT('',(1.74999999999999,55.,7.));
#635=CARTESIAN_POINT('',(1.74999999999999,55.,7.));
#636=CARTESIAN_POINT('',(1.74999999999999,55.,0.));
#637=CARTESIAN_POINT('Origin',(19.,55.,0.));
#638=CARTESIAN_POINT('',(19.,55.,7.));
#639=CARTESIAN_POINT('',(19.,55.,7.));
#640=CARTESIAN_POINT('',(19.,55.,0.));
#641=CARTESIAN_POINT('Origin',(19.,-55.,0.));
#642=CARTESIAN_POINT('',(19.,-55.,7.));
#643=CARTESIAN_POINT('',(19.,-55.,7.));
#644=CARTESIAN_POINT('',(19.,-55.,0.));
#645=CARTESIAN_POINT('Origin',(-19.,-55.,0.));
#646=CARTESIAN_POINT('',(-19.,-55.,7.));
#647=CARTESIAN_POINT('Origin',(-1.74999999999999,55.,0.));
#648=CARTESIAN_POINT('',(-1.74999999999998,55.,7.));
#649=CARTESIAN_POINT('Origin',(-1.25,-3.,0.));
#650=CARTESIAN_POINT('',(-1.25,-3.,7.));
#651=CARTESIAN_POINT('Origin',(2.22044604925031E-15,0.,7.));
#652=UNCERTAINTY_MEASURE_WITH_UNIT(LENGTH_MEASURE(0.01),#656,
'DISTANCE_ACCURACY_VALUE',
'Maximum model space distance between geometric entities at asserted c
onnectivities');
#653=UNCERTAINTY_MEASURE_WITH_UNIT(LENGTH_MEASURE(0.01),#656,
'DISTANCE_ACCURACY_VALUE',
'Maximum model space distance between geometric entities at asserted c
onnectivities');
#654=(
GEOMETRIC_REPRESENTATION_CONTEXT(3)
GLOBAL_UNCERTAINTY_ASSIGNED_CONTEXT((#652))
GLOBAL_UNIT_ASSIGNED_CONTEXT((#656,#658,#659))
REPRESENTATION_CONTEXT('','3D')
);
#655=(
GEOMETRIC_REPRESENTATION_CONTEXT(3)
GLOBAL_UNCERTAINTY_ASSIGNED_CONTEXT((#653))
GLOBAL_UNIT_ASSIGNED_CONTEXT((#656,#658,#659))
REPRESENTATION_CONTEXT('','3D')
);
#656=(
LENGTH_UNIT()
NAMED_UNIT(*)
SI_UNIT(.MILLI.,.METRE.)
);
#657=(
LENGTH_UNIT()
NAMED_UNIT(*)
SI_UNIT(.CENTI.,.METRE.)
);
#658=(
NAMED_UNIT(*)
PLANE_ANGLE_UNIT()
SI_UNIT($,.RADIAN.)
);
#659=(
NAMED_UNIT(*)
SI_UNIT($,.STERADIAN.)
SOLID_ANGLE_UNIT()
);
#660=SHAPE_DEFINITION_REPRESENTATION(#661,#662);
#661=PRODUCT_DEFINITION_SHAPE('',$,#664);
#662=SHAPE_REPRESENTATION('',(#400),#654);
#663=PRODUCT_DEFINITION_CONTEXT('part definition',#668,'design');
#664=PRODUCT_DEFINITION('GSE-1201-029-001-A',
'GSE-1201-029-001-A (Clampe pivot ext\X\E9rieure)',#665,#663);
#665=PRODUCT_DEFINITION_FORMATION('A',$,#670);
#666=PRODUCT_RELATED_PRODUCT_CATEGORY(
'GSE-1201-029-001-A (Clampe pivot ext\X\E9rieure)',
'GSE-1201-029-001-A (Clampe pivot ext\X\E9rieure)',(#670));
#667=APPLICATION_PROTOCOL_DEFINITION('international standard',
'automotive_design',2009,#668);
#668=APPLICATION_CONTEXT(
'Core Data for Automotive Mechanical Design Process');
#669=PRODUCT_CONTEXT('part definition',#668,'mechanical');
#670=PRODUCT('GSE-1201-029-001-A',
'GSE-1201-029-001-A (Clampe pivot ext\X\E9rieure)',
'Clampe pivot ext\X\E9rieure',(#669));
#671=PRESENTATION_STYLE_ASSIGNMENT((#672));
#672=SURFACE_STYLE_USAGE(.BOTH.,#675);
#673=SURFACE_STYLE_RENDERING_WITH_PROPERTIES($,#679,(#674));
#674=SURFACE_STYLE_TRANSPARENT(0.);
#675=SURFACE_SIDE_STYLE('',(#676,#673));
#676=SURFACE_STYLE_FILL_AREA(#677);
#677=FILL_AREA_STYLE('',(#678));
#678=FILL_AREA_STYLE_COLOUR('',#679);
#679=COLOUR_RGB('',0.996078431372549,0.996078431372549,1.);
ENDSEC;
END-ISO-10303-21;
