ISO-10303-21;
HEADER;
/* Generated by software containing ST-Developer
 * from STEP Tools, Inc. (www.steptools.com) 
 */

FILE_DESCRIPTION(
/* description */ (''),
/* implementation_level */ '2;1');

FILE_NAME(
/* name */ 'C:/Users/xavie/Desktop/base aluminium .step',
/* time_stamp */ '2019-11-20T23:18:01+01:00',
/* author */ (''),
/* organization */ (''),
/* preprocessor_version */ 'ST-DEVELOPER v18',
/* originating_system */ 'Autodesk Translation Framework v8.12.0.6',
/* authorisation */ '');

FILE_SCHEMA (('AUTOMOTIVE_DESIGN { 1 0 10303 214 3 1 1 }'));
ENDSEC;

DATA;
#10=MECHANICAL_DESIGN_GEOMETRIC_PRESENTATION_REPRESENTATION('',(#13),#645);
#11=SHAPE_REPRESENTATION_RELATIONSHIP('SRR','None',#652,#12);
#12=ADVANCED_BREP_SHAPE_REPRESENTATION('',(#14),#644);
#13=STYLED_ITEM('',(#661),#14);
#14=MANIFOLD_SOLID_BREP('Body1',#401);
#15=FACE_OUTER_BOUND('',#35,.T.);
#16=FACE_OUTER_BOUND('',#36,.T.);
#17=FACE_OUTER_BOUND('',#37,.T.);
#18=FACE_OUTER_BOUND('',#38,.T.);
#19=FACE_OUTER_BOUND('',#39,.T.);
#20=FACE_OUTER_BOUND('',#40,.T.);
#21=FACE_OUTER_BOUND('',#41,.T.);
#22=FACE_OUTER_BOUND('',#42,.T.);
#23=FACE_OUTER_BOUND('',#43,.T.);
#24=FACE_OUTER_BOUND('',#44,.T.);
#25=FACE_OUTER_BOUND('',#45,.T.);
#26=FACE_OUTER_BOUND('',#46,.T.);
#27=FACE_OUTER_BOUND('',#47,.T.);
#28=FACE_OUTER_BOUND('',#48,.T.);
#29=FACE_OUTER_BOUND('',#49,.T.);
#30=FACE_OUTER_BOUND('',#50,.T.);
#31=FACE_OUTER_BOUND('',#51,.T.);
#32=FACE_OUTER_BOUND('',#52,.T.);
#33=FACE_OUTER_BOUND('',#53,.T.);
#34=FACE_OUTER_BOUND('',#54,.T.);
#35=EDGE_LOOP('',(#253,#254,#255,#256,#257,#258,#259,#260,#261,#262,#263,
#264,#265,#266,#267,#268,#269));
#36=EDGE_LOOP('',(#270,#271,#272,#273));
#37=EDGE_LOOP('',(#274,#275,#276,#277));
#38=EDGE_LOOP('',(#278,#279,#280,#281));
#39=EDGE_LOOP('',(#282,#283,#284,#285));
#40=EDGE_LOOP('',(#286,#287,#288,#289));
#41=EDGE_LOOP('',(#290,#291,#292,#293));
#42=EDGE_LOOP('',(#294,#295,#296,#297));
#43=EDGE_LOOP('',(#298,#299,#300,#301,#302));
#44=EDGE_LOOP('',(#303,#304,#305,#306));
#45=EDGE_LOOP('',(#307,#308,#309,#310));
#46=EDGE_LOOP('',(#311,#312,#313,#314));
#47=EDGE_LOOP('',(#315,#316,#317,#318));
#48=EDGE_LOOP('',(#319,#320,#321,#322));
#49=EDGE_LOOP('',(#323,#324,#325,#326));
#50=EDGE_LOOP('',(#327,#328,#329,#330));
#51=EDGE_LOOP('',(#331,#332,#333,#334));
#52=EDGE_LOOP('',(#335,#336,#337,#338,#339));
#53=EDGE_LOOP('',(#340,#341,#342,#343));
#54=EDGE_LOOP('',(#344,#345,#346,#347,#348,#349,#350,#351,#352,#353,#354,
#355,#356,#357,#358,#359,#360));
#55=LINE('',#535,#109);
#56=LINE('',#537,#110);
#57=LINE('',#539,#111);
#58=LINE('',#541,#112);
#59=LINE('',#543,#113);
#60=LINE('',#545,#114);
#61=LINE('',#547,#115);
#62=LINE('',#549,#116);
#63=LINE('',#551,#117);
#64=LINE('',#553,#118);
#65=LINE('',#555,#119);
#66=LINE('',#557,#120);
#67=LINE('',#559,#121);
#68=LINE('',#561,#122);
#69=LINE('',#563,#123);
#70=LINE('',#565,#124);
#71=LINE('',#566,#125);
#72=LINE('',#569,#126);
#73=LINE('',#571,#127);
#74=LINE('',#572,#128);
#75=LINE('',#575,#129);
#76=LINE('',#576,#130);
#77=LINE('',#579,#131);
#78=LINE('',#580,#132);
#79=LINE('',#583,#133);
#80=LINE('',#584,#134);
#81=LINE('',#587,#135);
#82=LINE('',#588,#136);
#83=LINE('',#591,#137);
#84=LINE('',#592,#138);
#85=LINE('',#595,#139);
#86=LINE('',#596,#140);
#87=LINE('',#599,#141);
#88=LINE('',#601,#142);
#89=LINE('',#602,#143);
#90=LINE('',#605,#144);
#91=LINE('',#606,#145);
#92=LINE('',#609,#146);
#93=LINE('',#611,#147);
#94=LINE('',#612,#148);
#95=LINE('',#615,#149);
#96=LINE('',#616,#150);
#97=LINE('',#619,#151);
#98=LINE('',#621,#152);
#99=LINE('',#622,#153);
#100=LINE('',#624,#154);
#101=LINE('',#627,#155);
#102=LINE('',#628,#156);
#103=LINE('',#631,#157);
#104=LINE('',#632,#158);
#105=LINE('',#635,#159);
#106=LINE('',#636,#160);
#107=LINE('',#638,#161);
#108=LINE('',#640,#162);
#109=VECTOR('',#439,10.);
#110=VECTOR('',#440,10.);
#111=VECTOR('',#441,10.);
#112=VECTOR('',#442,10.);
#113=VECTOR('',#443,10.);
#114=VECTOR('',#444,10.);
#115=VECTOR('',#445,10.);
#116=VECTOR('',#446,10.);
#117=VECTOR('',#447,10.);
#118=VECTOR('',#448,10.);
#119=VECTOR('',#449,10.);
#120=VECTOR('',#450,10.);
#121=VECTOR('',#451,10.);
#122=VECTOR('',#452,10.);
#123=VECTOR('',#453,10.);
#124=VECTOR('',#454,10.);
#125=VECTOR('',#455,10.);
#126=VECTOR('',#458,10.);
#127=VECTOR('',#459,10.);
#128=VECTOR('',#460,10.);
#129=VECTOR('',#463,10.);
#130=VECTOR('',#464,10.);
#131=VECTOR('',#467,10.);
#132=VECTOR('',#468,10.);
#133=VECTOR('',#471,10.);
#134=VECTOR('',#472,10.);
#135=VECTOR('',#475,10.);
#136=VECTOR('',#476,10.);
#137=VECTOR('',#479,10.);
#138=VECTOR('',#480,10.);
#139=VECTOR('',#483,10.);
#140=VECTOR('',#484,10.);
#141=VECTOR('',#487,10.);
#142=VECTOR('',#488,10.);
#143=VECTOR('',#489,10.);
#144=VECTOR('',#492,10.);
#145=VECTOR('',#493,10.);
#146=VECTOR('',#496,10.);
#147=VECTOR('',#497,10.);
#148=VECTOR('',#498,10.);
#149=VECTOR('',#501,10.);
#150=VECTOR('',#502,10.);
#151=VECTOR('',#505,10.);
#152=VECTOR('',#506,10.);
#153=VECTOR('',#507,10.);
#154=VECTOR('',#510,10.);
#155=VECTOR('',#513,10.);
#156=VECTOR('',#514,10.);
#157=VECTOR('',#517,10.);
#158=VECTOR('',#518,10.);
#159=VECTOR('',#521,10.);
#160=VECTOR('',#522,10.);
#161=VECTOR('',#525,10.);
#162=VECTOR('',#528,10.);
#163=VERTEX_POINT('',#533);
#164=VERTEX_POINT('',#534);
#165=VERTEX_POINT('',#536);
#166=VERTEX_POINT('',#538);
#167=VERTEX_POINT('',#540);
#168=VERTEX_POINT('',#542);
#169=VERTEX_POINT('',#544);
#170=VERTEX_POINT('',#546);
#171=VERTEX_POINT('',#548);
#172=VERTEX_POINT('',#550);
#173=VERTEX_POINT('',#552);
#174=VERTEX_POINT('',#554);
#175=VERTEX_POINT('',#556);
#176=VERTEX_POINT('',#558);
#177=VERTEX_POINT('',#560);
#178=VERTEX_POINT('',#562);
#179=VERTEX_POINT('',#564);
#180=VERTEX_POINT('',#568);
#181=VERTEX_POINT('',#570);
#182=VERTEX_POINT('',#574);
#183=VERTEX_POINT('',#578);
#184=VERTEX_POINT('',#582);
#185=VERTEX_POINT('',#586);
#186=VERTEX_POINT('',#590);
#187=VERTEX_POINT('',#594);
#188=VERTEX_POINT('',#598);
#189=VERTEX_POINT('',#600);
#190=VERTEX_POINT('',#604);
#191=VERTEX_POINT('',#608);
#192=VERTEX_POINT('',#610);
#193=VERTEX_POINT('',#614);
#194=VERTEX_POINT('',#618);
#195=VERTEX_POINT('',#620);
#196=VERTEX_POINT('',#626);
#197=VERTEX_POINT('',#630);
#198=VERTEX_POINT('',#634);
#199=EDGE_CURVE('',#163,#164,#55,.T.);
#200=EDGE_CURVE('',#164,#165,#56,.T.);
#201=EDGE_CURVE('',#165,#166,#57,.T.);
#202=EDGE_CURVE('',#166,#167,#58,.T.);
#203=EDGE_CURVE('',#167,#168,#59,.T.);
#204=EDGE_CURVE('',#168,#169,#60,.T.);
#205=EDGE_CURVE('',#169,#170,#61,.T.);
#206=EDGE_CURVE('',#170,#171,#62,.T.);
#207=EDGE_CURVE('',#171,#172,#63,.T.);
#208=EDGE_CURVE('',#172,#173,#64,.T.);
#209=EDGE_CURVE('',#173,#174,#65,.T.);
#210=EDGE_CURVE('',#174,#175,#66,.T.);
#211=EDGE_CURVE('',#175,#176,#67,.T.);
#212=EDGE_CURVE('',#176,#177,#68,.T.);
#213=EDGE_CURVE('',#177,#178,#69,.T.);
#214=EDGE_CURVE('',#178,#179,#70,.T.);
#215=EDGE_CURVE('',#179,#163,#71,.T.);
#216=EDGE_CURVE('',#180,#175,#72,.T.);
#217=EDGE_CURVE('',#180,#181,#73,.T.);
#218=EDGE_CURVE('',#181,#176,#74,.T.);
#219=EDGE_CURVE('',#174,#182,#75,.T.);
#220=EDGE_CURVE('',#182,#180,#76,.T.);
#221=EDGE_CURVE('',#183,#173,#77,.T.);
#222=EDGE_CURVE('',#182,#183,#78,.T.);
#223=EDGE_CURVE('',#184,#172,#79,.T.);
#224=EDGE_CURVE('',#183,#184,#80,.T.);
#225=EDGE_CURVE('',#185,#171,#81,.T.);
#226=EDGE_CURVE('',#184,#185,#82,.T.);
#227=EDGE_CURVE('',#170,#186,#83,.T.);
#228=EDGE_CURVE('',#185,#186,#84,.T.);
#229=EDGE_CURVE('',#187,#169,#85,.T.);
#230=EDGE_CURVE('',#186,#187,#86,.T.);
#231=EDGE_CURVE('',#188,#168,#87,.T.);
#232=EDGE_CURVE('',#189,#188,#88,.T.);
#233=EDGE_CURVE('',#187,#189,#89,.T.);
#234=EDGE_CURVE('',#190,#167,#90,.T.);
#235=EDGE_CURVE('',#190,#188,#91,.T.);
#236=EDGE_CURVE('',#191,#163,#92,.T.);
#237=EDGE_CURVE('',#191,#192,#93,.T.);
#238=EDGE_CURVE('',#164,#192,#94,.T.);
#239=EDGE_CURVE('',#193,#192,#95,.T.);
#240=EDGE_CURVE('',#193,#165,#96,.T.);
#241=EDGE_CURVE('',#194,#177,#97,.T.);
#242=EDGE_CURVE('',#194,#195,#98,.T.);
#243=EDGE_CURVE('',#178,#195,#99,.T.);
#244=EDGE_CURVE('',#194,#181,#100,.T.);
#245=EDGE_CURVE('',#193,#196,#101,.T.);
#246=EDGE_CURVE('',#166,#196,#102,.T.);
#247=EDGE_CURVE('',#197,#179,#103,.T.);
#248=EDGE_CURVE('',#197,#191,#104,.T.);
#249=EDGE_CURVE('',#189,#198,#105,.T.);
#250=EDGE_CURVE('',#190,#198,#106,.T.);
#251=EDGE_CURVE('',#198,#196,#107,.T.);
#252=EDGE_CURVE('',#195,#197,#108,.T.);
#253=ORIENTED_EDGE('',*,*,#199,.T.);
#254=ORIENTED_EDGE('',*,*,#200,.T.);
#255=ORIENTED_EDGE('',*,*,#201,.T.);
#256=ORIENTED_EDGE('',*,*,#202,.T.);
#257=ORIENTED_EDGE('',*,*,#203,.T.);
#258=ORIENTED_EDGE('',*,*,#204,.T.);
#259=ORIENTED_EDGE('',*,*,#205,.T.);
#260=ORIENTED_EDGE('',*,*,#206,.T.);
#261=ORIENTED_EDGE('',*,*,#207,.T.);
#262=ORIENTED_EDGE('',*,*,#208,.T.);
#263=ORIENTED_EDGE('',*,*,#209,.T.);
#264=ORIENTED_EDGE('',*,*,#210,.T.);
#265=ORIENTED_EDGE('',*,*,#211,.T.);
#266=ORIENTED_EDGE('',*,*,#212,.T.);
#267=ORIENTED_EDGE('',*,*,#213,.T.);
#268=ORIENTED_EDGE('',*,*,#214,.T.);
#269=ORIENTED_EDGE('',*,*,#215,.T.);
#270=ORIENTED_EDGE('',*,*,#216,.F.);
#271=ORIENTED_EDGE('',*,*,#217,.T.);
#272=ORIENTED_EDGE('',*,*,#218,.T.);
#273=ORIENTED_EDGE('',*,*,#211,.F.);
#274=ORIENTED_EDGE('',*,*,#219,.T.);
#275=ORIENTED_EDGE('',*,*,#220,.T.);
#276=ORIENTED_EDGE('',*,*,#216,.T.);
#277=ORIENTED_EDGE('',*,*,#210,.F.);
#278=ORIENTED_EDGE('',*,*,#221,.F.);
#279=ORIENTED_EDGE('',*,*,#222,.F.);
#280=ORIENTED_EDGE('',*,*,#219,.F.);
#281=ORIENTED_EDGE('',*,*,#209,.F.);
#282=ORIENTED_EDGE('',*,*,#223,.F.);
#283=ORIENTED_EDGE('',*,*,#224,.F.);
#284=ORIENTED_EDGE('',*,*,#221,.T.);
#285=ORIENTED_EDGE('',*,*,#208,.F.);
#286=ORIENTED_EDGE('',*,*,#225,.F.);
#287=ORIENTED_EDGE('',*,*,#226,.F.);
#288=ORIENTED_EDGE('',*,*,#223,.T.);
#289=ORIENTED_EDGE('',*,*,#207,.F.);
#290=ORIENTED_EDGE('',*,*,#227,.T.);
#291=ORIENTED_EDGE('',*,*,#228,.F.);
#292=ORIENTED_EDGE('',*,*,#225,.T.);
#293=ORIENTED_EDGE('',*,*,#206,.F.);
#294=ORIENTED_EDGE('',*,*,#229,.F.);
#295=ORIENTED_EDGE('',*,*,#230,.F.);
#296=ORIENTED_EDGE('',*,*,#227,.F.);
#297=ORIENTED_EDGE('',*,*,#205,.F.);
#298=ORIENTED_EDGE('',*,*,#231,.F.);
#299=ORIENTED_EDGE('',*,*,#232,.F.);
#300=ORIENTED_EDGE('',*,*,#233,.F.);
#301=ORIENTED_EDGE('',*,*,#229,.T.);
#302=ORIENTED_EDGE('',*,*,#204,.F.);
#303=ORIENTED_EDGE('',*,*,#234,.F.);
#304=ORIENTED_EDGE('',*,*,#235,.T.);
#305=ORIENTED_EDGE('',*,*,#231,.T.);
#306=ORIENTED_EDGE('',*,*,#203,.F.);
#307=ORIENTED_EDGE('',*,*,#236,.F.);
#308=ORIENTED_EDGE('',*,*,#237,.T.);
#309=ORIENTED_EDGE('',*,*,#238,.F.);
#310=ORIENTED_EDGE('',*,*,#199,.F.);
#311=ORIENTED_EDGE('',*,*,#238,.T.);
#312=ORIENTED_EDGE('',*,*,#239,.F.);
#313=ORIENTED_EDGE('',*,*,#240,.T.);
#314=ORIENTED_EDGE('',*,*,#200,.F.);
#315=ORIENTED_EDGE('',*,*,#241,.F.);
#316=ORIENTED_EDGE('',*,*,#242,.T.);
#317=ORIENTED_EDGE('',*,*,#243,.F.);
#318=ORIENTED_EDGE('',*,*,#213,.F.);
#319=ORIENTED_EDGE('',*,*,#218,.F.);
#320=ORIENTED_EDGE('',*,*,#244,.F.);
#321=ORIENTED_EDGE('',*,*,#241,.T.);
#322=ORIENTED_EDGE('',*,*,#212,.F.);
#323=ORIENTED_EDGE('',*,*,#240,.F.);
#324=ORIENTED_EDGE('',*,*,#245,.T.);
#325=ORIENTED_EDGE('',*,*,#246,.F.);
#326=ORIENTED_EDGE('',*,*,#201,.F.);
#327=ORIENTED_EDGE('',*,*,#247,.F.);
#328=ORIENTED_EDGE('',*,*,#248,.T.);
#329=ORIENTED_EDGE('',*,*,#236,.T.);
#330=ORIENTED_EDGE('',*,*,#215,.F.);
#331=ORIENTED_EDGE('',*,*,#249,.F.);
#332=ORIENTED_EDGE('',*,*,#232,.T.);
#333=ORIENTED_EDGE('',*,*,#235,.F.);
#334=ORIENTED_EDGE('',*,*,#250,.T.);
#335=ORIENTED_EDGE('',*,*,#246,.T.);
#336=ORIENTED_EDGE('',*,*,#251,.F.);
#337=ORIENTED_EDGE('',*,*,#250,.F.);
#338=ORIENTED_EDGE('',*,*,#234,.T.);
#339=ORIENTED_EDGE('',*,*,#202,.F.);
#340=ORIENTED_EDGE('',*,*,#243,.T.);
#341=ORIENTED_EDGE('',*,*,#252,.T.);
#342=ORIENTED_EDGE('',*,*,#247,.T.);
#343=ORIENTED_EDGE('',*,*,#214,.F.);
#344=ORIENTED_EDGE('',*,*,#237,.F.);
#345=ORIENTED_EDGE('',*,*,#248,.F.);
#346=ORIENTED_EDGE('',*,*,#252,.F.);
#347=ORIENTED_EDGE('',*,*,#242,.F.);
#348=ORIENTED_EDGE('',*,*,#244,.T.);
#349=ORIENTED_EDGE('',*,*,#217,.F.);
#350=ORIENTED_EDGE('',*,*,#220,.F.);
#351=ORIENTED_EDGE('',*,*,#222,.T.);
#352=ORIENTED_EDGE('',*,*,#224,.T.);
#353=ORIENTED_EDGE('',*,*,#226,.T.);
#354=ORIENTED_EDGE('',*,*,#228,.T.);
#355=ORIENTED_EDGE('',*,*,#230,.T.);
#356=ORIENTED_EDGE('',*,*,#233,.T.);
#357=ORIENTED_EDGE('',*,*,#249,.T.);
#358=ORIENTED_EDGE('',*,*,#251,.T.);
#359=ORIENTED_EDGE('',*,*,#245,.F.);
#360=ORIENTED_EDGE('',*,*,#239,.T.);
#361=PLANE('',#415);
#362=PLANE('',#416);
#363=PLANE('',#417);
#364=PLANE('',#418);
#365=PLANE('',#419);
#366=PLANE('',#420);
#367=PLANE('',#421);
#368=PLANE('',#422);
#369=PLANE('',#423);
#370=PLANE('',#424);
#371=PLANE('',#425);
#372=PLANE('',#426);
#373=PLANE('',#427);
#374=PLANE('',#428);
#375=PLANE('',#429);
#376=PLANE('',#430);
#377=PLANE('',#431);
#378=PLANE('',#432);
#379=PLANE('',#433);
#380=PLANE('',#434);
#381=ADVANCED_FACE('',(#15),#361,.T.);
#382=ADVANCED_FACE('',(#16),#362,.T.);
#383=ADVANCED_FACE('',(#17),#363,.T.);
#384=ADVANCED_FACE('',(#18),#364,.F.);
#385=ADVANCED_FACE('',(#19),#365,.T.);
#386=ADVANCED_FACE('',(#20),#366,.F.);
#387=ADVANCED_FACE('',(#21),#367,.T.);
#388=ADVANCED_FACE('',(#22),#368,.F.);
#389=ADVANCED_FACE('',(#23),#369,.T.);
#390=ADVANCED_FACE('',(#24),#370,.T.);
#391=ADVANCED_FACE('',(#25),#371,.T.);
#392=ADVANCED_FACE('',(#26),#372,.T.);
#393=ADVANCED_FACE('',(#27),#373,.T.);
#394=ADVANCED_FACE('',(#28),#374,.T.);
#395=ADVANCED_FACE('',(#29),#375,.T.);
#396=ADVANCED_FACE('',(#30),#376,.T.);
#397=ADVANCED_FACE('',(#31),#377,.T.);
#398=ADVANCED_FACE('',(#32),#378,.T.);
#399=ADVANCED_FACE('',(#33),#379,.T.);
#400=ADVANCED_FACE('',(#34),#380,.F.);
#401=CLOSED_SHELL('',(#381,#382,#383,#384,#385,#386,#387,#388,#389,#390,
#391,#392,#393,#394,#395,#396,#397,#398,#399,#400));
#402=DERIVED_UNIT_ELEMENT(#404,1.);
#403=DERIVED_UNIT_ELEMENT(#647,3.);
#404=(
MASS_UNIT()
NAMED_UNIT(*)
SI_UNIT(.KILO.,.GRAM.)
);
#405=DERIVED_UNIT((#402,#403));
#406=MEASURE_REPRESENTATION_ITEM('density measure',
POSITIVE_RATIO_MEASURE(7850.),#405);
#407=PROPERTY_DEFINITION_REPRESENTATION(#412,#409);
#408=PROPERTY_DEFINITION_REPRESENTATION(#413,#410);
#409=REPRESENTATION('material name',(#411),#644);
#410=REPRESENTATION('density',(#406),#644);
#411=DESCRIPTIVE_REPRESENTATION_ITEM('Steel','Steel');
#412=PROPERTY_DEFINITION('material property','material name',#654);
#413=PROPERTY_DEFINITION('material property','density of part',#654);
#414=AXIS2_PLACEMENT_3D('placement',#531,#435,#436);
#415=AXIS2_PLACEMENT_3D('',#532,#437,#438);
#416=AXIS2_PLACEMENT_3D('',#567,#456,#457);
#417=AXIS2_PLACEMENT_3D('',#573,#461,#462);
#418=AXIS2_PLACEMENT_3D('',#577,#465,#466);
#419=AXIS2_PLACEMENT_3D('',#581,#469,#470);
#420=AXIS2_PLACEMENT_3D('',#585,#473,#474);
#421=AXIS2_PLACEMENT_3D('',#589,#477,#478);
#422=AXIS2_PLACEMENT_3D('',#593,#481,#482);
#423=AXIS2_PLACEMENT_3D('',#597,#485,#486);
#424=AXIS2_PLACEMENT_3D('',#603,#490,#491);
#425=AXIS2_PLACEMENT_3D('',#607,#494,#495);
#426=AXIS2_PLACEMENT_3D('',#613,#499,#500);
#427=AXIS2_PLACEMENT_3D('',#617,#503,#504);
#428=AXIS2_PLACEMENT_3D('',#623,#508,#509);
#429=AXIS2_PLACEMENT_3D('',#625,#511,#512);
#430=AXIS2_PLACEMENT_3D('',#629,#515,#516);
#431=AXIS2_PLACEMENT_3D('',#633,#519,#520);
#432=AXIS2_PLACEMENT_3D('',#637,#523,#524);
#433=AXIS2_PLACEMENT_3D('',#639,#526,#527);
#434=AXIS2_PLACEMENT_3D('',#641,#529,#530);
#435=DIRECTION('axis',(0.,0.,1.));
#436=DIRECTION('refdir',(1.,0.,0.));
#437=DIRECTION('center_axis',(1.,0.,0.));
#438=DIRECTION('ref_axis',(0.,0.,-1.));
#439=DIRECTION('',(0.,-2.94297919367634E-7,0.999999999999957));
#440=DIRECTION('',(0.,-1.,0.));
#441=DIRECTION('',(0.,0.,1.));
#442=DIRECTION('',(0.,1.,0.));
#443=DIRECTION('',(0.,-2.94297919367634E-7,0.999999999999957));
#444=DIRECTION('',(0.,-1.,0.));
#445=DIRECTION('',(0.,0.,-1.));
#446=DIRECTION('',(0.,-1.,0.));
#447=DIRECTION('',(0.,0.,-1.));
#448=DIRECTION('',(0.,1.,0.));
#449=DIRECTION('',(0.,0.,-1.));
#450=DIRECTION('',(0.,1.,0.));
#451=DIRECTION('',(0.,0.,1.));
#452=DIRECTION('',(0.,-1.,0.));
#453=DIRECTION('',(0.,0.,1.));
#454=DIRECTION('',(0.,1.,0.));
#455=DIRECTION('',(0.,0.999999999999957,2.94297919367634E-7));
#456=DIRECTION('center_axis',(0.,1.,0.));
#457=DIRECTION('ref_axis',(0.,0.,1.));
#458=DIRECTION('',(1.,0.,0.));
#459=DIRECTION('',(0.,0.,1.));
#460=DIRECTION('',(1.,0.,0.));
#461=DIRECTION('center_axis',(0.,0.,-1.));
#462=DIRECTION('ref_axis',(0.,1.,0.));
#463=DIRECTION('',(-1.,0.,0.));
#464=DIRECTION('',(0.,1.,0.));
#465=DIRECTION('center_axis',(0.,1.,0.));
#466=DIRECTION('ref_axis',(0.,0.,1.));
#467=DIRECTION('',(1.,0.,0.));
#468=DIRECTION('',(0.,0.,1.));
#469=DIRECTION('center_axis',(0.,0.,-1.));
#470=DIRECTION('ref_axis',(0.,1.,0.));
#471=DIRECTION('',(1.,0.,0.));
#472=DIRECTION('',(0.,-1.,0.));
#473=DIRECTION('center_axis',(0.,1.,0.));
#474=DIRECTION('ref_axis',(0.,0.,1.));
#475=DIRECTION('',(1.,0.,0.));
#476=DIRECTION('',(0.,0.,1.));
#477=DIRECTION('center_axis',(0.,0.,1.));
#478=DIRECTION('ref_axis',(0.,-1.,0.));
#479=DIRECTION('',(-1.,0.,0.));
#480=DIRECTION('',(0.,1.,0.));
#481=DIRECTION('center_axis',(0.,1.,0.));
#482=DIRECTION('ref_axis',(0.,0.,1.));
#483=DIRECTION('',(1.,0.,0.));
#484=DIRECTION('',(0.,0.,1.));
#485=DIRECTION('center_axis',(0.,0.,1.));
#486=DIRECTION('ref_axis',(0.,-1.,0.));
#487=DIRECTION('',(1.,0.,0.));
#488=DIRECTION('',(1.,0.,0.));
#489=DIRECTION('',(0.,1.,0.));
#490=DIRECTION('center_axis',(0.,0.999999999999957,2.94297919367634E-7));
#491=DIRECTION('ref_axis',(0.,-2.94297919367634E-7,0.999999999999957));
#492=DIRECTION('',(1.,0.,0.));
#493=DIRECTION('',(0.,-2.94297919367634E-7,0.999999999999957));
#494=DIRECTION('center_axis',(0.,0.999999999999957,2.94297919367634E-7));
#495=DIRECTION('ref_axis',(0.,-2.94297919367634E-7,0.999999999999957));
#496=DIRECTION('',(1.,0.,0.));
#497=DIRECTION('',(0.,-2.94297940378595E-7,0.999999999999957));
#498=DIRECTION('',(-1.,0.,0.));
#499=DIRECTION('center_axis',(0.,0.,1.));
#500=DIRECTION('ref_axis',(0.,-1.,0.));
#501=DIRECTION('',(0.,1.,0.));
#502=DIRECTION('',(1.,0.,0.));
#503=DIRECTION('center_axis',(0.,1.,0.));
#504=DIRECTION('ref_axis',(0.,0.,1.));
#505=DIRECTION('',(1.,0.,0.));
#506=DIRECTION('',(0.,0.,1.));
#507=DIRECTION('',(-1.,0.,0.));
#508=DIRECTION('center_axis',(0.,0.,1.));
#509=DIRECTION('ref_axis',(0.,-1.,0.));
#510=DIRECTION('',(0.,1.,0.));
#511=DIRECTION('center_axis',(0.,1.,0.));
#512=DIRECTION('ref_axis',(0.,0.,1.));
#513=DIRECTION('',(0.,0.,1.));
#514=DIRECTION('',(-1.,0.,0.));
#515=DIRECTION('center_axis',(0.,2.94297919367634E-7,-0.999999999999957));
#516=DIRECTION('ref_axis',(-1.,0.,0.));
#517=DIRECTION('',(1.,0.,0.));
#518=DIRECTION('',(0.,0.999999999999957,2.94297919367634E-7));
#519=DIRECTION('center_axis',(0.,1.,0.));
#520=DIRECTION('ref_axis',(0.,0.,1.));
#521=DIRECTION('',(0.,2.94297919367634E-7,-0.999999999999957));
#522=DIRECTION('',(-1.,0.,0.));
#523=DIRECTION('center_axis',(0.,0.,-1.));
#524=DIRECTION('ref_axis',(0.,1.,0.));
#525=DIRECTION('',(0.,-1.,0.));
#526=DIRECTION('center_axis',(0.,0.,-1.));
#527=DIRECTION('ref_axis',(0.,1.,0.));
#528=DIRECTION('',(0.,1.,0.));
#529=DIRECTION('center_axis',(1.,0.,0.));
#530=DIRECTION('ref_axis',(0.,0.,-1.));
#531=CARTESIAN_POINT('',(0.,0.,0.));
#532=CARTESIAN_POINT('Origin',(80.,15.500000115484,63.9999992065132));
#533=CARTESIAN_POINT('',(80.,16.150000230968,60.9999986806884));
#534=CARTESIAN_POINT('',(80.,16.1499996423721,66.9999985024333));
#535=CARTESIAN_POINT('',(80.,16.149999789521,62.4999990392475));
#536=CARTESIAN_POINT('',(80.,15.799999653548,66.9999985024333));
#537=CARTESIAN_POINT('',(80.,15.7499998789281,66.9999985024333));
#538=CARTESIAN_POINT('',(80.,15.799999653548,67.9999984800816));
#539=CARTESIAN_POINT('',(80.,15.799999653548,65.4999988544732));
#540=CARTESIAN_POINT('',(80.,16.1499996423721,67.9999984800816));
#541=CARTESIAN_POINT('',(80.,15.499999884516,67.9999984800816));
#542=CARTESIAN_POINT('',(80.,16.1499996423721,70.9999984130263));
#543=CARTESIAN_POINT('',(80.,16.1499987594783,65.9999989389438));
#544=CARTESIAN_POINT('',(80.,15.65,70.9999984130263));
#545=CARTESIAN_POINT('',(80.,15.7499998789281,70.9999984130263));
#546=CARTESIAN_POINT('',(80.,15.65,70.));
#547=CARTESIAN_POINT('',(80.,15.65,67.4999988097697));
#548=CARTESIAN_POINT('',(80.,15.15,70.));
#549=CARTESIAN_POINT('',(80.,15.500000057742,70.));
#550=CARTESIAN_POINT('',(80.,15.15,58.));
#551=CARTESIAN_POINT('',(80.,15.15,66.9999996032566));
#552=CARTESIAN_POINT('',(80.,15.650000230968,58.));
#553=CARTESIAN_POINT('',(80.,15.250000057742,58.));
#554=CARTESIAN_POINT('',(80.,15.650000230968,57.));
#555=CARTESIAN_POINT('',(80.,15.650000230968,60.9999996032566));
#556=CARTESIAN_POINT('',(80.,16.150000230968,57.));
#557=CARTESIAN_POINT('',(80.,15.500000173226,57.));
#558=CARTESIAN_POINT('',(80.,16.150000230968,59.9999986588955));
#559=CARTESIAN_POINT('',(80.,16.150000230968,60.4999996032566));
#560=CARTESIAN_POINT('',(80.,15.799999653548,59.9999986588955));
#561=CARTESIAN_POINT('',(80.,15.750000173226,59.9999986588955));
#562=CARTESIAN_POINT('',(80.,15.799999653548,60.9999986365438));
#563=CARTESIAN_POINT('',(80.,15.799999653548,61.9999989327043));
#564=CARTESIAN_POINT('',(80.,16.000000230968,60.9999986365438));
#565=CARTESIAN_POINT('',(80.,15.499999884516,60.9999986365438));
#566=CARTESIAN_POINT('',(80.,15.750000614673,60.9999985629694));
#567=CARTESIAN_POINT('Origin',(0.,16.150000230968,57.));
#568=CARTESIAN_POINT('',(0.,16.150000230968,57.));
#569=CARTESIAN_POINT('',(78.,16.150000230968,57.));
#570=CARTESIAN_POINT('',(0.,16.150000230968,59.9999986588955));
#571=CARTESIAN_POINT('',(0.,16.150000230968,57.));
#572=CARTESIAN_POINT('',(0.,16.150000230968,59.9999986588955));
#573=CARTESIAN_POINT('Origin',(0.,15.500000230968,57.));
#574=CARTESIAN_POINT('',(0.,15.650000230968,57.));
#575=CARTESIAN_POINT('',(0.,15.650000230968,57.));
#576=CARTESIAN_POINT('',(0.,15.500000230968,57.));
#577=CARTESIAN_POINT('Origin',(0.,15.650000230968,58.));
#578=CARTESIAN_POINT('',(0.,15.650000230968,58.));
#579=CARTESIAN_POINT('',(78.,15.650000230968,58.));
#580=CARTESIAN_POINT('',(0.,15.650000230968,60.9999996032566));
#581=CARTESIAN_POINT('Origin',(0.,15.,58.));
#582=CARTESIAN_POINT('',(0.,15.15,58.));
#583=CARTESIAN_POINT('',(78.,15.15,58.));
#584=CARTESIAN_POINT('',(0.,15.,58.));
#585=CARTESIAN_POINT('Origin',(0.,15.15,70.));
#586=CARTESIAN_POINT('',(0.,15.15,70.));
#587=CARTESIAN_POINT('',(78.,15.15,70.));
#588=CARTESIAN_POINT('',(0.,15.15,66.9999996032566));
#589=CARTESIAN_POINT('Origin',(0.,15.5,70.));
#590=CARTESIAN_POINT('',(0.,15.65,70.));
#591=CARTESIAN_POINT('',(0.,15.65,70.));
#592=CARTESIAN_POINT('',(0.,15.500000057742,70.));
#593=CARTESIAN_POINT('Origin',(0.,15.65,70.9999984130263));
#594=CARTESIAN_POINT('',(0.,15.65,70.9999984130263));
#595=CARTESIAN_POINT('',(78.,15.65,70.9999984130263));
#596=CARTESIAN_POINT('',(0.,15.65,67.4999988097697));
#597=CARTESIAN_POINT('Origin',(0.,15.9999996423721,70.9999984130263));
#598=CARTESIAN_POINT('',(77.,16.1499996423721,70.9999984130263));
#599=CARTESIAN_POINT('',(78.,16.1499996423721,70.9999984130263));
#600=CARTESIAN_POINT('',(0.,16.1499996423721,70.9999984130263));
#601=CARTESIAN_POINT('',(0.,16.1499996423721,70.9999984130263));
#602=CARTESIAN_POINT('',(0.,15.9999996423721,70.9999984130263));
#603=CARTESIAN_POINT('Origin',(77.,16.1499981708826,67.9999984800811));
#604=CARTESIAN_POINT('',(77.,16.1499996423721,67.9999984800816));
#605=CARTESIAN_POINT('',(77.,16.1499996423721,67.9999984800816));
#606=CARTESIAN_POINT('',(77.,16.149999789521,62.4999990392475));
#607=CARTESIAN_POINT('Origin',(0.,16.150000230968,60.9999986806884));
#608=CARTESIAN_POINT('',(0.,16.150000230968,60.9999986806884));
#609=CARTESIAN_POINT('',(77.,16.150000230968,60.9999986806884));
#610=CARTESIAN_POINT('',(0.,16.1499996423721,66.9999985024333));
#611=CARTESIAN_POINT('',(0.,16.150000230968,60.9999986806884));
#612=CARTESIAN_POINT('',(0.,16.1499984651805,66.9999985024333));
#613=CARTESIAN_POINT('Origin',(0.,15.9999996423721,66.9999985024333));
#614=CARTESIAN_POINT('',(0.,15.799999653548,66.9999985024333));
#615=CARTESIAN_POINT('',(0.,15.9999996423721,66.9999985024333));
#616=CARTESIAN_POINT('',(77.,15.799999653548,66.9999985024333));
#617=CARTESIAN_POINT('Origin',(0.,15.799999653548,59.9999986588955));
#618=CARTESIAN_POINT('',(0.,15.799999653548,59.9999986588955));
#619=CARTESIAN_POINT('',(77.,15.799999653548,59.9999986588955));
#620=CARTESIAN_POINT('',(0.,15.799999653548,60.9999986365438));
#621=CARTESIAN_POINT('',(0.,15.799999653548,59.9999986588955));
#622=CARTESIAN_POINT('',(0.,15.799999653548,60.9999986365438));
#623=CARTESIAN_POINT('Origin',(0.,16.000000230968,59.9999986588955));
#624=CARTESIAN_POINT('',(0.,16.000000230968,59.9999986588955));
#625=CARTESIAN_POINT('Origin',(0.,15.799999653548,66.9999985024333));
#626=CARTESIAN_POINT('',(0.,15.799999653548,67.9999984800816));
#627=CARTESIAN_POINT('',(0.,15.799999653548,67.9999984800816));
#628=CARTESIAN_POINT('',(0.,15.799999653548,67.9999984800816));
#629=CARTESIAN_POINT('Origin',(77.,16.000000230968,60.9999986365438));
#630=CARTESIAN_POINT('',(0.,16.000000230968,60.9999986365438));
#631=CARTESIAN_POINT('',(0.,16.000000230968,60.9999986365438));
#632=CARTESIAN_POINT('',(0.,16.000000230968,60.9999986365438));
#633=CARTESIAN_POINT('Origin',(0.,16.1499996423721,67.9999984800816));
#634=CARTESIAN_POINT('',(0.,16.1499996423721,67.9999984800816));
#635=CARTESIAN_POINT('',(0.,16.149999789521,62.4999990392475));
#636=CARTESIAN_POINT('',(0.,16.1499996423721,67.9999984800816));
#637=CARTESIAN_POINT('Origin',(0.,15.499999653548,67.9999984800816));
#638=CARTESIAN_POINT('',(0.,15.9999996423721,67.9999984800816));
#639=CARTESIAN_POINT('Origin',(0.,15.499999653548,60.9999986365438));
#640=CARTESIAN_POINT('',(0.,15.499999653548,60.9999986365438));
#641=CARTESIAN_POINT('Origin',(0.,15.500000115484,63.9999992065132));
#642=UNCERTAINTY_MEASURE_WITH_UNIT(LENGTH_MEASURE(0.01),#646,
'DISTANCE_ACCURACY_VALUE',
'Maximum model space distance between geometric entities at asserted c
onnectivities');
#643=UNCERTAINTY_MEASURE_WITH_UNIT(LENGTH_MEASURE(0.01),#646,
'DISTANCE_ACCURACY_VALUE',
'Maximum model space distance between geometric entities at asserted c
onnectivities');
#644=(
GEOMETRIC_REPRESENTATION_CONTEXT(3)
GLOBAL_UNCERTAINTY_ASSIGNED_CONTEXT((#642))
GLOBAL_UNIT_ASSIGNED_CONTEXT((#646,#648,#649))
REPRESENTATION_CONTEXT('','3D')
);
#645=(
GEOMETRIC_REPRESENTATION_CONTEXT(3)
GLOBAL_UNCERTAINTY_ASSIGNED_CONTEXT((#643))
GLOBAL_UNIT_ASSIGNED_CONTEXT((#646,#648,#649))
REPRESENTATION_CONTEXT('','3D')
);
#646=(
LENGTH_UNIT()
NAMED_UNIT(*)
SI_UNIT(.MILLI.,.METRE.)
);
#647=(
LENGTH_UNIT()
NAMED_UNIT(*)
SI_UNIT($,.METRE.)
);
#648=(
NAMED_UNIT(*)
PLANE_ANGLE_UNIT()
SI_UNIT($,.RADIAN.)
);
#649=(
NAMED_UNIT(*)
SI_UNIT($,.STERADIAN.)
SOLID_ANGLE_UNIT()
);
#650=SHAPE_DEFINITION_REPRESENTATION(#651,#652);
#651=PRODUCT_DEFINITION_SHAPE('',$,#654);
#652=SHAPE_REPRESENTATION('',(#414),#644);
#653=PRODUCT_DEFINITION_CONTEXT('part definition',#658,'design');
#654=PRODUCT_DEFINITION('base aluminium bas rampe plate',
'base aluminium bas rampe plate v4',#655,#653);
#655=PRODUCT_DEFINITION_FORMATION('',$,#660);
#656=PRODUCT_RELATED_PRODUCT_CATEGORY(
'base aluminium bas rampe plate v4','base aluminium bas rampe plate v4',
(#660));
#657=APPLICATION_PROTOCOL_DEFINITION('international standard',
'automotive_design',2009,#658);
#658=APPLICATION_CONTEXT(
'Core Data for Automotive Mechanical Design Process');
#659=PRODUCT_CONTEXT('part definition',#658,'mechanical');
#660=PRODUCT('base aluminium bas rampe plate',
'base aluminium bas rampe plate v4',$,(#659));
#661=PRESENTATION_STYLE_ASSIGNMENT((#662));
#662=SURFACE_STYLE_USAGE(.BOTH.,#663);
#663=SURFACE_SIDE_STYLE('',(#664));
#664=SURFACE_STYLE_FILL_AREA(#665);
#665=FILL_AREA_STYLE('Steel - Satin',(#666));
#666=FILL_AREA_STYLE_COLOUR('Steel - Satin',#667);
#667=COLOUR_RGB('Steel - Satin',0.627450980392157,0.627450980392157,0.627450980392157);
ENDSEC;
END-ISO-10303-21;
