ISO-10303-21;
HEADER;
/* Generated by software containing ST-Developer
 * from STEP Tools, Inc. (www.steptools.com) 
 */

FILE_DESCRIPTION(
/* description */ ('Alibre Inc.'),
/* implementation_level */ '2;1');

FILE_NAME(
/* name */ 'export0',
/* time_stamp */ '2019-11-19T16:22:33+01:00',
/* author */ (''),
/* organization */ (''),
/* preprocessor_version */ 'ST-DEVELOPER v14',
/* originating_system */ 'Alibre',
/* authorisation */ '');

FILE_SCHEMA (('CONFIG_CONTROL_DESIGN'));
ENDSEC;

DATA;
#10=MECHANICAL_CONTEXT('detailed design',#18,'mechanical');
#11=PRODUCT_RELATED_PRODUCT_CATEGORY('d\X\E9tail','',(#98));
#12=CC_DESIGN_SECURITY_CLASSIFICATION(#14,(#97));
#13=SECURITY_CLASSIFICATION_LEVEL('unclassified');
#14=SECURITY_CLASSIFICATION('nom','Niveau de s\X\E9curit\X\E9 pour la v
ersion',#13);
#15=SHAPE_DEFINITION_REPRESENTATION(#16,#754);
#16=PRODUCT_DEFINITION_SHAPE('','Desc. D\X\E9finition',#96);
#17=APPLICATION_PROTOCOL_DEFINITION('AP definition status',
'config_control_design',1994,#18);
#18=APPLICATION_CONTEXT(
'control the configuration of three dimensional design');
#19=DESIGN_CONTEXT('detailed design',#18,'design');
#20=PERSON_AND_ORGANIZATION_ROLE('creator');
#21=PERSON_AND_ORGANIZATION_ROLE('classification_officer');
#22=PERSON_AND_ORGANIZATION_ROLE('creator');
#23=PERSON_AND_ORGANIZATION_ROLE('design_supplier');
#24=PERSON_AND_ORGANIZATION_ROLE('design_owner');
#25=CC_DESIGN_PERSON_AND_ORGANIZATION_ASSIGNMENT(#57,#20,(#96));
#26=CC_DESIGN_PERSON_AND_ORGANIZATION_ASSIGNMENT(#60,#21,(#14));
#27=CC_DESIGN_PERSON_AND_ORGANIZATION_ASSIGNMENT(#61,#22,(#97));
#28=CC_DESIGN_PERSON_AND_ORGANIZATION_ASSIGNMENT(#62,#23,(#97));
#29=CC_DESIGN_PERSON_AND_ORGANIZATION_ASSIGNMENT(#63,#24,(#98));
#30=DATE_TIME_ROLE('creation_date');
#31=DATE_TIME_ROLE('classification_date');
#32=CC_DESIGN_DATE_AND_TIME_ASSIGNMENT(#86,#30,(#96));
#33=CC_DESIGN_DATE_AND_TIME_ASSIGNMENT(#89,#31,(#14));
#34=CC_DESIGN_APPROVAL(#93,(#96));
#35=CC_DESIGN_APPROVAL(#94,(#97));
#36=CC_DESIGN_APPROVAL(#95,(#14));
#37=APPROVAL_PERSON_ORGANIZATION(#56,#93,#64);
#38=APPROVAL_PERSON_ORGANIZATION(#58,#94,#65);
#39=APPROVAL_PERSON_ORGANIZATION(#59,#95,#66);
#40=ORGANIZATION('DEFINITION_APPROVEDBY_ORG_ID',
'DEFINITION_APPROVEDBY_ORG_NAME','DEFINITION_APPROVEDBY_ORG_DESCR');
#41=ORGANIZATION('DEF_CREATOR_ORG_ID','DEF_CREATOR_ORG_NAME',
'DEF_CREATOR_ORG_DESCR');
#42=ORGANIZATION('ID_ORG_APPROBATEUR','NOM_ORG_APPROBATEUR',
'DESCR_ORG_APPROBATEUR');
#43=ORGANIZATION('SECURITY_APPROVEDBY_ORG_ID',
'SECURITY_APPROVEDBY_ORG_NAME','SECURITY_APPROVEDBY_ORG_DESCR');
#44=ORGANIZATION('CLASSOFFICER_ORG_ID','CLASSOFFICER_ORG_NAME',
'CLASSOFFICER_ORG_DESCR');
#45=ORGANIZATION('CODE_SOCIETE_CREATEUR','NOM_SOCIETE_CREATEUR',
'DESCRIPTION_SOCIETE_CREATEUR');
#46=ORGANIZATION('SUPPLIER_ORG_ID','SUPPLIER_ORG_NAME',
'SUPPLIER_ORG_DESCR');
#47=ORGANIZATION('PROPRIETAIRE_SOCIETE_ID','PROPRIETAIRE_SOCIETE_NOM',
'PROPRIETAIRE_SOCIETE_DESCRIPTION');
#48=PERSON('ID_Validateur D\X\E9finition',
'DEFINITION_APPROVEDBY_LASTNAME','DEFINITION_APPROVEDBY_FIRSTNAME',$,$,$);
#49=PERSON('DEF_createrID','DEF_CREATOR_LASTNAME',
'DEF_CREATOR_FIRSTNAME',$,$,$);
#50=PERSON('ID Validateur','NOM_APPROBATEUR','PRENOM_APPROBATEUR',$,$,$);
#51=PERSON('SECURITY_approverID','SECURITY_LASTNAME',
'SECURITY_APPROVEDBY_FIRSTNAME',$,$,$);
#52=PERSON('classifierID','CLASSOFFICER_LASTNAME',
'CLASSOFFICER_FIRSTNAME',$,$,$);
#53=PERSON('Code cr\X\E9ateur','NOM_CREATEUR','PRENOM_CREATEUR',$,$,$);
#54=PERSON('Code fournisseur','SUPPLIER_LASTNAME','SUPPLIER_FIRSTNAME',$,
$,$);
#55=PERSON('ID propri\X\E9taire','PROPRIETAIRE_NOM',
'PROPRIETAIRE_PRENOM',$,$,$);
#56=PERSON_AND_ORGANIZATION(#48,#40);
#57=PERSON_AND_ORGANIZATION(#49,#41);
#58=PERSON_AND_ORGANIZATION(#50,#42);
#59=PERSON_AND_ORGANIZATION(#51,#43);
#60=PERSON_AND_ORGANIZATION(#52,#44);
#61=PERSON_AND_ORGANIZATION(#53,#45);
#62=PERSON_AND_ORGANIZATION(#54,#46);
#63=PERSON_AND_ORGANIZATION(#55,#47);
#64=APPROVAL_ROLE('definition_approval');
#65=APPROVAL_ROLE('version_approval');
#66=APPROVAL_ROLE('security_approval');
#67=APPROVAL_DATE_TIME(#85,#93);
#68=APPROVAL_DATE_TIME(#87,#94);
#69=APPROVAL_DATE_TIME(#88,#95);
#70=COORDINATED_UNIVERSAL_TIME_OFFSET(1,0,.AHEAD.);
#71=COORDINATED_UNIVERSAL_TIME_OFFSET(1,0,.AHEAD.);
#72=COORDINATED_UNIVERSAL_TIME_OFFSET(1,0,.AHEAD.);
#73=COORDINATED_UNIVERSAL_TIME_OFFSET(1,0,.AHEAD.);
#74=COORDINATED_UNIVERSAL_TIME_OFFSET(1,0,.AHEAD.);
#75=LOCAL_TIME(16,22,18.,#70);
#76=LOCAL_TIME(16,22,18.,#71);
#77=LOCAL_TIME(16,22,18.,#72);
#78=LOCAL_TIME(16,22,18.,#73);
#79=LOCAL_TIME(16,22,18.,#74);
#80=CALENDAR_DATE(2019,19,11);
#81=CALENDAR_DATE(2019,19,11);
#82=CALENDAR_DATE(2019,19,11);
#83=CALENDAR_DATE(2019,19,11);
#84=CALENDAR_DATE(2019,19,11);
#85=DATE_AND_TIME(#80,#75);
#86=DATE_AND_TIME(#81,#76);
#87=DATE_AND_TIME(#82,#77);
#88=DATE_AND_TIME(#83,#78);
#89=DATE_AND_TIME(#84,#79);
#90=APPROVAL_STATUS('not_yet_approved');
#91=APPROVAL_STATUS('not_yet_approved');
#92=APPROVAL_STATUS('not_yet_approved');
#93=APPROVAL(#90,'Concept valid\X\E9');
#94=APPROVAL(#91,'version approuv\X\E9e');
#95=APPROVAL(#92,'security approval');
#96=PRODUCT_DEFINITION('ID D\X\E9finition','Desc. D\X\E9finition',#97,#19);
#97=PRODUCT_DEFINITION_FORMATION_WITH_SPECIFIED_SOURCE(
'REFERENCE_PRODUIT','DESCR_VERSION_PRODUIT',#98,.NOT_KNOWN.);
#98=PRODUCT('ID_1','Glissi\X\E8re inox Flexicon','',(#10));
#99=(
LENGTH_UNIT()
NAMED_UNIT(*)
SI_UNIT(.CENTI.,.METRE.)
);
#100=(
NAMED_UNIT(*)
PLANE_ANGLE_UNIT()
SI_UNIT($,.RADIAN.)
);
#101=(
NAMED_UNIT(*)
SI_UNIT($,.STERADIAN.)
SOLID_ANGLE_UNIT()
);
#102=UNCERTAINTY_MEASURE_WITH_UNIT(LENGTH_MEASURE(1.E-006),#99,
'DISTANCE_ACCURACY_VALUE',
'Maximum model space distance between geometric entities at asserted co
nnectivities');
#103=(
GEOMETRIC_REPRESENTATION_CONTEXT(3)
GLOBAL_UNCERTAINTY_ASSIGNED_CONTEXT((#102))
GLOBAL_UNIT_ASSIGNED_CONTEXT((#101,#100,#99))
REPRESENTATION_CONTEXT('ID1','3D')
);
#104=CYLINDRICAL_SURFACE('',#500,0.2067);
#105=CYLINDRICAL_SURFACE('',#504,0.2067);
#106=CYLINDRICAL_SURFACE('',#506,0.25);
#107=CYLINDRICAL_SURFACE('',#510,0.25);
#108=CYLINDRICAL_SURFACE('',#514,0.25);
#109=CYLINDRICAL_SURFACE('',#518,0.25);
#110=CYLINDRICAL_SURFACE('',#522,0.25);
#111=VECTOR('',#660,1.);
#112=VECTOR('',#661,1.);
#113=VECTOR('',#662,1.);
#114=VECTOR('',#663,1.);
#115=VECTOR('',#717,1.);
#116=VECTOR('',#718,1.);
#117=VECTOR('',#719,1.);
#118=VECTOR('',#720,1.);
#119=VECTOR('',#722,1.);
#120=VECTOR('',#723,1.);
#121=VECTOR('',#724,1.);
#122=VECTOR('',#726,1.);
#123=VECTOR('',#727,1.);
#124=VECTOR('',#728,1.);
#125=VECTOR('',#729,1.);
#126=VECTOR('',#730,1.);
#127=VECTOR('',#732,1.);
#128=VECTOR('',#734,1.);
#129=VECTOR('',#735,1.);
#130=VECTOR('',#736,1.);
#131=VECTOR('',#738,1.);
#132=VECTOR('',#739,1.);
#133=VECTOR('',#741,1.);
#134=VECTOR('',#742,1.);
#135=LINE('',#553,#111);
#136=LINE('',#556,#112);
#137=LINE('',#558,#113);
#138=LINE('',#560,#114);
#139=LINE('',#601,#115);
#140=LINE('',#604,#116);
#141=LINE('',#606,#117);
#142=LINE('',#608,#118);
#143=LINE('',#610,#119);
#144=LINE('',#612,#120);
#145=LINE('',#614,#121);
#146=LINE('',#616,#122);
#147=LINE('',#617,#123);
#148=LINE('',#619,#124);
#149=LINE('',#621,#125);
#150=LINE('',#623,#126);
#151=LINE('',#625,#127);
#152=LINE('',#627,#128);
#153=LINE('',#629,#129);
#154=LINE('',#631,#130);
#155=LINE('',#633,#131);
#156=LINE('',#635,#132);
#157=LINE('',#637,#133);
#158=LINE('',#638,#134);
#159=PLANE('',#493);
#160=PLANE('',#526);
#161=PLANE('',#527);
#162=PLANE('',#528);
#163=PLANE('',#529);
#164=PLANE('',#530);
#165=PLANE('',#531);
#166=PLANE('',#532);
#167=PLANE('',#533);
#168=PLANE('',#534);
#169=VERTEX_POINT('',#537);
#170=VERTEX_POINT('',#539);
#171=VERTEX_POINT('',#542);
#172=VERTEX_POINT('',#544);
#173=VERTEX_POINT('',#546);
#174=VERTEX_POINT('',#548);
#175=VERTEX_POINT('',#550);
#176=VERTEX_POINT('',#552);
#177=VERTEX_POINT('',#554);
#178=VERTEX_POINT('',#555);
#179=VERTEX_POINT('',#557);
#180=VERTEX_POINT('',#559);
#181=VERTEX_POINT('',#563);
#182=VERTEX_POINT('',#566);
#183=VERTEX_POINT('',#569);
#184=VERTEX_POINT('',#572);
#185=VERTEX_POINT('',#574);
#186=VERTEX_POINT('',#578);
#187=VERTEX_POINT('',#580);
#188=VERTEX_POINT('',#584);
#189=VERTEX_POINT('',#586);
#190=VERTEX_POINT('',#590);
#191=VERTEX_POINT('',#592);
#192=VERTEX_POINT('',#596);
#193=VERTEX_POINT('',#598);
#194=VERTEX_POINT('',#602);
#195=VERTEX_POINT('',#603);
#196=VERTEX_POINT('',#605);
#197=VERTEX_POINT('',#607);
#198=VERTEX_POINT('',#611);
#199=VERTEX_POINT('',#613);
#200=VERTEX_POINT('',#618);
#201=VERTEX_POINT('',#620);
#202=VERTEX_POINT('',#622);
#203=VERTEX_POINT('',#628);
#204=VERTEX_POINT('',#630);
#205=VERTEX_POINT('',#634);
#206=CIRCLE('',#491,0.2067);
#207=CIRCLE('',#492,0.261699999999999);
#208=CIRCLE('',#494,0.261699999999999);
#209=CIRCLE('',#495,0.5);
#210=CIRCLE('',#496,0.5);
#211=CIRCLE('',#497,0.5);
#212=CIRCLE('',#498,0.5);
#213=CIRCLE('',#499,0.5);
#214=CIRCLE('',#501,0.2067);
#215=CIRCLE('',#503,0.2067);
#216=CIRCLE('',#505,0.2067);
#217=CIRCLE('',#507,0.25);
#218=CIRCLE('',#508,0.25);
#219=CIRCLE('',#511,0.25);
#220=CIRCLE('',#512,0.25);
#221=CIRCLE('',#515,0.25);
#222=CIRCLE('',#516,0.25);
#223=CIRCLE('',#519,0.25);
#224=CIRCLE('',#520,0.25);
#225=CIRCLE('',#523,0.25);
#226=CIRCLE('',#524,0.25);
#227=EDGE_CURVE('',#169,#169,#206,.T.);
#228=EDGE_CURVE('',#170,#170,#207,.T.);
#229=EDGE_CURVE('',#171,#171,#208,.T.);
#230=EDGE_CURVE('',#172,#172,#209,.T.);
#231=EDGE_CURVE('',#173,#173,#210,.T.);
#232=EDGE_CURVE('',#174,#174,#211,.T.);
#233=EDGE_CURVE('',#175,#175,#212,.T.);
#234=EDGE_CURVE('',#176,#176,#213,.T.);
#235=EDGE_CURVE('',#177,#178,#135,.T.);
#236=EDGE_CURVE('',#179,#177,#136,.T.);
#237=EDGE_CURVE('',#180,#179,#137,.T.);
#238=EDGE_CURVE('',#178,#180,#138,.T.);
#239=EDGE_CURVE('',#181,#181,#214,.T.);
#240=EDGE_CURVE('',#182,#182,#215,.T.);
#241=EDGE_CURVE('',#183,#183,#216,.T.);
#242=EDGE_CURVE('',#184,#184,#217,.T.);
#243=EDGE_CURVE('',#185,#185,#218,.T.);
#244=EDGE_CURVE('',#186,#186,#219,.T.);
#245=EDGE_CURVE('',#187,#187,#220,.T.);
#246=EDGE_CURVE('',#188,#188,#221,.T.);
#247=EDGE_CURVE('',#189,#189,#222,.T.);
#248=EDGE_CURVE('',#190,#190,#223,.T.);
#249=EDGE_CURVE('',#191,#191,#224,.T.);
#250=EDGE_CURVE('',#192,#192,#225,.T.);
#251=EDGE_CURVE('',#193,#193,#226,.T.);
#252=EDGE_CURVE('',#194,#195,#139,.T.);
#253=EDGE_CURVE('',#196,#194,#140,.T.);
#254=EDGE_CURVE('',#197,#196,#141,.T.);
#255=EDGE_CURVE('',#195,#197,#142,.T.);
#256=EDGE_CURVE('',#194,#198,#143,.T.);
#257=EDGE_CURVE('',#199,#195,#144,.T.);
#258=EDGE_CURVE('',#198,#199,#145,.T.);
#259=EDGE_CURVE('',#198,#180,#146,.T.);
#260=EDGE_CURVE('',#200,#179,#147,.T.);
#261=EDGE_CURVE('',#200,#201,#148,.T.);
#262=EDGE_CURVE('',#201,#202,#149,.T.);
#263=EDGE_CURVE('',#202,#196,#150,.T.);
#264=EDGE_CURVE('',#199,#178,#151,.T.);
#265=EDGE_CURVE('',#203,#201,#152,.T.);
#266=EDGE_CURVE('',#204,#203,#153,.T.);
#267=EDGE_CURVE('',#202,#204,#154,.T.);
#268=EDGE_CURVE('',#203,#205,#155,.T.);
#269=EDGE_CURVE('',#205,#200,#156,.T.);
#270=EDGE_CURVE('',#197,#204,#157,.T.);
#271=EDGE_CURVE('',#205,#177,#158,.T.);
#272=ORIENTED_EDGE('',*,*,#227,.T.);
#273=ORIENTED_EDGE('',*,*,#228,.T.);
#274=ORIENTED_EDGE('',*,*,#229,.F.);
#275=ORIENTED_EDGE('',*,*,#230,.T.);
#276=ORIENTED_EDGE('',*,*,#231,.T.);
#277=ORIENTED_EDGE('',*,*,#232,.T.);
#278=ORIENTED_EDGE('',*,*,#233,.T.);
#279=ORIENTED_EDGE('',*,*,#234,.T.);
#280=ORIENTED_EDGE('',*,*,#235,.F.);
#281=ORIENTED_EDGE('',*,*,#236,.F.);
#282=ORIENTED_EDGE('',*,*,#237,.F.);
#283=ORIENTED_EDGE('',*,*,#238,.F.);
#284=ORIENTED_EDGE('',*,*,#228,.F.);
#285=ORIENTED_EDGE('',*,*,#239,.F.);
#286=ORIENTED_EDGE('',*,*,#227,.F.);
#287=ORIENTED_EDGE('',*,*,#240,.T.);
#288=ORIENTED_EDGE('',*,*,#229,.T.);
#289=ORIENTED_EDGE('',*,*,#241,.F.);
#290=ORIENTED_EDGE('',*,*,#240,.F.);
#291=ORIENTED_EDGE('',*,*,#242,.T.);
#292=ORIENTED_EDGE('',*,*,#243,.F.);
#293=ORIENTED_EDGE('',*,*,#242,.F.);
#294=ORIENTED_EDGE('',*,*,#230,.F.);
#295=ORIENTED_EDGE('',*,*,#244,.T.);
#296=ORIENTED_EDGE('',*,*,#245,.F.);
#297=ORIENTED_EDGE('',*,*,#244,.F.);
#298=ORIENTED_EDGE('',*,*,#231,.F.);
#299=ORIENTED_EDGE('',*,*,#246,.T.);
#300=ORIENTED_EDGE('',*,*,#247,.F.);
#301=ORIENTED_EDGE('',*,*,#246,.F.);
#302=ORIENTED_EDGE('',*,*,#232,.F.);
#303=ORIENTED_EDGE('',*,*,#248,.T.);
#304=ORIENTED_EDGE('',*,*,#249,.F.);
#305=ORIENTED_EDGE('',*,*,#248,.F.);
#306=ORIENTED_EDGE('',*,*,#233,.F.);
#307=ORIENTED_EDGE('',*,*,#250,.T.);
#308=ORIENTED_EDGE('',*,*,#251,.F.);
#309=ORIENTED_EDGE('',*,*,#250,.F.);
#310=ORIENTED_EDGE('',*,*,#234,.F.);
#311=ORIENTED_EDGE('',*,*,#252,.F.);
#312=ORIENTED_EDGE('',*,*,#253,.F.);
#313=ORIENTED_EDGE('',*,*,#254,.F.);
#314=ORIENTED_EDGE('',*,*,#255,.F.);
#315=ORIENTED_EDGE('',*,*,#256,.F.);
#316=ORIENTED_EDGE('',*,*,#252,.T.);
#317=ORIENTED_EDGE('',*,*,#257,.F.);
#318=ORIENTED_EDGE('',*,*,#258,.F.);
#319=ORIENTED_EDGE('',*,*,#253,.T.);
#320=ORIENTED_EDGE('',*,*,#256,.T.);
#321=ORIENTED_EDGE('',*,*,#259,.T.);
#322=ORIENTED_EDGE('',*,*,#237,.T.);
#323=ORIENTED_EDGE('',*,*,#260,.F.);
#324=ORIENTED_EDGE('',*,*,#261,.T.);
#325=ORIENTED_EDGE('',*,*,#262,.T.);
#326=ORIENTED_EDGE('',*,*,#263,.T.);
#327=ORIENTED_EDGE('',*,*,#258,.T.);
#328=ORIENTED_EDGE('',*,*,#264,.T.);
#329=ORIENTED_EDGE('',*,*,#238,.T.);
#330=ORIENTED_EDGE('',*,*,#259,.F.);
#331=ORIENTED_EDGE('',*,*,#265,.F.);
#332=ORIENTED_EDGE('',*,*,#266,.F.);
#333=ORIENTED_EDGE('',*,*,#267,.F.);
#334=ORIENTED_EDGE('',*,*,#262,.F.);
#335=ORIENTED_EDGE('',*,*,#268,.F.);
#336=ORIENTED_EDGE('',*,*,#265,.T.);
#337=ORIENTED_EDGE('',*,*,#261,.F.);
#338=ORIENTED_EDGE('',*,*,#269,.F.);
#339=ORIENTED_EDGE('',*,*,#255,.T.);
#340=ORIENTED_EDGE('',*,*,#270,.T.);
#341=ORIENTED_EDGE('',*,*,#266,.T.);
#342=ORIENTED_EDGE('',*,*,#268,.T.);
#343=ORIENTED_EDGE('',*,*,#271,.T.);
#344=ORIENTED_EDGE('',*,*,#235,.T.);
#345=ORIENTED_EDGE('',*,*,#264,.F.);
#346=ORIENTED_EDGE('',*,*,#257,.T.);
#347=ORIENTED_EDGE('',*,*,#269,.T.);
#348=ORIENTED_EDGE('',*,*,#260,.T.);
#349=ORIENTED_EDGE('',*,*,#236,.T.);
#350=ORIENTED_EDGE('',*,*,#271,.F.);
#351=ORIENTED_EDGE('',*,*,#239,.T.);
#352=ORIENTED_EDGE('',*,*,#241,.T.);
#353=ORIENTED_EDGE('',*,*,#243,.T.);
#354=ORIENTED_EDGE('',*,*,#245,.T.);
#355=ORIENTED_EDGE('',*,*,#247,.T.);
#356=ORIENTED_EDGE('',*,*,#249,.T.);
#357=ORIENTED_EDGE('',*,*,#251,.T.);
#358=ORIENTED_EDGE('',*,*,#254,.T.);
#359=ORIENTED_EDGE('',*,*,#263,.F.);
#360=ORIENTED_EDGE('',*,*,#267,.T.);
#361=ORIENTED_EDGE('',*,*,#270,.F.);
#362=EDGE_LOOP('',(#272));
#363=EDGE_LOOP('',(#273));
#364=EDGE_LOOP('',(#274));
#365=EDGE_LOOP('',(#275));
#366=EDGE_LOOP('',(#276));
#367=EDGE_LOOP('',(#277));
#368=EDGE_LOOP('',(#278));
#369=EDGE_LOOP('',(#279));
#370=EDGE_LOOP('',(#280,#281,#282,#283));
#371=EDGE_LOOP('',(#284));
#372=EDGE_LOOP('',(#285));
#373=EDGE_LOOP('',(#286));
#374=EDGE_LOOP('',(#287));
#375=EDGE_LOOP('',(#288));
#376=EDGE_LOOP('',(#289));
#377=EDGE_LOOP('',(#290));
#378=EDGE_LOOP('',(#291));
#379=EDGE_LOOP('',(#292));
#380=EDGE_LOOP('',(#293));
#381=EDGE_LOOP('',(#294));
#382=EDGE_LOOP('',(#295));
#383=EDGE_LOOP('',(#296));
#384=EDGE_LOOP('',(#297));
#385=EDGE_LOOP('',(#298));
#386=EDGE_LOOP('',(#299));
#387=EDGE_LOOP('',(#300));
#388=EDGE_LOOP('',(#301));
#389=EDGE_LOOP('',(#302));
#390=EDGE_LOOP('',(#303));
#391=EDGE_LOOP('',(#304));
#392=EDGE_LOOP('',(#305));
#393=EDGE_LOOP('',(#306));
#394=EDGE_LOOP('',(#307));
#395=EDGE_LOOP('',(#308));
#396=EDGE_LOOP('',(#309));
#397=EDGE_LOOP('',(#310));
#398=EDGE_LOOP('',(#311,#312,#313,#314));
#399=EDGE_LOOP('',(#315,#316,#317,#318));
#400=EDGE_LOOP('',(#319,#320,#321,#322,#323,#324,#325,#326));
#401=EDGE_LOOP('',(#327,#328,#329,#330));
#402=EDGE_LOOP('',(#331,#332,#333,#334));
#403=EDGE_LOOP('',(#335,#336,#337,#338));
#404=EDGE_LOOP('',(#339,#340,#341,#342,#343,#344,#345,#346));
#405=EDGE_LOOP('',(#347,#348,#349,#350));
#406=EDGE_LOOP('',(#351));
#407=EDGE_LOOP('',(#352));
#408=EDGE_LOOP('',(#353));
#409=EDGE_LOOP('',(#354));
#410=EDGE_LOOP('',(#355));
#411=EDGE_LOOP('',(#356));
#412=EDGE_LOOP('',(#357));
#413=EDGE_LOOP('',(#358,#359,#360,#361));
#414=FACE_BOUND('',#362,.T.);
#415=FACE_BOUND('',#363,.T.);
#416=FACE_BOUND('',#364,.T.);
#417=FACE_BOUND('',#365,.T.);
#418=FACE_BOUND('',#366,.T.);
#419=FACE_BOUND('',#367,.T.);
#420=FACE_BOUND('',#368,.T.);
#421=FACE_BOUND('',#369,.T.);
#422=FACE_BOUND('',#370,.T.);
#423=FACE_BOUND('',#371,.T.);
#424=FACE_BOUND('',#372,.T.);
#425=FACE_BOUND('',#373,.T.);
#426=FACE_BOUND('',#374,.T.);
#427=FACE_BOUND('',#375,.T.);
#428=FACE_BOUND('',#376,.T.);
#429=FACE_BOUND('',#377,.T.);
#430=FACE_BOUND('',#378,.T.);
#431=FACE_BOUND('',#379,.T.);
#432=FACE_BOUND('',#380,.T.);
#433=FACE_BOUND('',#381,.T.);
#434=FACE_BOUND('',#382,.T.);
#435=FACE_BOUND('',#383,.T.);
#436=FACE_BOUND('',#384,.T.);
#437=FACE_BOUND('',#385,.T.);
#438=FACE_BOUND('',#386,.T.);
#439=FACE_BOUND('',#387,.T.);
#440=FACE_BOUND('',#388,.T.);
#441=FACE_BOUND('',#389,.T.);
#442=FACE_BOUND('',#390,.T.);
#443=FACE_BOUND('',#391,.T.);
#444=FACE_BOUND('',#392,.T.);
#445=FACE_BOUND('',#393,.T.);
#446=FACE_BOUND('',#394,.T.);
#447=FACE_BOUND('',#395,.T.);
#448=FACE_BOUND('',#396,.T.);
#449=FACE_BOUND('',#397,.T.);
#450=FACE_BOUND('',#398,.T.);
#451=FACE_BOUND('',#399,.T.);
#452=FACE_BOUND('',#400,.T.);
#453=FACE_BOUND('',#401,.T.);
#454=FACE_BOUND('',#402,.T.);
#455=FACE_BOUND('',#403,.T.);
#456=FACE_BOUND('',#404,.T.);
#457=FACE_BOUND('',#405,.T.);
#458=FACE_BOUND('',#406,.T.);
#459=FACE_BOUND('',#407,.T.);
#460=FACE_BOUND('',#408,.T.);
#461=FACE_BOUND('',#409,.T.);
#462=FACE_BOUND('',#410,.T.);
#463=FACE_BOUND('',#411,.T.);
#464=FACE_BOUND('',#412,.T.);
#465=FACE_BOUND('',#413,.T.);
#466=ADVANCED_FACE('',(#414,#415),#745,.F.);
#467=ADVANCED_FACE('',(#416,#417,#418,#419,#420,#421,#422,#423),#159,.T.);
#468=ADVANCED_FACE('',(#424,#425),#104,.F.);
#469=ADVANCED_FACE('',(#426,#427),#746,.F.);
#470=ADVANCED_FACE('',(#428,#429),#105,.F.);
#471=ADVANCED_FACE('',(#430,#431),#106,.F.);
#472=ADVANCED_FACE('',(#432,#433),#747,.F.);
#473=ADVANCED_FACE('',(#434,#435),#107,.F.);
#474=ADVANCED_FACE('',(#436,#437),#748,.F.);
#475=ADVANCED_FACE('',(#438,#439),#108,.F.);
#476=ADVANCED_FACE('',(#440,#441),#749,.F.);
#477=ADVANCED_FACE('',(#442,#443),#109,.F.);
#478=ADVANCED_FACE('',(#444,#445),#750,.F.);
#479=ADVANCED_FACE('',(#446,#447),#110,.F.);
#480=ADVANCED_FACE('',(#448,#449),#751,.F.);
#481=ADVANCED_FACE('',(#450),#160,.F.);
#482=ADVANCED_FACE('',(#451),#161,.F.);
#483=ADVANCED_FACE('',(#452),#162,.T.);
#484=ADVANCED_FACE('',(#453),#163,.T.);
#485=ADVANCED_FACE('',(#454),#164,.F.);
#486=ADVANCED_FACE('',(#455),#165,.F.);
#487=ADVANCED_FACE('',(#456),#166,.T.);
#488=ADVANCED_FACE('',(#457),#167,.T.);
#489=ADVANCED_FACE('',(#458,#459,#460,#461,#462,#463,#464,#465),#168,.F.);
#490=AXIS2_PLACEMENT_3D('',#535,#641,#642);
#491=AXIS2_PLACEMENT_3D('',#536,#643,#644);
#492=AXIS2_PLACEMENT_3D('',#538,#645,#646);
#493=AXIS2_PLACEMENT_3D('',#540,#647,$);
#494=AXIS2_PLACEMENT_3D('',#541,#648,#649);
#495=AXIS2_PLACEMENT_3D('',#543,#650,#651);
#496=AXIS2_PLACEMENT_3D('',#545,#652,#653);
#497=AXIS2_PLACEMENT_3D('',#547,#654,#655);
#498=AXIS2_PLACEMENT_3D('',#549,#656,#657);
#499=AXIS2_PLACEMENT_3D('',#551,#658,#659);
#500=AXIS2_PLACEMENT_3D('',#561,#664,#665);
#501=AXIS2_PLACEMENT_3D('',#562,#666,#667);
#502=AXIS2_PLACEMENT_3D('',#564,#668,#669);
#503=AXIS2_PLACEMENT_3D('',#565,#670,#671);
#504=AXIS2_PLACEMENT_3D('',#567,#672,#673);
#505=AXIS2_PLACEMENT_3D('',#568,#674,#675);
#506=AXIS2_PLACEMENT_3D('',#570,#676,#677);
#507=AXIS2_PLACEMENT_3D('',#571,#678,#679);
#508=AXIS2_PLACEMENT_3D('',#573,#680,#681);
#509=AXIS2_PLACEMENT_3D('',#575,#682,#683);
#510=AXIS2_PLACEMENT_3D('',#576,#684,#685);
#511=AXIS2_PLACEMENT_3D('',#577,#686,#687);
#512=AXIS2_PLACEMENT_3D('',#579,#688,#689);
#513=AXIS2_PLACEMENT_3D('',#581,#690,#691);
#514=AXIS2_PLACEMENT_3D('',#582,#692,#693);
#515=AXIS2_PLACEMENT_3D('',#583,#694,#695);
#516=AXIS2_PLACEMENT_3D('',#585,#696,#697);
#517=AXIS2_PLACEMENT_3D('',#587,#698,#699);
#518=AXIS2_PLACEMENT_3D('',#588,#700,#701);
#519=AXIS2_PLACEMENT_3D('',#589,#702,#703);
#520=AXIS2_PLACEMENT_3D('',#591,#704,#705);
#521=AXIS2_PLACEMENT_3D('',#593,#706,#707);
#522=AXIS2_PLACEMENT_3D('',#594,#708,#709);
#523=AXIS2_PLACEMENT_3D('',#595,#710,#711);
#524=AXIS2_PLACEMENT_3D('',#597,#712,#713);
#525=AXIS2_PLACEMENT_3D('',#599,#714,#715);
#526=AXIS2_PLACEMENT_3D('',#600,#716,$);
#527=AXIS2_PLACEMENT_3D('',#609,#721,$);
#528=AXIS2_PLACEMENT_3D('',#615,#725,$);
#529=AXIS2_PLACEMENT_3D('',#624,#731,$);
#530=AXIS2_PLACEMENT_3D('',#626,#733,$);
#531=AXIS2_PLACEMENT_3D('',#632,#737,$);
#532=AXIS2_PLACEMENT_3D('',#636,#740,$);
#533=AXIS2_PLACEMENT_3D('',#639,#743,$);
#534=AXIS2_PLACEMENT_3D('',#640,#744,$);
#535=CARTESIAN_POINT('',(1.2,4.85,0.6));
#536=CARTESIAN_POINT('',(1.2,4.85,0.545));
#537=CARTESIAN_POINT('',(1.2,5.0567,0.545));
#538=CARTESIAN_POINT('',(1.2,4.85,0.6));
#539=CARTESIAN_POINT('',(1.2,5.1117,0.6));
#540=CARTESIAN_POINT('',(0.,0.,0.6));
#541=CARTESIAN_POINT('',(-1.2,4.85,0.6));
#542=CARTESIAN_POINT('',(-1.2,5.1117,0.6));
#543=CARTESIAN_POINT('',(0.,-9.7,0.6));
#544=CARTESIAN_POINT('',(0.,-9.2,0.6));
#545=CARTESIAN_POINT('',(0.,-4.85,0.6));
#546=CARTESIAN_POINT('',(0.,-4.35,0.6));
#547=CARTESIAN_POINT('',(0.,1.77635683940025E-015,0.6));
#548=CARTESIAN_POINT('',(0.,0.500000000000002,0.6));
#549=CARTESIAN_POINT('',(0.,4.85,0.6));
#550=CARTESIAN_POINT('',(0.,5.35,0.6));
#551=CARTESIAN_POINT('',(0.,9.7,0.6));
#552=CARTESIAN_POINT('',(0.,10.2,0.6));
#553=CARTESIAN_POINT('',(2.8,10.7,0.6));
#554=CARTESIAN_POINT('',(-2.8,10.7,0.6));
#555=CARTESIAN_POINT('',(2.8,10.7,0.6));
#556=CARTESIAN_POINT('',(-2.8,10.7,0.6));
#557=CARTESIAN_POINT('',(-2.8,-10.7,0.6));
#558=CARTESIAN_POINT('',(-2.8,-10.7,0.6));
#559=CARTESIAN_POINT('',(2.8,-10.7,0.6));
#560=CARTESIAN_POINT('',(2.8,-10.7,0.6));
#561=CARTESIAN_POINT('',(1.2,4.85,0.6));
#562=CARTESIAN_POINT('',(1.2,4.85,0.));
#563=CARTESIAN_POINT('',(1.2,5.0567,0.));
#564=CARTESIAN_POINT('',(-1.2,4.85,0.6));
#565=CARTESIAN_POINT('',(-1.2,4.85,0.545));
#566=CARTESIAN_POINT('',(-1.2,5.0567,0.545));
#567=CARTESIAN_POINT('',(-1.2,4.85,0.6));
#568=CARTESIAN_POINT('',(-1.2,4.85,0.));
#569=CARTESIAN_POINT('',(-1.2,5.0567,0.));
#570=CARTESIAN_POINT('',(0.,-9.7,0.6));
#571=CARTESIAN_POINT('',(0.,-9.7,0.35));
#572=CARTESIAN_POINT('',(0.,-9.45,0.35));
#573=CARTESIAN_POINT('',(0.,-9.7,0.));
#574=CARTESIAN_POINT('',(0.,-9.45,0.));
#575=CARTESIAN_POINT('',(0.,-9.7,0.6));
#576=CARTESIAN_POINT('',(0.,-4.85,0.6));
#577=CARTESIAN_POINT('',(0.,-4.85,0.35));
#578=CARTESIAN_POINT('',(0.,-4.6,0.35));
#579=CARTESIAN_POINT('',(0.,-4.85,0.));
#580=CARTESIAN_POINT('',(0.,-4.6,0.));
#581=CARTESIAN_POINT('',(0.,-4.85,0.6));
#582=CARTESIAN_POINT('',(0.,1.77635683940025E-015,0.6));
#583=CARTESIAN_POINT('',(0.,1.77635683940025E-015,0.35));
#584=CARTESIAN_POINT('',(0.,0.250000000000002,0.35));
#585=CARTESIAN_POINT('',(0.,1.77635683940025E-015,0.));
#586=CARTESIAN_POINT('',(0.,0.250000000000002,0.));
#587=CARTESIAN_POINT('',(0.,1.77635683940025E-015,0.6));
#588=CARTESIAN_POINT('',(0.,4.85,0.6));
#589=CARTESIAN_POINT('',(0.,4.85,0.35));
#590=CARTESIAN_POINT('',(0.,5.1,0.35));
#591=CARTESIAN_POINT('',(0.,4.85,0.));
#592=CARTESIAN_POINT('',(0.,5.1,0.));
#593=CARTESIAN_POINT('',(0.,4.85,0.6));
#594=CARTESIAN_POINT('',(0.,9.7,0.6));
#595=CARTESIAN_POINT('',(0.,9.7,0.35));
#596=CARTESIAN_POINT('',(0.,9.95,0.35));
#597=CARTESIAN_POINT('',(0.,9.7,0.));
#598=CARTESIAN_POINT('',(0.,9.95,0.));
#599=CARTESIAN_POINT('',(0.,9.7,0.6));
#600=CARTESIAN_POINT('',(2.485,0.,0.));
#601=CARTESIAN_POINT('',(2.485,-10.7,0.275));
#602=CARTESIAN_POINT('',(2.485,-10.7,0.275));
#603=CARTESIAN_POINT('',(2.485,10.7,0.275));
#604=CARTESIAN_POINT('',(2.485,-10.7,0.));
#605=CARTESIAN_POINT('',(2.485,-10.7,0.));
#606=CARTESIAN_POINT('',(2.485,0.,0.));
#607=CARTESIAN_POINT('',(2.485,10.7,0.));
#608=CARTESIAN_POINT('',(2.485,10.7,0.));
#609=CARTESIAN_POINT('',(2.6425,0.,0.275));
#610=CARTESIAN_POINT('',(1.32125,-10.7,0.275));
#611=CARTESIAN_POINT('',(2.8,-10.7,0.275));
#612=CARTESIAN_POINT('',(1.32125,10.7,0.275));
#613=CARTESIAN_POINT('',(2.8,10.7,0.275));
#614=CARTESIAN_POINT('',(2.8,0.,0.275));
#615=CARTESIAN_POINT('',(0.,-10.7,0.));
#616=CARTESIAN_POINT('',(2.8,-10.7,0.));
#617=CARTESIAN_POINT('',(-2.8,-10.7,0.));
#618=CARTESIAN_POINT('',(-2.8,-10.7,0.275));
#619=CARTESIAN_POINT('',(-1.32125,-10.7,0.275));
#620=CARTESIAN_POINT('',(-2.485,-10.7,0.275));
#621=CARTESIAN_POINT('',(-2.485,-10.7,0.));
#622=CARTESIAN_POINT('',(-2.485,-10.7,0.));
#623=CARTESIAN_POINT('',(-2.8,-10.7,0.));
#624=CARTESIAN_POINT('',(2.8,0.,0.));
#625=CARTESIAN_POINT('',(2.8,10.7,0.));
#626=CARTESIAN_POINT('',(-2.485,0.,0.));
#627=CARTESIAN_POINT('',(-2.485,-10.7,0.275));
#628=CARTESIAN_POINT('',(-2.485,10.7,0.275));
#629=CARTESIAN_POINT('',(-2.485,10.7,0.));
#630=CARTESIAN_POINT('',(-2.485,10.7,0.));
#631=CARTESIAN_POINT('',(-2.485,0.,0.));
#632=CARTESIAN_POINT('',(-2.6425,0.,0.275));
#633=CARTESIAN_POINT('',(-1.32125,10.7,0.275));
#634=CARTESIAN_POINT('',(-2.8,10.7,0.275));
#635=CARTESIAN_POINT('',(-2.8,0.,0.275));
#636=CARTESIAN_POINT('',(0.,10.7,0.));
#637=CARTESIAN_POINT('',(2.8,10.7,0.));
#638=CARTESIAN_POINT('',(-2.8,10.7,0.));
#639=CARTESIAN_POINT('',(-2.8,0.,0.));
#640=CARTESIAN_POINT('',(0.,0.,0.));
#641=DIRECTION('',(0.,0.,1.));
#642=DIRECTION('',(0.,-0.261699999999999,0.));
#643=DIRECTION('',(0.,0.,-1.));
#644=DIRECTION('',(0.,-0.2067,0.));
#645=DIRECTION('',(0.,0.,1.));
#646=DIRECTION('',(0.,-0.261699999999999,0.));
#647=DIRECTION('',(0.,0.,1.));
#648=DIRECTION('',(0.,0.,1.));
#649=DIRECTION('',(0.,-0.261699999999999,0.));
#650=DIRECTION('',(0.,0.,-1.));
#651=DIRECTION('',(0.,0.5,0.));
#652=DIRECTION('',(0.,0.,-1.));
#653=DIRECTION('',(0.,0.5,0.));
#654=DIRECTION('',(0.,0.,-1.));
#655=DIRECTION('',(0.,0.5,0.));
#656=DIRECTION('',(0.,0.,-1.));
#657=DIRECTION('',(0.,0.5,0.));
#658=DIRECTION('',(0.,0.,-1.));
#659=DIRECTION('',(0.,0.5,0.));
#660=DIRECTION('',(1.,0.,0.));
#661=DIRECTION('',(0.,1.,0.));
#662=DIRECTION('',(-1.,0.,0.));
#663=DIRECTION('',(0.,-1.,0.));
#664=DIRECTION('',(0.,0.,-1.));
#665=DIRECTION('',(0.,0.2067,0.));
#666=DIRECTION('',(0.,0.,1.));
#667=DIRECTION('',(0.,0.2067,0.));
#668=DIRECTION('',(0.,0.,1.));
#669=DIRECTION('',(0.,-0.261699999999999,0.));
#670=DIRECTION('',(0.,0.,-1.));
#671=DIRECTION('',(0.,-0.2067,0.));
#672=DIRECTION('',(0.,0.,-1.));
#673=DIRECTION('',(0.,0.2067,0.));
#674=DIRECTION('',(0.,0.,1.));
#675=DIRECTION('',(0.,0.2067,0.));
#676=DIRECTION('',(0.,0.,-1.));
#677=DIRECTION('',(0.,0.25,0.));
#678=DIRECTION('',(0.,0.,1.));
#679=DIRECTION('',(0.,0.25,0.));
#680=DIRECTION('',(0.,0.,1.));
#681=DIRECTION('',(0.,0.25,0.));
#682=DIRECTION('',(0.,0.,1.));
#683=DIRECTION('',(0.,0.5,0.));
#684=DIRECTION('',(0.,0.,-1.));
#685=DIRECTION('',(0.,0.25,0.));
#686=DIRECTION('',(0.,0.,1.));
#687=DIRECTION('',(0.,0.25,0.));
#688=DIRECTION('',(0.,0.,1.));
#689=DIRECTION('',(0.,0.25,0.));
#690=DIRECTION('',(0.,0.,1.));
#691=DIRECTION('',(0.,0.5,0.));
#692=DIRECTION('',(0.,0.,-1.));
#693=DIRECTION('',(0.,0.25,0.));
#694=DIRECTION('',(0.,0.,1.));
#695=DIRECTION('',(0.,0.25,0.));
#696=DIRECTION('',(0.,0.,1.));
#697=DIRECTION('',(0.,0.25,0.));
#698=DIRECTION('',(0.,0.,1.));
#699=DIRECTION('',(0.,0.5,0.));
#700=DIRECTION('',(0.,0.,-1.));
#701=DIRECTION('',(0.,0.25,0.));
#702=DIRECTION('',(0.,0.,1.));
#703=DIRECTION('',(0.,0.25,0.));
#704=DIRECTION('',(0.,0.,1.));
#705=DIRECTION('',(0.,0.25,0.));
#706=DIRECTION('',(0.,0.,1.));
#707=DIRECTION('',(0.,0.5,0.));
#708=DIRECTION('',(0.,0.,-1.));
#709=DIRECTION('',(0.,0.25,0.));
#710=DIRECTION('',(0.,0.,1.));
#711=DIRECTION('',(0.,0.25,0.));
#712=DIRECTION('',(0.,0.,1.));
#713=DIRECTION('',(0.,0.25,0.));
#714=DIRECTION('',(0.,0.,1.));
#715=DIRECTION('',(0.,0.5,0.));
#716=DIRECTION('',(-1.,0.,0.));
#717=DIRECTION('',(0.,1.,0.));
#718=DIRECTION('',(0.,0.,1.));
#719=DIRECTION('',(0.,-1.,0.));
#720=DIRECTION('',(0.,0.,-1.));
#721=DIRECTION('',(0.,0.,1.));
#722=DIRECTION('',(1.,0.,0.));
#723=DIRECTION('',(-1.,0.,0.));
#724=DIRECTION('',(0.,1.,0.));
#725=DIRECTION('',(0.,-1.,0.));
#726=DIRECTION('',(0.,0.,1.));
#727=DIRECTION('',(0.,0.,1.));
#728=DIRECTION('',(1.,0.,0.));
#729=DIRECTION('',(0.,0.,-1.));
#730=DIRECTION('',(1.,0.,0.));
#731=DIRECTION('',(1.,0.,0.));
#732=DIRECTION('',(0.,0.,1.));
#733=DIRECTION('',(1.,0.,0.));
#734=DIRECTION('',(0.,-1.,0.));
#735=DIRECTION('',(0.,0.,1.));
#736=DIRECTION('',(0.,1.,0.));
#737=DIRECTION('',(0.,0.,1.));
#738=DIRECTION('',(-1.,0.,0.));
#739=DIRECTION('',(0.,-1.,0.));
#740=DIRECTION('',(0.,1.,0.));
#741=DIRECTION('',(-1.,0.,0.));
#742=DIRECTION('',(0.,0.,1.));
#743=DIRECTION('',(-1.,0.,0.));
#744=DIRECTION('',(0.,0.,1.));
#745=CONICAL_SURFACE('',#490,0.261699999999999,0.785398163397448);
#746=CONICAL_SURFACE('',#502,0.261699999999999,0.785398163397448);
#747=CONICAL_SURFACE('',#509,0.5,0.785398163397448);
#748=CONICAL_SURFACE('',#513,0.5,0.785398163397448);
#749=CONICAL_SURFACE('',#517,0.5,0.785398163397448);
#750=CONICAL_SURFACE('',#521,0.5,0.785398163397448);
#751=CONICAL_SURFACE('',#525,0.5,0.785398163397448);
#752=CLOSED_SHELL('',(#466,#467,#468,#469,#470,#471,#472,#473,#474,#475,
#476,#477,#478,#479,#480,#481,#482,#483,#484,#485,#486,#487,#488,#489));
#753=MANIFOLD_SOLID_BREP('',#752);
#754=ADVANCED_BREP_SHAPE_REPRESENTATION('',(#753),#103);
ENDSEC;
END-ISO-10303-21;
