ISO-10303-21;
HEADER;
/* Generated by software containing ST-Developer
 * from STEP Tools, Inc. (www.steptools.com) 
 */

FILE_DESCRIPTION(
/* description */ (''),
/* implementation_level */ '2;1');

FILE_NAME(
/* name */ 
'C:\\Users\\louis.petitjean\\Desktop\\GSE-1201-000-000-A Thruster Bala
nce\\.Manufacturing parts\\GSE-1201-031-001-A (adaptateur pivot_thorla
bs XT66).stp',
/* time_stamp */ '2019-10-24T14:30:46+02:00',
/* author */ ('louis.petitjean'),
/* organization */ ('EXOTRAIL'),
/* preprocessor_version */ 'ST-DEVELOPER v18',
/* originating_system */ 'Autodesk Inventor 2020',
/* authorisation */ '');

FILE_SCHEMA (('AUTOMOTIVE_DESIGN { 1 0 10303 214 3 1 1 }'));
ENDSEC;

DATA;
#10=MECHANICAL_DESIGN_GEOMETRIC_PRESENTATION_REPRESENTATION('',(#13),#522);
#11=SHAPE_REPRESENTATION_RELATIONSHIP('SRR','None',#529,#12);
#12=ADVANCED_BREP_SHAPE_REPRESENTATION('',(#14),#521);
#13=STYLED_ITEM('',(#538),#14);
#14=MANIFOLD_SOLID_BREP('Solide1',#298);
#15=FACE_BOUND('',#60,.T.);
#16=FACE_BOUND('',#61,.T.);
#17=FACE_BOUND('',#62,.T.);
#18=FACE_BOUND('',#63,.T.);
#19=FACE_BOUND('',#64,.T.);
#20=FACE_BOUND('',#65,.T.);
#21=FACE_BOUND('',#66,.T.);
#22=FACE_BOUND('',#68,.T.);
#23=FACE_BOUND('',#69,.T.);
#24=FACE_BOUND('',#70,.T.);
#25=FACE_BOUND('',#71,.T.);
#26=FACE_BOUND('',#72,.T.);
#27=FACE_BOUND('',#73,.T.);
#28=FACE_BOUND('',#74,.T.);
#29=PLANE('',#345);
#30=PLANE('',#346);
#31=PLANE('',#347);
#32=PLANE('',#348);
#33=PLANE('',#349);
#34=PLANE('',#350);
#35=FACE_OUTER_BOUND('',#48,.T.);
#36=FACE_OUTER_BOUND('',#49,.T.);
#37=FACE_OUTER_BOUND('',#50,.T.);
#38=FACE_OUTER_BOUND('',#51,.T.);
#39=FACE_OUTER_BOUND('',#52,.T.);
#40=FACE_OUTER_BOUND('',#53,.T.);
#41=FACE_OUTER_BOUND('',#54,.T.);
#42=FACE_OUTER_BOUND('',#55,.T.);
#43=FACE_OUTER_BOUND('',#56,.T.);
#44=FACE_OUTER_BOUND('',#57,.T.);
#45=FACE_OUTER_BOUND('',#58,.T.);
#46=FACE_OUTER_BOUND('',#59,.T.);
#47=FACE_OUTER_BOUND('',#67,.T.);
#48=EDGE_LOOP('',(#200,#201,#202,#203,#204));
#49=EDGE_LOOP('',(#205,#206,#207,#208,#209));
#50=EDGE_LOOP('',(#210,#211,#212,#213,#214));
#51=EDGE_LOOP('',(#215,#216,#217,#218,#219));
#52=EDGE_LOOP('',(#220,#221,#222,#223,#224));
#53=EDGE_LOOP('',(#225,#226,#227,#228,#229));
#54=EDGE_LOOP('',(#230,#231,#232,#233));
#55=EDGE_LOOP('',(#234,#235,#236,#237));
#56=EDGE_LOOP('',(#238,#239,#240,#241));
#57=EDGE_LOOP('',(#242,#243,#244,#245));
#58=EDGE_LOOP('',(#246,#247,#248,#249));
#59=EDGE_LOOP('',(#250,#251,#252,#253));
#60=EDGE_LOOP('',(#254,#255));
#61=EDGE_LOOP('',(#256,#257));
#62=EDGE_LOOP('',(#258,#259));
#63=EDGE_LOOP('',(#260,#261));
#64=EDGE_LOOP('',(#262,#263));
#65=EDGE_LOOP('',(#264,#265));
#66=EDGE_LOOP('',(#266));
#67=EDGE_LOOP('',(#267,#268,#269,#270));
#68=EDGE_LOOP('',(#271));
#69=EDGE_LOOP('',(#272));
#70=EDGE_LOOP('',(#273));
#71=EDGE_LOOP('',(#274));
#72=EDGE_LOOP('',(#275));
#73=EDGE_LOOP('',(#276));
#74=EDGE_LOOP('',(#277));
#75=LINE('',#445,#94);
#76=LINE('',#453,#95);
#77=LINE('',#461,#96);
#78=LINE('',#469,#97);
#79=LINE('',#477,#98);
#80=LINE('',#485,#99);
#81=LINE('',#491,#100);
#82=LINE('',#496,#101);
#83=LINE('',#498,#102);
#84=LINE('',#500,#103);
#85=LINE('',#501,#104);
#86=LINE('',#504,#105);
#87=LINE('',#506,#106);
#88=LINE('',#507,#107);
#89=LINE('',#510,#108);
#90=LINE('',#512,#109);
#91=LINE('',#513,#110);
#92=LINE('',#515,#111);
#93=LINE('',#516,#112);
#94=VECTOR('',#359,1.45);
#95=VECTOR('',#368,1.45);
#96=VECTOR('',#377,1.45);
#97=VECTOR('',#386,1.45);
#98=VECTOR('',#395,3.4585);
#99=VECTOR('',#404,3.4585);
#100=VECTOR('',#411,10.);
#101=VECTOR('',#416,10.);
#102=VECTOR('',#417,10.);
#103=VECTOR('',#418,10.);
#104=VECTOR('',#419,10.);
#105=VECTOR('',#422,10.);
#106=VECTOR('',#423,10.);
#107=VECTOR('',#424,10.);
#108=VECTOR('',#427,10.);
#109=VECTOR('',#428,10.);
#110=VECTOR('',#429,10.);
#111=VECTOR('',#432,10.);
#112=VECTOR('',#433,10.);
#113=CIRCLE('',#319,1.45);
#114=CIRCLE('',#320,1.45);
#115=CIRCLE('',#321,1.45);
#116=CIRCLE('',#323,1.45);
#117=CIRCLE('',#324,1.45);
#118=CIRCLE('',#325,1.45);
#119=CIRCLE('',#327,1.45);
#120=CIRCLE('',#328,1.45);
#121=CIRCLE('',#329,1.45);
#122=CIRCLE('',#331,1.45);
#123=CIRCLE('',#332,1.45);
#124=CIRCLE('',#333,1.45);
#125=CIRCLE('',#335,3.4585);
#126=CIRCLE('',#336,3.4585);
#127=CIRCLE('',#337,3.4585);
#128=CIRCLE('',#339,3.4585);
#129=CIRCLE('',#340,3.4585);
#130=CIRCLE('',#341,3.4585);
#131=CIRCLE('',#343,10.);
#132=CIRCLE('',#344,10.);
#133=VERTEX_POINT('',#440);
#134=VERTEX_POINT('',#441);
#135=VERTEX_POINT('',#444);
#136=VERTEX_POINT('',#448);
#137=VERTEX_POINT('',#449);
#138=VERTEX_POINT('',#452);
#139=VERTEX_POINT('',#456);
#140=VERTEX_POINT('',#457);
#141=VERTEX_POINT('',#460);
#142=VERTEX_POINT('',#464);
#143=VERTEX_POINT('',#465);
#144=VERTEX_POINT('',#468);
#145=VERTEX_POINT('',#472);
#146=VERTEX_POINT('',#473);
#147=VERTEX_POINT('',#476);
#148=VERTEX_POINT('',#480);
#149=VERTEX_POINT('',#481);
#150=VERTEX_POINT('',#484);
#151=VERTEX_POINT('',#488);
#152=VERTEX_POINT('',#490);
#153=VERTEX_POINT('',#494);
#154=VERTEX_POINT('',#495);
#155=VERTEX_POINT('',#497);
#156=VERTEX_POINT('',#499);
#157=VERTEX_POINT('',#503);
#158=VERTEX_POINT('',#505);
#159=VERTEX_POINT('',#509);
#160=VERTEX_POINT('',#511);
#161=EDGE_CURVE('',#133,#134,#113,.T.);
#162=EDGE_CURVE('',#134,#133,#114,.T.);
#163=EDGE_CURVE('',#134,#135,#75,.T.);
#164=EDGE_CURVE('',#135,#135,#115,.T.);
#165=EDGE_CURVE('',#136,#137,#116,.T.);
#166=EDGE_CURVE('',#137,#136,#117,.T.);
#167=EDGE_CURVE('',#137,#138,#76,.T.);
#168=EDGE_CURVE('',#138,#138,#118,.T.);
#169=EDGE_CURVE('',#139,#140,#119,.T.);
#170=EDGE_CURVE('',#140,#139,#120,.T.);
#171=EDGE_CURVE('',#140,#141,#77,.T.);
#172=EDGE_CURVE('',#141,#141,#121,.T.);
#173=EDGE_CURVE('',#142,#143,#122,.T.);
#174=EDGE_CURVE('',#143,#142,#123,.T.);
#175=EDGE_CURVE('',#143,#144,#78,.T.);
#176=EDGE_CURVE('',#144,#144,#124,.T.);
#177=EDGE_CURVE('',#145,#146,#125,.T.);
#178=EDGE_CURVE('',#146,#145,#126,.T.);
#179=EDGE_CURVE('',#146,#147,#79,.T.);
#180=EDGE_CURVE('',#147,#147,#127,.T.);
#181=EDGE_CURVE('',#148,#149,#128,.T.);
#182=EDGE_CURVE('',#149,#148,#129,.T.);
#183=EDGE_CURVE('',#149,#150,#80,.T.);
#184=EDGE_CURVE('',#150,#150,#130,.T.);
#185=EDGE_CURVE('',#151,#151,#131,.T.);
#186=EDGE_CURVE('',#151,#152,#81,.T.);
#187=EDGE_CURVE('',#152,#152,#132,.T.);
#188=EDGE_CURVE('',#153,#154,#82,.T.);
#189=EDGE_CURVE('',#154,#155,#83,.T.);
#190=EDGE_CURVE('',#156,#155,#84,.T.);
#191=EDGE_CURVE('',#153,#156,#85,.T.);
#192=EDGE_CURVE('',#157,#153,#86,.T.);
#193=EDGE_CURVE('',#158,#156,#87,.T.);
#194=EDGE_CURVE('',#157,#158,#88,.T.);
#195=EDGE_CURVE('',#159,#157,#89,.T.);
#196=EDGE_CURVE('',#160,#158,#90,.T.);
#197=EDGE_CURVE('',#159,#160,#91,.T.);
#198=EDGE_CURVE('',#154,#159,#92,.T.);
#199=EDGE_CURVE('',#155,#160,#93,.T.);
#200=ORIENTED_EDGE('',*,*,#161,.F.);
#201=ORIENTED_EDGE('',*,*,#162,.F.);
#202=ORIENTED_EDGE('',*,*,#163,.T.);
#203=ORIENTED_EDGE('',*,*,#164,.F.);
#204=ORIENTED_EDGE('',*,*,#163,.F.);
#205=ORIENTED_EDGE('',*,*,#165,.F.);
#206=ORIENTED_EDGE('',*,*,#166,.F.);
#207=ORIENTED_EDGE('',*,*,#167,.T.);
#208=ORIENTED_EDGE('',*,*,#168,.F.);
#209=ORIENTED_EDGE('',*,*,#167,.F.);
#210=ORIENTED_EDGE('',*,*,#169,.F.);
#211=ORIENTED_EDGE('',*,*,#170,.F.);
#212=ORIENTED_EDGE('',*,*,#171,.T.);
#213=ORIENTED_EDGE('',*,*,#172,.F.);
#214=ORIENTED_EDGE('',*,*,#171,.F.);
#215=ORIENTED_EDGE('',*,*,#173,.F.);
#216=ORIENTED_EDGE('',*,*,#174,.F.);
#217=ORIENTED_EDGE('',*,*,#175,.T.);
#218=ORIENTED_EDGE('',*,*,#176,.F.);
#219=ORIENTED_EDGE('',*,*,#175,.F.);
#220=ORIENTED_EDGE('',*,*,#177,.F.);
#221=ORIENTED_EDGE('',*,*,#178,.F.);
#222=ORIENTED_EDGE('',*,*,#179,.T.);
#223=ORIENTED_EDGE('',*,*,#180,.F.);
#224=ORIENTED_EDGE('',*,*,#179,.F.);
#225=ORIENTED_EDGE('',*,*,#181,.F.);
#226=ORIENTED_EDGE('',*,*,#182,.F.);
#227=ORIENTED_EDGE('',*,*,#183,.T.);
#228=ORIENTED_EDGE('',*,*,#184,.F.);
#229=ORIENTED_EDGE('',*,*,#183,.F.);
#230=ORIENTED_EDGE('',*,*,#185,.F.);
#231=ORIENTED_EDGE('',*,*,#186,.T.);
#232=ORIENTED_EDGE('',*,*,#187,.T.);
#233=ORIENTED_EDGE('',*,*,#186,.F.);
#234=ORIENTED_EDGE('',*,*,#188,.T.);
#235=ORIENTED_EDGE('',*,*,#189,.T.);
#236=ORIENTED_EDGE('',*,*,#190,.F.);
#237=ORIENTED_EDGE('',*,*,#191,.F.);
#238=ORIENTED_EDGE('',*,*,#192,.T.);
#239=ORIENTED_EDGE('',*,*,#191,.T.);
#240=ORIENTED_EDGE('',*,*,#193,.F.);
#241=ORIENTED_EDGE('',*,*,#194,.F.);
#242=ORIENTED_EDGE('',*,*,#195,.T.);
#243=ORIENTED_EDGE('',*,*,#194,.T.);
#244=ORIENTED_EDGE('',*,*,#196,.F.);
#245=ORIENTED_EDGE('',*,*,#197,.F.);
#246=ORIENTED_EDGE('',*,*,#198,.T.);
#247=ORIENTED_EDGE('',*,*,#197,.T.);
#248=ORIENTED_EDGE('',*,*,#199,.F.);
#249=ORIENTED_EDGE('',*,*,#189,.F.);
#250=ORIENTED_EDGE('',*,*,#199,.T.);
#251=ORIENTED_EDGE('',*,*,#196,.T.);
#252=ORIENTED_EDGE('',*,*,#193,.T.);
#253=ORIENTED_EDGE('',*,*,#190,.T.);
#254=ORIENTED_EDGE('',*,*,#161,.T.);
#255=ORIENTED_EDGE('',*,*,#162,.T.);
#256=ORIENTED_EDGE('',*,*,#165,.T.);
#257=ORIENTED_EDGE('',*,*,#166,.T.);
#258=ORIENTED_EDGE('',*,*,#169,.T.);
#259=ORIENTED_EDGE('',*,*,#170,.T.);
#260=ORIENTED_EDGE('',*,*,#173,.T.);
#261=ORIENTED_EDGE('',*,*,#174,.T.);
#262=ORIENTED_EDGE('',*,*,#177,.T.);
#263=ORIENTED_EDGE('',*,*,#178,.T.);
#264=ORIENTED_EDGE('',*,*,#181,.T.);
#265=ORIENTED_EDGE('',*,*,#182,.T.);
#266=ORIENTED_EDGE('',*,*,#185,.T.);
#267=ORIENTED_EDGE('',*,*,#198,.F.);
#268=ORIENTED_EDGE('',*,*,#188,.F.);
#269=ORIENTED_EDGE('',*,*,#192,.F.);
#270=ORIENTED_EDGE('',*,*,#195,.F.);
#271=ORIENTED_EDGE('',*,*,#164,.T.);
#272=ORIENTED_EDGE('',*,*,#168,.T.);
#273=ORIENTED_EDGE('',*,*,#172,.T.);
#274=ORIENTED_EDGE('',*,*,#176,.T.);
#275=ORIENTED_EDGE('',*,*,#180,.T.);
#276=ORIENTED_EDGE('',*,*,#184,.T.);
#277=ORIENTED_EDGE('',*,*,#187,.F.);
#278=CYLINDRICAL_SURFACE('',#318,1.45);
#279=CYLINDRICAL_SURFACE('',#322,1.45);
#280=CYLINDRICAL_SURFACE('',#326,1.45);
#281=CYLINDRICAL_SURFACE('',#330,1.45);
#282=CYLINDRICAL_SURFACE('',#334,3.4585);
#283=CYLINDRICAL_SURFACE('',#338,3.4585);
#284=CYLINDRICAL_SURFACE('',#342,10.);
#285=ADVANCED_FACE('',(#35),#278,.F.);
#286=ADVANCED_FACE('',(#36),#279,.F.);
#287=ADVANCED_FACE('',(#37),#280,.F.);
#288=ADVANCED_FACE('',(#38),#281,.F.);
#289=ADVANCED_FACE('',(#39),#282,.F.);
#290=ADVANCED_FACE('',(#40),#283,.F.);
#291=ADVANCED_FACE('',(#41),#284,.F.);
#292=ADVANCED_FACE('',(#42),#29,.T.);
#293=ADVANCED_FACE('',(#43),#30,.T.);
#294=ADVANCED_FACE('',(#44),#31,.T.);
#295=ADVANCED_FACE('',(#45),#32,.T.);
#296=ADVANCED_FACE('',(#46,#15,#16,#17,#18,#19,#20,#21),#33,.T.);
#297=ADVANCED_FACE('',(#47,#22,#23,#24,#25,#26,#27,#28),#34,.F.);
#298=CLOSED_SHELL('',(#285,#286,#287,#288,#289,#290,#291,#292,#293,#294,
#295,#296,#297));
#299=DERIVED_UNIT_ELEMENT(#301,1.);
#300=DERIVED_UNIT_ELEMENT(#524,3.);
#301=(
MASS_UNIT()
NAMED_UNIT(*)
SI_UNIT($,.GRAM.)
);
#302=DERIVED_UNIT((#299,#300));
#303=MEASURE_REPRESENTATION_ITEM('density measure',
POSITIVE_RATIO_MEASURE(2.7),#302);
#304=PROPERTY_DEFINITION_REPRESENTATION(#309,#306);
#305=PROPERTY_DEFINITION_REPRESENTATION(#310,#307);
#306=REPRESENTATION('material name',(#308),#521);
#307=REPRESENTATION('density',(#303),#521);
#308=DESCRIPTIVE_REPRESENTATION_ITEM('Aluminium 6061','Aluminium 6061');
#309=PROPERTY_DEFINITION('material property','material name',#531);
#310=PROPERTY_DEFINITION('material property','density of part',#531);
#311=DATE_TIME_ROLE('creation_date');
#312=APPLIED_DATE_AND_TIME_ASSIGNMENT(#313,#311,(#531));
#313=DATE_AND_TIME(#314,#315);
#314=CALENDAR_DATE(2019,7,10);
#315=LOCAL_TIME(8,35,50.,#316);
#316=COORDINATED_UNIVERSAL_TIME_OFFSET(0,0,.BEHIND.);
#317=AXIS2_PLACEMENT_3D('placement',#438,#351,#352);
#318=AXIS2_PLACEMENT_3D('',#439,#353,#354);
#319=AXIS2_PLACEMENT_3D('',#442,#355,#356);
#320=AXIS2_PLACEMENT_3D('',#443,#357,#358);
#321=AXIS2_PLACEMENT_3D('',#446,#360,#361);
#322=AXIS2_PLACEMENT_3D('',#447,#362,#363);
#323=AXIS2_PLACEMENT_3D('',#450,#364,#365);
#324=AXIS2_PLACEMENT_3D('',#451,#366,#367);
#325=AXIS2_PLACEMENT_3D('',#454,#369,#370);
#326=AXIS2_PLACEMENT_3D('',#455,#371,#372);
#327=AXIS2_PLACEMENT_3D('',#458,#373,#374);
#328=AXIS2_PLACEMENT_3D('',#459,#375,#376);
#329=AXIS2_PLACEMENT_3D('',#462,#378,#379);
#330=AXIS2_PLACEMENT_3D('',#463,#380,#381);
#331=AXIS2_PLACEMENT_3D('',#466,#382,#383);
#332=AXIS2_PLACEMENT_3D('',#467,#384,#385);
#333=AXIS2_PLACEMENT_3D('',#470,#387,#388);
#334=AXIS2_PLACEMENT_3D('',#471,#389,#390);
#335=AXIS2_PLACEMENT_3D('',#474,#391,#392);
#336=AXIS2_PLACEMENT_3D('',#475,#393,#394);
#337=AXIS2_PLACEMENT_3D('',#478,#396,#397);
#338=AXIS2_PLACEMENT_3D('',#479,#398,#399);
#339=AXIS2_PLACEMENT_3D('',#482,#400,#401);
#340=AXIS2_PLACEMENT_3D('',#483,#402,#403);
#341=AXIS2_PLACEMENT_3D('',#486,#405,#406);
#342=AXIS2_PLACEMENT_3D('',#487,#407,#408);
#343=AXIS2_PLACEMENT_3D('',#489,#409,#410);
#344=AXIS2_PLACEMENT_3D('',#492,#412,#413);
#345=AXIS2_PLACEMENT_3D('',#493,#414,#415);
#346=AXIS2_PLACEMENT_3D('',#502,#420,#421);
#347=AXIS2_PLACEMENT_3D('',#508,#425,#426);
#348=AXIS2_PLACEMENT_3D('',#514,#430,#431);
#349=AXIS2_PLACEMENT_3D('',#517,#434,#435);
#350=AXIS2_PLACEMENT_3D('',#518,#436,#437);
#351=DIRECTION('axis',(0.,0.,1.));
#352=DIRECTION('refdir',(1.,0.,0.));
#353=DIRECTION('center_axis',(0.,1.,0.));
#354=DIRECTION('ref_axis',(1.,0.,0.));
#355=DIRECTION('center_axis',(0.,-1.,0.));
#356=DIRECTION('ref_axis',(1.,0.,0.));
#357=DIRECTION('center_axis',(0.,-1.,0.));
#358=DIRECTION('ref_axis',(1.,0.,0.));
#359=DIRECTION('',(0.,-1.,0.));
#360=DIRECTION('center_axis',(0.,1.,0.));
#361=DIRECTION('ref_axis',(1.,0.,0.));
#362=DIRECTION('center_axis',(0.,1.,0.));
#363=DIRECTION('ref_axis',(1.,0.,0.));
#364=DIRECTION('center_axis',(0.,-1.,0.));
#365=DIRECTION('ref_axis',(1.,0.,0.));
#366=DIRECTION('center_axis',(0.,-1.,0.));
#367=DIRECTION('ref_axis',(1.,0.,0.));
#368=DIRECTION('',(0.,-1.,0.));
#369=DIRECTION('center_axis',(0.,1.,0.));
#370=DIRECTION('ref_axis',(1.,0.,0.));
#371=DIRECTION('center_axis',(0.,1.,0.));
#372=DIRECTION('ref_axis',(1.,0.,0.));
#373=DIRECTION('center_axis',(0.,-1.,0.));
#374=DIRECTION('ref_axis',(1.,0.,0.));
#375=DIRECTION('center_axis',(0.,-1.,0.));
#376=DIRECTION('ref_axis',(1.,0.,0.));
#377=DIRECTION('',(0.,-1.,0.));
#378=DIRECTION('center_axis',(0.,1.,0.));
#379=DIRECTION('ref_axis',(1.,0.,0.));
#380=DIRECTION('center_axis',(0.,1.,0.));
#381=DIRECTION('ref_axis',(1.,0.,0.));
#382=DIRECTION('center_axis',(0.,-1.,0.));
#383=DIRECTION('ref_axis',(1.,0.,0.));
#384=DIRECTION('center_axis',(0.,-1.,0.));
#385=DIRECTION('ref_axis',(1.,0.,0.));
#386=DIRECTION('',(0.,-1.,0.));
#387=DIRECTION('center_axis',(0.,1.,0.));
#388=DIRECTION('ref_axis',(1.,0.,0.));
#389=DIRECTION('center_axis',(0.,1.,0.));
#390=DIRECTION('ref_axis',(1.,0.,0.));
#391=DIRECTION('center_axis',(0.,-1.,0.));
#392=DIRECTION('ref_axis',(1.,0.,0.));
#393=DIRECTION('center_axis',(0.,-1.,0.));
#394=DIRECTION('ref_axis',(1.,0.,0.));
#395=DIRECTION('',(0.,-1.,0.));
#396=DIRECTION('center_axis',(0.,1.,0.));
#397=DIRECTION('ref_axis',(1.,0.,0.));
#398=DIRECTION('center_axis',(0.,1.,0.));
#399=DIRECTION('ref_axis',(1.,0.,0.));
#400=DIRECTION('center_axis',(0.,-1.,0.));
#401=DIRECTION('ref_axis',(1.,0.,0.));
#402=DIRECTION('center_axis',(0.,-1.,0.));
#403=DIRECTION('ref_axis',(1.,0.,0.));
#404=DIRECTION('',(0.,-1.,0.));
#405=DIRECTION('center_axis',(0.,1.,0.));
#406=DIRECTION('ref_axis',(1.,0.,0.));
#407=DIRECTION('center_axis',(0.,1.,0.));
#408=DIRECTION('ref_axis',(1.,0.,0.));
#409=DIRECTION('center_axis',(0.,-1.,0.));
#410=DIRECTION('ref_axis',(1.,0.,0.));
#411=DIRECTION('',(0.,-1.,0.));
#412=DIRECTION('center_axis',(0.,-1.,0.));
#413=DIRECTION('ref_axis',(1.,0.,0.));
#414=DIRECTION('center_axis',(8.88178419700125E-17,0.,-1.));
#415=DIRECTION('ref_axis',(-1.,0.,-8.88178419700125E-17));
#416=DIRECTION('',(-1.,0.,-8.88178419700125E-17));
#417=DIRECTION('',(0.,1.,0.));
#418=DIRECTION('',(-1.,0.,-8.88178419700125E-17));
#419=DIRECTION('',(0.,1.,0.));
#420=DIRECTION('center_axis',(1.,0.,-1.21372642772339E-16));
#421=DIRECTION('ref_axis',(-1.21372642772339E-16,0.,-1.));
#422=DIRECTION('',(-1.21372642772339E-16,0.,-1.));
#423=DIRECTION('',(-1.21372642772339E-16,0.,-1.));
#424=DIRECTION('',(0.,1.,0.));
#425=DIRECTION('center_axis',(0.,0.,1.));
#426=DIRECTION('ref_axis',(1.,0.,0.));
#427=DIRECTION('',(1.,0.,0.));
#428=DIRECTION('',(1.,0.,0.));
#429=DIRECTION('',(0.,1.,0.));
#430=DIRECTION('center_axis',(-1.,0.,0.));
#431=DIRECTION('ref_axis',(0.,0.,1.));
#432=DIRECTION('',(0.,0.,1.));
#433=DIRECTION('',(0.,0.,1.));
#434=DIRECTION('center_axis',(0.,1.,0.));
#435=DIRECTION('ref_axis',(0.,0.,1.));
#436=DIRECTION('center_axis',(0.,1.,0.));
#437=DIRECTION('ref_axis',(0.,0.,1.));
#438=CARTESIAN_POINT('',(0.,0.,0.));
#439=CARTESIAN_POINT('Origin',(-26.,-115.266103233889,-59.));
#440=CARTESIAN_POINT('',(-24.55,7.,-59.));
#441=CARTESIAN_POINT('',(-27.45,6.99999999999999,-59.));
#442=CARTESIAN_POINT('Origin',(-26.,6.99999999999999,-59.));
#443=CARTESIAN_POINT('Origin',(-26.,6.99999999999999,-59.));
#444=CARTESIAN_POINT('',(-27.45,0.,-59.));
#445=CARTESIAN_POINT('',(-27.45,-115.266103233889,-59.));
#446=CARTESIAN_POINT('Origin',(-26.,0.,-59.));
#447=CARTESIAN_POINT('Origin',(-74.,-115.266103233889,-59.));
#448=CARTESIAN_POINT('',(-72.55,7.,-59.));
#449=CARTESIAN_POINT('',(-75.45,6.99999999999999,-59.));
#450=CARTESIAN_POINT('Origin',(-74.,6.99999999999999,-59.));
#451=CARTESIAN_POINT('Origin',(-74.,6.99999999999999,-59.));
#452=CARTESIAN_POINT('',(-75.45,0.,-59.));
#453=CARTESIAN_POINT('',(-75.45,-115.266103233889,-59.));
#454=CARTESIAN_POINT('Origin',(-74.,0.,-59.));
#455=CARTESIAN_POINT('Origin',(-26.,-115.266103233889,-11.));
#456=CARTESIAN_POINT('',(-24.55,7.,-11.));
#457=CARTESIAN_POINT('',(-27.45,6.99999999999999,-11.));
#458=CARTESIAN_POINT('Origin',(-26.,6.99999999999999,-11.));
#459=CARTESIAN_POINT('Origin',(-26.,6.99999999999999,-11.));
#460=CARTESIAN_POINT('',(-27.45,0.,-11.));
#461=CARTESIAN_POINT('',(-27.45,-115.266103233889,-11.));
#462=CARTESIAN_POINT('Origin',(-26.,0.,-11.));
#463=CARTESIAN_POINT('Origin',(-74.,-115.266103233889,-11.));
#464=CARTESIAN_POINT('',(-72.55,7.,-11.));
#465=CARTESIAN_POINT('',(-75.45,6.99999999999999,-11.));
#466=CARTESIAN_POINT('Origin',(-74.,6.99999999999999,-11.));
#467=CARTESIAN_POINT('Origin',(-74.,6.99999999999999,-11.));
#468=CARTESIAN_POINT('',(-75.45,0.,-11.));
#469=CARTESIAN_POINT('',(-75.45,-115.266103233889,-11.));
#470=CARTESIAN_POINT('Origin',(-74.,0.,-11.));
#471=CARTESIAN_POINT('Origin',(-10.,-115.266103233889,-35.));
#472=CARTESIAN_POINT('',(-6.5415,7.,-35.));
#473=CARTESIAN_POINT('',(-13.4585,7.00000000000001,-35.));
#474=CARTESIAN_POINT('Origin',(-10.,6.99999999999999,-35.));
#475=CARTESIAN_POINT('Origin',(-10.,6.99999999999999,-35.));
#476=CARTESIAN_POINT('',(-13.4585,0.,-35.));
#477=CARTESIAN_POINT('',(-13.4585,-115.266103233889,-35.));
#478=CARTESIAN_POINT('Origin',(-10.,0.,-35.));
#479=CARTESIAN_POINT('Origin',(-90.,-115.266103233889,-35.));
#480=CARTESIAN_POINT('',(-86.5415,7.,-35.));
#481=CARTESIAN_POINT('',(-93.4585,7.00000000000001,-35.));
#482=CARTESIAN_POINT('Origin',(-90.,6.99999999999999,-35.));
#483=CARTESIAN_POINT('Origin',(-90.,6.99999999999999,-35.));
#484=CARTESIAN_POINT('',(-93.4585,0.,-35.));
#485=CARTESIAN_POINT('',(-93.4585,-115.266103233889,-35.));
#486=CARTESIAN_POINT('Origin',(-90.,0.,-35.));
#487=CARTESIAN_POINT('Origin',(-50.,0.,-35.));
#488=CARTESIAN_POINT('',(-60.,7.,-35.));
#489=CARTESIAN_POINT('Origin',(-50.,7.,-35.));
#490=CARTESIAN_POINT('',(-60.,0.,-35.));
#491=CARTESIAN_POINT('',(-60.,0.,-35.));
#492=CARTESIAN_POINT('Origin',(-50.,0.,-35.));
#493=CARTESIAN_POINT('Origin',(-8.49608499406375E-15,0.,-70.));
#494=CARTESIAN_POINT('',(-8.49608499406375E-15,0.,-70.));
#495=CARTESIAN_POINT('',(-100.,0.,-70.));
#496=CARTESIAN_POINT('',(0.,0.,-70.));
#497=CARTESIAN_POINT('',(-100.,7.,-70.));
#498=CARTESIAN_POINT('',(-100.,0.,-70.));
#499=CARTESIAN_POINT('',(0.,7.,-70.));
#500=CARTESIAN_POINT('',(0.,7.,-70.));
#501=CARTESIAN_POINT('',(-8.49608499406375E-15,0.,-70.));
#502=CARTESIAN_POINT('Origin',(0.,0.,0.));
#503=CARTESIAN_POINT('',(0.,0.,0.));
#504=CARTESIAN_POINT('',(0.,0.,0.));
#505=CARTESIAN_POINT('',(0.,7.,0.));
#506=CARTESIAN_POINT('',(0.,7.,0.));
#507=CARTESIAN_POINT('',(0.,0.,0.));
#508=CARTESIAN_POINT('Origin',(-100.,0.,0.));
#509=CARTESIAN_POINT('',(-100.,0.,0.));
#510=CARTESIAN_POINT('',(-100.,0.,0.));
#511=CARTESIAN_POINT('',(-100.,7.,0.));
#512=CARTESIAN_POINT('',(-100.,7.,0.));
#513=CARTESIAN_POINT('',(-100.,0.,0.));
#514=CARTESIAN_POINT('Origin',(-100.,0.,-70.));
#515=CARTESIAN_POINT('',(-100.,0.,-70.));
#516=CARTESIAN_POINT('',(-100.,7.,-70.));
#517=CARTESIAN_POINT('Origin',(-50.,7.,-35.));
#518=CARTESIAN_POINT('Origin',(-50.,0.,-35.));
#519=UNCERTAINTY_MEASURE_WITH_UNIT(LENGTH_MEASURE(0.01),#523,
'DISTANCE_ACCURACY_VALUE',
'Maximum model space distance between geometric entities at asserted c
onnectivities');
#520=UNCERTAINTY_MEASURE_WITH_UNIT(LENGTH_MEASURE(0.01),#523,
'DISTANCE_ACCURACY_VALUE',
'Maximum model space distance between geometric entities at asserted c
onnectivities');
#521=(
GEOMETRIC_REPRESENTATION_CONTEXT(3)
GLOBAL_UNCERTAINTY_ASSIGNED_CONTEXT((#519))
GLOBAL_UNIT_ASSIGNED_CONTEXT((#523,#525,#526))
REPRESENTATION_CONTEXT('','3D')
);
#522=(
GEOMETRIC_REPRESENTATION_CONTEXT(3)
GLOBAL_UNCERTAINTY_ASSIGNED_CONTEXT((#520))
GLOBAL_UNIT_ASSIGNED_CONTEXT((#523,#525,#526))
REPRESENTATION_CONTEXT('','3D')
);
#523=(
LENGTH_UNIT()
NAMED_UNIT(*)
SI_UNIT(.MILLI.,.METRE.)
);
#524=(
LENGTH_UNIT()
NAMED_UNIT(*)
SI_UNIT(.CENTI.,.METRE.)
);
#525=(
NAMED_UNIT(*)
PLANE_ANGLE_UNIT()
SI_UNIT($,.RADIAN.)
);
#526=(
NAMED_UNIT(*)
SI_UNIT($,.STERADIAN.)
SOLID_ANGLE_UNIT()
);
#527=SHAPE_DEFINITION_REPRESENTATION(#528,#529);
#528=PRODUCT_DEFINITION_SHAPE('',$,#531);
#529=SHAPE_REPRESENTATION('',(#317),#521);
#530=PRODUCT_DEFINITION_CONTEXT('part definition',#535,'design');
#531=PRODUCT_DEFINITION('GSE-1201-031-001-A',
'GSE-1201-031-001-A (adaptateur pivot_thorlabs XT66)',#532,#530);
#532=PRODUCT_DEFINITION_FORMATION('A',$,#537);
#533=PRODUCT_RELATED_PRODUCT_CATEGORY(
'GSE-1201-031-001-A (adaptateur pivot_thorlabs XT66)',
'GSE-1201-031-001-A (adaptateur pivot_thorlabs XT66)',(#537));
#534=APPLICATION_PROTOCOL_DEFINITION('international standard',
'automotive_design',2009,#535);
#535=APPLICATION_CONTEXT(
'Core Data for Automotive Mechanical Design Process');
#536=PRODUCT_CONTEXT('part definition',#535,'mechanical');
#537=PRODUCT('GSE-1201-031-001-A',
'GSE-1201-031-001-A (adaptateur pivot_thorlabs XT66)',$,(#536));
#538=PRESENTATION_STYLE_ASSIGNMENT((#539));
#539=SURFACE_STYLE_USAGE(.BOTH.,#542);
#540=SURFACE_STYLE_RENDERING_WITH_PROPERTIES($,#546,(#541));
#541=SURFACE_STYLE_TRANSPARENT(0.);
#542=SURFACE_SIDE_STYLE('',(#543,#540));
#543=SURFACE_STYLE_FILL_AREA(#544);
#544=FILL_AREA_STYLE('',(#545));
#545=FILL_AREA_STYLE_COLOUR('',#546);
#546=COLOUR_RGB('',0.996078431372549,0.996078431372549,1.);
ENDSEC;
END-ISO-10303-21;
