ISO-10303-21;
HEADER;
/* Generated by software containing ST-Developer
 * from STEP Tools, Inc. (www.steptools.com) 
 */

FILE_DESCRIPTION(
/* description */ (''),
/* implementation_level */ '2;1');

FILE_NAME(
/* name */ 
'C:\\Users\\louis.petitjean\\Desktop\\GSE-1201-000-000-A Thruster Bala
nce\\Pivot subsystem\\GSE-1201-030-001-A (Clampe pivot int\X\E9rieure).
stp',
/* time_stamp */ '2019-10-24T11:45:28+02:00',
/* author */ ('louis.petitjean'),
/* organization */ ('EXOTRAIL'),
/* preprocessor_version */ 'ST-DEVELOPER v18',
/* originating_system */ 'Autodesk Inventor 2020',
/* authorisation */ '');

FILE_SCHEMA (('AUTOMOTIVE_DESIGN { 1 0 10303 214 3 1 1 }'));
ENDSEC;

DATA;
#10=MECHANICAL_DESIGN_GEOMETRIC_PRESENTATION_REPRESENTATION('',(#13),#563);
#11=SHAPE_REPRESENTATION_RELATIONSHIP('SRR','None',#570,#12);
#12=ADVANCED_BREP_SHAPE_REPRESENTATION('',(#14),#562);
#13=STYLED_ITEM('',(#579),#14);
#14=MANIFOLD_SOLID_BREP('Solide1',#327);
#15=FACE_BOUND('',#49,.T.);
#16=FACE_BOUND('',#51,.T.);
#17=FACE_BOUND('',#55,.T.);
#18=FACE_BOUND('',#61,.T.);
#19=FACE_BOUND('',#63,.T.);
#20=FACE_BOUND('',#66,.T.);
#21=PLANE('',#350);
#22=PLANE('',#352);
#23=PLANE('',#358);
#24=PLANE('',#359);
#25=PLANE('',#364);
#26=PLANE('',#368);
#27=PLANE('',#370);
#28=PLANE('',#374);
#29=PLANE('',#375);
#30=PLANE('',#376);
#31=FACE_OUTER_BOUND('',#47,.T.);
#32=FACE_OUTER_BOUND('',#48,.T.);
#33=FACE_OUTER_BOUND('',#50,.T.);
#34=FACE_OUTER_BOUND('',#52,.T.);
#35=FACE_OUTER_BOUND('',#53,.T.);
#36=FACE_OUTER_BOUND('',#54,.T.);
#37=FACE_OUTER_BOUND('',#56,.T.);
#38=FACE_OUTER_BOUND('',#57,.T.);
#39=FACE_OUTER_BOUND('',#58,.T.);
#40=FACE_OUTER_BOUND('',#59,.T.);
#41=FACE_OUTER_BOUND('',#60,.T.);
#42=FACE_OUTER_BOUND('',#62,.T.);
#43=FACE_OUTER_BOUND('',#64,.T.);
#44=FACE_OUTER_BOUND('',#65,.T.);
#45=FACE_OUTER_BOUND('',#67,.T.);
#46=FACE_OUTER_BOUND('',#68,.T.);
#47=EDGE_LOOP('',(#217,#218,#219,#220));
#48=EDGE_LOOP('',(#221,#222,#223,#224));
#49=EDGE_LOOP('',(#225));
#50=EDGE_LOOP('',(#226,#227,#228,#229));
#51=EDGE_LOOP('',(#230,#231,#232,#233,#234,#235,#236,#237));
#52=EDGE_LOOP('',(#238,#239,#240,#241));
#53=EDGE_LOOP('',(#242,#243,#244,#245));
#54=EDGE_LOOP('',(#246,#247,#248,#249));
#55=EDGE_LOOP('',(#250,#251,#252,#253,#254,#255,#256,#257));
#56=EDGE_LOOP('',(#258,#259,#260,#261));
#57=EDGE_LOOP('',(#262,#263,#264,#265));
#58=EDGE_LOOP('',(#266,#267,#268,#269));
#59=EDGE_LOOP('',(#270,#271,#272,#273,#274));
#60=EDGE_LOOP('',(#275,#276,#277,#278));
#61=EDGE_LOOP('',(#279));
#62=EDGE_LOOP('',(#280,#281,#282,#283));
#63=EDGE_LOOP('',(#284,#285));
#64=EDGE_LOOP('',(#286,#287,#288,#289,#290));
#65=EDGE_LOOP('',(#291,#292,#293,#294));
#66=EDGE_LOOP('',(#295,#296));
#67=EDGE_LOOP('',(#297,#298,#299,#300));
#68=EDGE_LOOP('',(#301,#302,#303,#304));
#69=CIRCLE('',#348,4.2);
#70=CIRCLE('',#349,4.2);
#71=CIRCLE('',#351,2.15);
#72=CIRCLE('',#353,4.763);
#73=CIRCLE('',#354,4.2);
#74=CIRCLE('',#355,4.763);
#75=CIRCLE('',#357,4.2);
#76=CIRCLE('',#360,4.763);
#77=CIRCLE('',#361,4.763);
#78=CIRCLE('',#366,2.15);
#79=CIRCLE('',#367,2.15);
#80=CIRCLE('',#369,1.621);
#81=CIRCLE('',#371,1.621);
#82=CIRCLE('',#372,1.621);
#83=LINE('',#473,#113);
#84=LINE('',#477,#114);
#85=LINE('',#481,#115);
#86=LINE('',#483,#116);
#87=LINE('',#484,#117);
#88=LINE('',#490,#118);
#89=LINE('',#492,#119);
#90=LINE('',#494,#120);
#91=LINE('',#495,#121);
#92=LINE('',#497,#122);
#93=LINE('',#501,#123);
#94=LINE('',#505,#124);
#95=LINE('',#509,#125);
#96=LINE('',#511,#126);
#97=LINE('',#515,#127);
#98=LINE('',#516,#128);
#99=LINE('',#520,#129);
#100=LINE('',#522,#130);
#101=LINE('',#524,#131);
#102=LINE('',#525,#132);
#103=LINE('',#528,#133);
#104=LINE('',#531,#134);
#105=LINE('',#534,#135);
#106=LINE('',#535,#136);
#107=LINE('',#542,#137);
#108=LINE('',#547,#138);
#109=LINE('',#548,#139);
#110=LINE('',#554,#140);
#111=LINE('',#556,#141);
#112=LINE('',#557,#142);
#113=VECTOR('',#381,10.);
#114=VECTOR('',#384,10.);
#115=VECTOR('',#389,10.);
#116=VECTOR('',#390,10.);
#117=VECTOR('',#391,10.);
#118=VECTOR('',#396,10.);
#119=VECTOR('',#397,10.);
#120=VECTOR('',#398,10.);
#121=VECTOR('',#399,10.);
#122=VECTOR('',#400,10.);
#123=VECTOR('',#403,10.);
#124=VECTOR('',#406,10.);
#125=VECTOR('',#411,10.);
#126=VECTOR('',#412,10.);
#127=VECTOR('',#417,10.);
#128=VECTOR('',#418,10.);
#129=VECTOR('',#421,10.);
#130=VECTOR('',#422,10.);
#131=VECTOR('',#423,10.);
#132=VECTOR('',#424,10.);
#133=VECTOR('',#427,10.);
#134=VECTOR('',#430,10.);
#135=VECTOR('',#435,10.);
#136=VECTOR('',#436,10.);
#137=VECTOR('',#445,2.15);
#138=VECTOR('',#452,10.);
#139=VECTOR('',#453,10.);
#140=VECTOR('',#460,1.621);
#141=VECTOR('',#463,10.);
#142=VECTOR('',#464,10.);
#143=VERTEX_POINT('',#471);
#144=VERTEX_POINT('',#472);
#145=VERTEX_POINT('',#474);
#146=VERTEX_POINT('',#476);
#147=VERTEX_POINT('',#480);
#148=VERTEX_POINT('',#482);
#149=VERTEX_POINT('',#485);
#150=VERTEX_POINT('',#488);
#151=VERTEX_POINT('',#489);
#152=VERTEX_POINT('',#491);
#153=VERTEX_POINT('',#493);
#154=VERTEX_POINT('',#496);
#155=VERTEX_POINT('',#498);
#156=VERTEX_POINT('',#500);
#157=VERTEX_POINT('',#502);
#158=VERTEX_POINT('',#504);
#159=VERTEX_POINT('',#508);
#160=VERTEX_POINT('',#510);
#161=VERTEX_POINT('',#514);
#162=VERTEX_POINT('',#518);
#163=VERTEX_POINT('',#519);
#164=VERTEX_POINT('',#521);
#165=VERTEX_POINT('',#523);
#166=VERTEX_POINT('',#527);
#167=VERTEX_POINT('',#529);
#168=VERTEX_POINT('',#538);
#169=VERTEX_POINT('',#539);
#170=VERTEX_POINT('',#544);
#171=VERTEX_POINT('',#549);
#172=VERTEX_POINT('',#550);
#173=EDGE_CURVE('',#143,#144,#83,.T.);
#174=EDGE_CURVE('',#145,#143,#69,.T.);
#175=EDGE_CURVE('',#146,#145,#84,.T.);
#176=EDGE_CURVE('',#144,#146,#70,.T.);
#177=EDGE_CURVE('',#147,#144,#85,.T.);
#178=EDGE_CURVE('',#147,#148,#86,.T.);
#179=EDGE_CURVE('',#143,#148,#87,.T.);
#180=EDGE_CURVE('',#149,#149,#71,.T.);
#181=EDGE_CURVE('',#150,#151,#88,.T.);
#182=EDGE_CURVE('',#151,#152,#89,.T.);
#183=EDGE_CURVE('',#152,#153,#90,.T.);
#184=EDGE_CURVE('',#153,#150,#91,.T.);
#185=EDGE_CURVE('',#146,#154,#92,.T.);
#186=EDGE_CURVE('',#154,#155,#72,.T.);
#187=EDGE_CURVE('',#155,#156,#93,.T.);
#188=EDGE_CURVE('',#156,#157,#73,.T.);
#189=EDGE_CURVE('',#157,#158,#94,.T.);
#190=EDGE_CURVE('',#158,#147,#74,.T.);
#191=EDGE_CURVE('',#157,#159,#95,.T.);
#192=EDGE_CURVE('',#160,#156,#96,.T.);
#193=EDGE_CURVE('',#159,#160,#75,.T.);
#194=EDGE_CURVE('',#161,#159,#97,.T.);
#195=EDGE_CURVE('',#161,#158,#98,.T.);
#196=EDGE_CURVE('',#162,#163,#99,.T.);
#197=EDGE_CURVE('',#163,#164,#100,.T.);
#198=EDGE_CURVE('',#164,#165,#101,.T.);
#199=EDGE_CURVE('',#165,#162,#102,.T.);
#200=EDGE_CURVE('',#148,#161,#76,.T.);
#201=EDGE_CURVE('',#160,#166,#103,.T.);
#202=EDGE_CURVE('',#166,#167,#77,.T.);
#203=EDGE_CURVE('',#167,#145,#104,.T.);
#204=EDGE_CURVE('',#167,#154,#105,.T.);
#205=EDGE_CURVE('',#155,#166,#106,.T.);
#206=EDGE_CURVE('',#168,#169,#78,.T.);
#207=EDGE_CURVE('',#169,#168,#79,.T.);
#208=EDGE_CURVE('',#169,#149,#107,.T.);
#209=EDGE_CURVE('',#170,#170,#80,.T.);
#210=EDGE_CURVE('',#163,#150,#108,.T.);
#211=EDGE_CURVE('',#164,#153,#109,.T.);
#212=EDGE_CURVE('',#171,#172,#81,.T.);
#213=EDGE_CURVE('',#172,#171,#82,.T.);
#214=EDGE_CURVE('',#172,#170,#110,.T.);
#215=EDGE_CURVE('',#165,#152,#111,.T.);
#216=EDGE_CURVE('',#162,#151,#112,.T.);
#217=ORIENTED_EDGE('',*,*,#173,.F.);
#218=ORIENTED_EDGE('',*,*,#174,.F.);
#219=ORIENTED_EDGE('',*,*,#175,.F.);
#220=ORIENTED_EDGE('',*,*,#176,.F.);
#221=ORIENTED_EDGE('',*,*,#173,.T.);
#222=ORIENTED_EDGE('',*,*,#177,.F.);
#223=ORIENTED_EDGE('',*,*,#178,.T.);
#224=ORIENTED_EDGE('',*,*,#179,.F.);
#225=ORIENTED_EDGE('',*,*,#180,.T.);
#226=ORIENTED_EDGE('',*,*,#181,.T.);
#227=ORIENTED_EDGE('',*,*,#182,.T.);
#228=ORIENTED_EDGE('',*,*,#183,.T.);
#229=ORIENTED_EDGE('',*,*,#184,.T.);
#230=ORIENTED_EDGE('',*,*,#176,.T.);
#231=ORIENTED_EDGE('',*,*,#185,.T.);
#232=ORIENTED_EDGE('',*,*,#186,.T.);
#233=ORIENTED_EDGE('',*,*,#187,.T.);
#234=ORIENTED_EDGE('',*,*,#188,.T.);
#235=ORIENTED_EDGE('',*,*,#189,.T.);
#236=ORIENTED_EDGE('',*,*,#190,.T.);
#237=ORIENTED_EDGE('',*,*,#177,.T.);
#238=ORIENTED_EDGE('',*,*,#191,.F.);
#239=ORIENTED_EDGE('',*,*,#188,.F.);
#240=ORIENTED_EDGE('',*,*,#192,.F.);
#241=ORIENTED_EDGE('',*,*,#193,.F.);
#242=ORIENTED_EDGE('',*,*,#191,.T.);
#243=ORIENTED_EDGE('',*,*,#194,.F.);
#244=ORIENTED_EDGE('',*,*,#195,.T.);
#245=ORIENTED_EDGE('',*,*,#189,.F.);
#246=ORIENTED_EDGE('',*,*,#196,.T.);
#247=ORIENTED_EDGE('',*,*,#197,.T.);
#248=ORIENTED_EDGE('',*,*,#198,.T.);
#249=ORIENTED_EDGE('',*,*,#199,.T.);
#250=ORIENTED_EDGE('',*,*,#174,.T.);
#251=ORIENTED_EDGE('',*,*,#179,.T.);
#252=ORIENTED_EDGE('',*,*,#200,.T.);
#253=ORIENTED_EDGE('',*,*,#194,.T.);
#254=ORIENTED_EDGE('',*,*,#193,.T.);
#255=ORIENTED_EDGE('',*,*,#201,.T.);
#256=ORIENTED_EDGE('',*,*,#202,.T.);
#257=ORIENTED_EDGE('',*,*,#203,.T.);
#258=ORIENTED_EDGE('',*,*,#178,.F.);
#259=ORIENTED_EDGE('',*,*,#190,.F.);
#260=ORIENTED_EDGE('',*,*,#195,.F.);
#261=ORIENTED_EDGE('',*,*,#200,.F.);
#262=ORIENTED_EDGE('',*,*,#204,.F.);
#263=ORIENTED_EDGE('',*,*,#202,.F.);
#264=ORIENTED_EDGE('',*,*,#205,.F.);
#265=ORIENTED_EDGE('',*,*,#186,.F.);
#266=ORIENTED_EDGE('',*,*,#192,.T.);
#267=ORIENTED_EDGE('',*,*,#187,.F.);
#268=ORIENTED_EDGE('',*,*,#205,.T.);
#269=ORIENTED_EDGE('',*,*,#201,.F.);
#270=ORIENTED_EDGE('',*,*,#206,.F.);
#271=ORIENTED_EDGE('',*,*,#207,.F.);
#272=ORIENTED_EDGE('',*,*,#208,.T.);
#273=ORIENTED_EDGE('',*,*,#180,.F.);
#274=ORIENTED_EDGE('',*,*,#208,.F.);
#275=ORIENTED_EDGE('',*,*,#175,.T.);
#276=ORIENTED_EDGE('',*,*,#203,.F.);
#277=ORIENTED_EDGE('',*,*,#204,.T.);
#278=ORIENTED_EDGE('',*,*,#185,.F.);
#279=ORIENTED_EDGE('',*,*,#209,.T.);
#280=ORIENTED_EDGE('',*,*,#197,.F.);
#281=ORIENTED_EDGE('',*,*,#210,.T.);
#282=ORIENTED_EDGE('',*,*,#184,.F.);
#283=ORIENTED_EDGE('',*,*,#211,.F.);
#284=ORIENTED_EDGE('',*,*,#212,.T.);
#285=ORIENTED_EDGE('',*,*,#213,.T.);
#286=ORIENTED_EDGE('',*,*,#212,.F.);
#287=ORIENTED_EDGE('',*,*,#213,.F.);
#288=ORIENTED_EDGE('',*,*,#214,.T.);
#289=ORIENTED_EDGE('',*,*,#209,.F.);
#290=ORIENTED_EDGE('',*,*,#214,.F.);
#291=ORIENTED_EDGE('',*,*,#199,.F.);
#292=ORIENTED_EDGE('',*,*,#215,.T.);
#293=ORIENTED_EDGE('',*,*,#182,.F.);
#294=ORIENTED_EDGE('',*,*,#216,.F.);
#295=ORIENTED_EDGE('',*,*,#206,.T.);
#296=ORIENTED_EDGE('',*,*,#207,.T.);
#297=ORIENTED_EDGE('',*,*,#198,.F.);
#298=ORIENTED_EDGE('',*,*,#211,.T.);
#299=ORIENTED_EDGE('',*,*,#183,.F.);
#300=ORIENTED_EDGE('',*,*,#215,.F.);
#301=ORIENTED_EDGE('',*,*,#196,.F.);
#302=ORIENTED_EDGE('',*,*,#216,.T.);
#303=ORIENTED_EDGE('',*,*,#181,.F.);
#304=ORIENTED_EDGE('',*,*,#210,.F.);
#305=CYLINDRICAL_SURFACE('',#347,4.2);
#306=CYLINDRICAL_SURFACE('',#356,4.2);
#307=CYLINDRICAL_SURFACE('',#362,4.763);
#308=CYLINDRICAL_SURFACE('',#363,4.763);
#309=CYLINDRICAL_SURFACE('',#365,2.15);
#310=CYLINDRICAL_SURFACE('',#373,1.621);
#311=ADVANCED_FACE('',(#31),#305,.F.);
#312=ADVANCED_FACE('',(#32,#15),#21,.F.);
#313=ADVANCED_FACE('',(#33,#16),#22,.T.);
#314=ADVANCED_FACE('',(#34),#306,.F.);
#315=ADVANCED_FACE('',(#35),#23,.F.);
#316=ADVANCED_FACE('',(#36,#17),#24,.F.);
#317=ADVANCED_FACE('',(#37),#307,.F.);
#318=ADVANCED_FACE('',(#38),#308,.F.);
#319=ADVANCED_FACE('',(#39),#25,.F.);
#320=ADVANCED_FACE('',(#40),#309,.F.);
#321=ADVANCED_FACE('',(#41,#18),#26,.F.);
#322=ADVANCED_FACE('',(#42,#19),#27,.T.);
#323=ADVANCED_FACE('',(#43),#310,.F.);
#324=ADVANCED_FACE('',(#44,#20),#28,.T.);
#325=ADVANCED_FACE('',(#45),#29,.T.);
#326=ADVANCED_FACE('',(#46),#30,.T.);
#327=CLOSED_SHELL('',(#311,#312,#313,#314,#315,#316,#317,#318,#319,#320,
#321,#322,#323,#324,#325,#326));
#328=DERIVED_UNIT_ELEMENT(#330,1.);
#329=DERIVED_UNIT_ELEMENT(#565,3.);
#330=(
MASS_UNIT()
NAMED_UNIT(*)
SI_UNIT($,.GRAM.)
);
#331=DERIVED_UNIT((#328,#329));
#332=MEASURE_REPRESENTATION_ITEM('density measure',
POSITIVE_RATIO_MEASURE(2.7),#331);
#333=PROPERTY_DEFINITION_REPRESENTATION(#338,#335);
#334=PROPERTY_DEFINITION_REPRESENTATION(#339,#336);
#335=REPRESENTATION('material name',(#337),#562);
#336=REPRESENTATION('density',(#332),#562);
#337=DESCRIPTIVE_REPRESENTATION_ITEM('Aluminium 6061','Aluminium 6061');
#338=PROPERTY_DEFINITION('material property','material name',#572);
#339=PROPERTY_DEFINITION('material property','density of part',#572);
#340=DATE_TIME_ROLE('creation_date');
#341=APPLIED_DATE_AND_TIME_ASSIGNMENT(#342,#340,(#572));
#342=DATE_AND_TIME(#343,#344);
#343=CALENDAR_DATE(2019,13,10);
#344=LOCAL_TIME(22,0,0.,#345);
#345=COORDINATED_UNIVERSAL_TIME_OFFSET(0,0,.BEHIND.);
#346=AXIS2_PLACEMENT_3D('placement',#469,#377,#378);
#347=AXIS2_PLACEMENT_3D('',#470,#379,#380);
#348=AXIS2_PLACEMENT_3D('',#475,#382,#383);
#349=AXIS2_PLACEMENT_3D('',#478,#385,#386);
#350=AXIS2_PLACEMENT_3D('',#479,#387,#388);
#351=AXIS2_PLACEMENT_3D('',#486,#392,#393);
#352=AXIS2_PLACEMENT_3D('',#487,#394,#395);
#353=AXIS2_PLACEMENT_3D('',#499,#401,#402);
#354=AXIS2_PLACEMENT_3D('',#503,#404,#405);
#355=AXIS2_PLACEMENT_3D('',#506,#407,#408);
#356=AXIS2_PLACEMENT_3D('',#507,#409,#410);
#357=AXIS2_PLACEMENT_3D('',#512,#413,#414);
#358=AXIS2_PLACEMENT_3D('',#513,#415,#416);
#359=AXIS2_PLACEMENT_3D('',#517,#419,#420);
#360=AXIS2_PLACEMENT_3D('',#526,#425,#426);
#361=AXIS2_PLACEMENT_3D('',#530,#428,#429);
#362=AXIS2_PLACEMENT_3D('',#532,#431,#432);
#363=AXIS2_PLACEMENT_3D('',#533,#433,#434);
#364=AXIS2_PLACEMENT_3D('',#536,#437,#438);
#365=AXIS2_PLACEMENT_3D('',#537,#439,#440);
#366=AXIS2_PLACEMENT_3D('',#540,#441,#442);
#367=AXIS2_PLACEMENT_3D('',#541,#443,#444);
#368=AXIS2_PLACEMENT_3D('',#543,#446,#447);
#369=AXIS2_PLACEMENT_3D('',#545,#448,#449);
#370=AXIS2_PLACEMENT_3D('',#546,#450,#451);
#371=AXIS2_PLACEMENT_3D('',#551,#454,#455);
#372=AXIS2_PLACEMENT_3D('',#552,#456,#457);
#373=AXIS2_PLACEMENT_3D('',#553,#458,#459);
#374=AXIS2_PLACEMENT_3D('',#555,#461,#462);
#375=AXIS2_PLACEMENT_3D('',#558,#465,#466);
#376=AXIS2_PLACEMENT_3D('',#559,#467,#468);
#377=DIRECTION('axis',(0.,0.,1.));
#378=DIRECTION('refdir',(1.,0.,0.));
#379=DIRECTION('center_axis',(0.,0.,1.));
#380=DIRECTION('ref_axis',(7.04481399828022E-16,1.,0.));
#381=DIRECTION('',(0.,0.,1.));
#382=DIRECTION('center_axis',(0.,0.,1.));
#383=DIRECTION('ref_axis',(1.,0.,0.));
#384=DIRECTION('',(0.,0.,-1.));
#385=DIRECTION('center_axis',(0.,0.,-1.));
#386=DIRECTION('ref_axis',(1.,0.,0.));
#387=DIRECTION('center_axis',(-1.,0.,0.));
#388=DIRECTION('ref_axis',(0.,1.,0.));
#389=DIRECTION('',(0.,1.,0.));
#390=DIRECTION('',(0.,0.,-1.));
#391=DIRECTION('',(0.,-1.,0.));
#392=DIRECTION('center_axis',(-1.,0.,0.));
#393=DIRECTION('ref_axis',(0.,0.,1.));
#394=DIRECTION('center_axis',(0.,0.,1.));
#395=DIRECTION('ref_axis',(1.,0.,0.));
#396=DIRECTION('',(-1.,0.,0.));
#397=DIRECTION('',(0.,-1.,0.));
#398=DIRECTION('',(1.,0.,0.));
#399=DIRECTION('',(0.,1.,0.));
#400=DIRECTION('',(0.,-1.,0.));
#401=DIRECTION('center_axis',(0.,0.,-1.));
#402=DIRECTION('ref_axis',(1.,0.,0.));
#403=DIRECTION('',(0.,-1.,0.));
#404=DIRECTION('center_axis',(0.,0.,-1.));
#405=DIRECTION('ref_axis',(1.,0.,0.));
#406=DIRECTION('',(0.,1.,0.));
#407=DIRECTION('center_axis',(0.,0.,-1.));
#408=DIRECTION('ref_axis',(1.,0.,0.));
#409=DIRECTION('center_axis',(0.,0.,1.));
#410=DIRECTION('ref_axis',(7.04481399828022E-16,-1.,0.));
#411=DIRECTION('',(0.,0.,-1.));
#412=DIRECTION('',(0.,0.,1.));
#413=DIRECTION('center_axis',(0.,0.,1.));
#414=DIRECTION('ref_axis',(1.,0.,0.));
#415=DIRECTION('center_axis',(-1.,0.,0.));
#416=DIRECTION('ref_axis',(0.,1.,0.));
#417=DIRECTION('',(0.,-1.,0.));
#418=DIRECTION('',(0.,0.,1.));
#419=DIRECTION('center_axis',(0.,0.,1.));
#420=DIRECTION('ref_axis',(1.,0.,0.));
#421=DIRECTION('',(1.,0.,0.));
#422=DIRECTION('',(0.,-1.,0.));
#423=DIRECTION('',(-1.,0.,0.));
#424=DIRECTION('',(0.,1.,0.));
#425=DIRECTION('center_axis',(0.,0.,1.));
#426=DIRECTION('ref_axis',(1.,0.,0.));
#427=DIRECTION('',(0.,1.,0.));
#428=DIRECTION('center_axis',(0.,0.,1.));
#429=DIRECTION('ref_axis',(1.,0.,0.));
#430=DIRECTION('',(0.,1.,0.));
#431=DIRECTION('center_axis',(0.,0.,1.));
#432=DIRECTION('ref_axis',(-1.,1.22464679914735E-16,0.));
#433=DIRECTION('center_axis',(0.,0.,1.));
#434=DIRECTION('ref_axis',(1.,0.,0.));
#435=DIRECTION('',(0.,0.,1.));
#436=DIRECTION('',(0.,0.,-1.));
#437=DIRECTION('center_axis',(1.,0.,0.));
#438=DIRECTION('ref_axis',(0.,-1.,0.));
#439=DIRECTION('center_axis',(-1.,0.,0.));
#440=DIRECTION('ref_axis',(0.,0.,1.));
#441=DIRECTION('center_axis',(1.,0.,0.));
#442=DIRECTION('ref_axis',(0.,0.,1.));
#443=DIRECTION('center_axis',(1.,0.,0.));
#444=DIRECTION('ref_axis',(0.,0.,1.));
#445=DIRECTION('',(1.,0.,0.));
#446=DIRECTION('center_axis',(1.,0.,0.));
#447=DIRECTION('ref_axis',(0.,-1.,0.));
#448=DIRECTION('center_axis',(1.,0.,0.));
#449=DIRECTION('ref_axis',(0.,0.,-1.));
#450=DIRECTION('center_axis',(1.,0.,0.));
#451=DIRECTION('ref_axis',(0.,1.,0.));
#452=DIRECTION('',(0.,0.,1.));
#453=DIRECTION('',(0.,0.,1.));
#454=DIRECTION('center_axis',(-1.,0.,0.));
#455=DIRECTION('ref_axis',(0.,0.,-1.));
#456=DIRECTION('center_axis',(-1.,0.,0.));
#457=DIRECTION('ref_axis',(0.,0.,-1.));
#458=DIRECTION('center_axis',(1.,0.,0.));
#459=DIRECTION('ref_axis',(0.,0.,-1.));
#460=DIRECTION('',(-1.,0.,0.));
#461=DIRECTION('center_axis',(-1.,0.,0.));
#462=DIRECTION('ref_axis',(0.,-1.,0.));
#463=DIRECTION('',(0.,0.,1.));
#464=DIRECTION('',(0.,0.,1.));
#465=DIRECTION('center_axis',(0.,-1.,0.));
#466=DIRECTION('ref_axis',(1.,0.,0.));
#467=DIRECTION('center_axis',(0.,1.,0.));
#468=DIRECTION('ref_axis',(-1.,0.,0.));
#469=CARTESIAN_POINT('',(0.,0.,0.));
#470=CARTESIAN_POINT('Origin',(4.44089209850063E-15,40.,-97.6374693883601));
#471=CARTESIAN_POINT('',(-1.25,35.9903242026318,0.));
#472=CARTESIAN_POINT('',(-1.25,35.9903242026318,6.99999999999999));
#473=CARTESIAN_POINT('',(-1.25,35.9903242026318,-97.6374693883601));
#474=CARTESIAN_POINT('',(1.25,35.9903242026318,0.));
#475=CARTESIAN_POINT('Origin',(4.44089209850063E-15,40.,0.));
#476=CARTESIAN_POINT('',(1.25,35.9903242026318,6.99999999999999));
#477=CARTESIAN_POINT('',(1.25,35.9903242026318,-97.6374693883601));
#478=CARTESIAN_POINT('Origin',(4.44089209850063E-15,40.,6.99999999999999));
#479=CARTESIAN_POINT('Origin',(-1.25,-37.,7.));
#480=CARTESIAN_POINT('',(-1.25,4.59604928172012,7.));
#481=CARTESIAN_POINT('',(-1.25,-18.5,7.));
#482=CARTESIAN_POINT('',(-1.25,4.59604928172012,0.));
#483=CARTESIAN_POINT('',(-1.25,4.59604928172012,-97.6374693883601));
#484=CARTESIAN_POINT('',(-1.25,-18.5,0.));
#485=CARTESIAN_POINT('',(-1.25,10.,1.35));
#486=CARTESIAN_POINT('Origin',(-1.25,10.,3.5));
#487=CARTESIAN_POINT('Origin',(0.,0.,7.));
#488=CARTESIAN_POINT('',(15.,50.,7.));
#489=CARTESIAN_POINT('',(-15.,50.,7.));
#490=CARTESIAN_POINT('',(-15.,50.,7.));
#491=CARTESIAN_POINT('',(-15.,-50.,7.));
#492=CARTESIAN_POINT('',(-15.,-50.,7.));
#493=CARTESIAN_POINT('',(15.,-50.,7.));
#494=CARTESIAN_POINT('',(15.,-50.,7.));
#495=CARTESIAN_POINT('',(15.,50.,7.));
#496=CARTESIAN_POINT('',(1.25,4.59604928172012,7.));
#497=CARTESIAN_POINT('',(1.25,18.5,7.));
#498=CARTESIAN_POINT('',(1.25,-4.59604928172012,7.));
#499=CARTESIAN_POINT('Origin',(4.44089209850063E-15,0.,6.99999999999999));
#500=CARTESIAN_POINT('',(1.25,-35.9903242026318,7.));
#501=CARTESIAN_POINT('',(1.25,18.5,7.));
#502=CARTESIAN_POINT('',(-1.25,-35.9903242026318,6.99999999999999));
#503=CARTESIAN_POINT('Origin',(4.44089209850063E-15,-40.,6.99999999999999));
#504=CARTESIAN_POINT('',(-1.25,-4.59604928172012,7.));
#505=CARTESIAN_POINT('',(-1.25,-18.5,7.));
#506=CARTESIAN_POINT('Origin',(4.44089209850063E-15,0.,6.99999999999999));
#507=CARTESIAN_POINT('Origin',(4.44089209850063E-15,-40.,-97.6374693883601));
#508=CARTESIAN_POINT('',(-1.25,-35.9903242026318,0.));
#509=CARTESIAN_POINT('',(-1.25,-35.9903242026318,-97.6374693883601));
#510=CARTESIAN_POINT('',(1.25,-35.9903242026318,0.));
#511=CARTESIAN_POINT('',(1.25,-35.9903242026318,-97.6374693883601));
#512=CARTESIAN_POINT('Origin',(4.44089209850063E-15,-40.,0.));
#513=CARTESIAN_POINT('Origin',(-1.25,-37.,7.));
#514=CARTESIAN_POINT('',(-1.25,-4.59604928172012,0.));
#515=CARTESIAN_POINT('',(-1.25,-18.5,0.));
#516=CARTESIAN_POINT('',(-1.25,-4.59604928172012,-97.6374693883601));
#517=CARTESIAN_POINT('Origin',(0.,0.,0.));
#518=CARTESIAN_POINT('',(-15.,50.,0.));
#519=CARTESIAN_POINT('',(15.,50.,0.));
#520=CARTESIAN_POINT('',(-15.,50.,0.));
#521=CARTESIAN_POINT('',(15.,-50.,0.));
#522=CARTESIAN_POINT('',(15.,50.,0.));
#523=CARTESIAN_POINT('',(-15.,-50.,0.));
#524=CARTESIAN_POINT('',(15.,-50.,0.));
#525=CARTESIAN_POINT('',(-15.,-50.,0.));
#526=CARTESIAN_POINT('Origin',(4.44089209850063E-15,0.,0.));
#527=CARTESIAN_POINT('',(1.25,-4.59604928172012,0.));
#528=CARTESIAN_POINT('',(1.25,18.5,0.));
#529=CARTESIAN_POINT('',(1.25,4.59604928172012,0.));
#530=CARTESIAN_POINT('Origin',(4.44089209850063E-15,0.,0.));
#531=CARTESIAN_POINT('',(1.25,18.5,0.));
#532=CARTESIAN_POINT('Origin',(4.44089209850063E-15,0.,-97.6374693883601));
#533=CARTESIAN_POINT('Origin',(4.44089209850063E-15,0.,-97.6374693883601));
#534=CARTESIAN_POINT('',(1.25,4.59604928172012,-97.6374693883601));
#535=CARTESIAN_POINT('',(1.25,-4.59604928172012,-97.6374693883601));
#536=CARTESIAN_POINT('Origin',(1.25,37.,7.));
#537=CARTESIAN_POINT('Origin',(89.6374693883601,10.,3.5));
#538=CARTESIAN_POINT('',(-15.,10.,5.65));
#539=CARTESIAN_POINT('',(-15.,10.,1.35));
#540=CARTESIAN_POINT('Origin',(-15.,10.,3.5));
#541=CARTESIAN_POINT('Origin',(-15.,10.,3.5));
#542=CARTESIAN_POINT('',(89.6374693883601,10.,1.35));
#543=CARTESIAN_POINT('Origin',(1.25,37.,7.));
#544=CARTESIAN_POINT('',(1.25,10.,5.121));
#545=CARTESIAN_POINT('Origin',(1.25,10.,3.5));
#546=CARTESIAN_POINT('Origin',(15.,-50.,0.));
#547=CARTESIAN_POINT('',(15.,50.,0.));
#548=CARTESIAN_POINT('',(15.,-50.,0.));
#549=CARTESIAN_POINT('',(15.,10.,1.879));
#550=CARTESIAN_POINT('',(15.,10.,5.121));
#551=CARTESIAN_POINT('Origin',(15.,10.,3.5));
#552=CARTESIAN_POINT('Origin',(15.,10.,3.5));
#553=CARTESIAN_POINT('Origin',(-89.6374693883601,10.,3.5));
#554=CARTESIAN_POINT('',(-89.6374693883601,10.,5.121));
#555=CARTESIAN_POINT('Origin',(-15.,50.,0.));
#556=CARTESIAN_POINT('',(-15.,-50.,0.));
#557=CARTESIAN_POINT('',(-15.,50.,0.));
#558=CARTESIAN_POINT('Origin',(-15.,-50.,0.));
#559=CARTESIAN_POINT('Origin',(15.,50.,0.));
#560=UNCERTAINTY_MEASURE_WITH_UNIT(LENGTH_MEASURE(0.01),#564,
'DISTANCE_ACCURACY_VALUE',
'Maximum model space distance between geometric entities at asserted c
onnectivities');
#561=UNCERTAINTY_MEASURE_WITH_UNIT(LENGTH_MEASURE(0.01),#564,
'DISTANCE_ACCURACY_VALUE',
'Maximum model space distance between geometric entities at asserted c
onnectivities');
#562=(
GEOMETRIC_REPRESENTATION_CONTEXT(3)
GLOBAL_UNCERTAINTY_ASSIGNED_CONTEXT((#560))
GLOBAL_UNIT_ASSIGNED_CONTEXT((#564,#566,#567))
REPRESENTATION_CONTEXT('','3D')
);
#563=(
GEOMETRIC_REPRESENTATION_CONTEXT(3)
GLOBAL_UNCERTAINTY_ASSIGNED_CONTEXT((#561))
GLOBAL_UNIT_ASSIGNED_CONTEXT((#564,#566,#567))
REPRESENTATION_CONTEXT('','3D')
);
#564=(
LENGTH_UNIT()
NAMED_UNIT(*)
SI_UNIT(.MILLI.,.METRE.)
);
#565=(
LENGTH_UNIT()
NAMED_UNIT(*)
SI_UNIT(.CENTI.,.METRE.)
);
#566=(
NAMED_UNIT(*)
PLANE_ANGLE_UNIT()
SI_UNIT($,.RADIAN.)
);
#567=(
NAMED_UNIT(*)
SI_UNIT($,.STERADIAN.)
SOLID_ANGLE_UNIT()
);
#568=SHAPE_DEFINITION_REPRESENTATION(#569,#570);
#569=PRODUCT_DEFINITION_SHAPE('',$,#572);
#570=SHAPE_REPRESENTATION('',(#346),#562);
#571=PRODUCT_DEFINITION_CONTEXT('part definition',#576,'design');
#572=PRODUCT_DEFINITION('GSE-1201-030-001-A',
'GSE-1201-030-001-A (Clampe pivot int\X\E9rieure)',#573,#571);
#573=PRODUCT_DEFINITION_FORMATION('A',$,#578);
#574=PRODUCT_RELATED_PRODUCT_CATEGORY(
'GSE-1201-030-001-A (Clampe pivot int\X\E9rieure)',
'GSE-1201-030-001-A (Clampe pivot int\X\E9rieure)',(#578));
#575=APPLICATION_PROTOCOL_DEFINITION('international standard',
'automotive_design',2009,#576);
#576=APPLICATION_CONTEXT(
'Core Data for Automotive Mechanical Design Process');
#577=PRODUCT_CONTEXT('part definition',#576,'mechanical');
#578=PRODUCT('GSE-1201-030-001-A',
'GSE-1201-030-001-A (Clampe pivot int\X\E9rieure)',$,(#577));
#579=PRESENTATION_STYLE_ASSIGNMENT((#580));
#580=SURFACE_STYLE_USAGE(.BOTH.,#583);
#581=SURFACE_STYLE_RENDERING_WITH_PROPERTIES($,#587,(#582));
#582=SURFACE_STYLE_TRANSPARENT(0.);
#583=SURFACE_SIDE_STYLE('',(#584,#581));
#584=SURFACE_STYLE_FILL_AREA(#585);
#585=FILL_AREA_STYLE('',(#586));
#586=FILL_AREA_STYLE_COLOUR('',#587);
#587=COLOUR_RGB('',0.996078431372549,0.996078431372549,1.);
ENDSEC;
END-ISO-10303-21;
