ISO-10303-21;
HEADER;
/* Generated by software containing ST-Developer
 * from STEP Tools, Inc. (www.steptools.com) 
 */

FILE_DESCRIPTION(
/* description */ ('Base fixation clamp'),
/* implementation_level */ '2;1');

FILE_NAME(
/* name */ 
'C:\\Users\\louis.petitjean\\Desktop\\GSE-1201-000-000-A Thruster Bala
nce\\Storage fixation\\GSE-1201-044-001-A (Base fixation).stp',
/* time_stamp */ '2019-11-25T11:54:01+01:00',
/* author */ ('louis.petitjean'),
/* organization */ ('EXOTRAIL'),
/* preprocessor_version */ 'ST-DEVELOPER v18',
/* originating_system */ 'Autodesk Inventor 2020',
/* authorisation */ '');

FILE_SCHEMA (('AUTOMOTIVE_DESIGN { 1 0 10303 214 3 1 1 }'));
ENDSEC;

DATA;
#10=MECHANICAL_DESIGN_GEOMETRIC_PRESENTATION_REPRESENTATION('',(#13),#677);
#11=SHAPE_REPRESENTATION_RELATIONSHIP('SRR','None',#684,#12);
#12=ADVANCED_BREP_SHAPE_REPRESENTATION('',(#14),#676);
#13=STYLED_ITEM('',(#693),#14);
#14=MANIFOLD_SOLID_BREP('Solide1',#391);
#15=FACE_BOUND('',#82,.T.);
#16=FACE_BOUND('',#86,.T.);
#17=FACE_BOUND('',#94,.T.);
#18=FACE_BOUND('',#95,.T.);
#19=FACE_BOUND('',#96,.T.);
#20=FACE_BOUND('',#97,.T.);
#21=FACE_BOUND('',#99,.T.);
#22=FACE_BOUND('',#100,.T.);
#23=FACE_BOUND('',#101,.T.);
#24=FACE_BOUND('',#102,.T.);
#25=CIRCLE('',#413,2.8);
#26=CIRCLE('',#414,2.8);
#27=CIRCLE('',#417,2.8);
#28=CIRCLE('',#418,2.8);
#29=CIRCLE('',#421,2.8);
#30=CIRCLE('',#422,2.8);
#31=CIRCLE('',#425,2.8);
#32=CIRCLE('',#426,2.8);
#33=CIRCLE('',#428,3.45);
#34=CIRCLE('',#429,3.45);
#35=CIRCLE('',#430,1.7);
#36=CIRCLE('',#432,3.45);
#37=CIRCLE('',#433,3.45);
#38=CIRCLE('',#435,1.7);
#39=CIRCLE('',#437,3.45);
#40=CIRCLE('',#438,3.45);
#41=CIRCLE('',#439,1.7);
#42=CIRCLE('',#441,3.45);
#43=CIRCLE('',#442,3.45);
#44=CIRCLE('',#444,1.7);
#45=CYLINDRICAL_SURFACE('',#412,2.8);
#46=CYLINDRICAL_SURFACE('',#416,2.8);
#47=CYLINDRICAL_SURFACE('',#420,2.8);
#48=CYLINDRICAL_SURFACE('',#424,2.8);
#49=CYLINDRICAL_SURFACE('',#431,3.45);
#50=CYLINDRICAL_SURFACE('',#434,1.7);
#51=CYLINDRICAL_SURFACE('',#440,3.45);
#52=CYLINDRICAL_SURFACE('',#443,1.7);
#53=FACE_OUTER_BOUND('',#73,.T.);
#54=FACE_OUTER_BOUND('',#74,.T.);
#55=FACE_OUTER_BOUND('',#75,.T.);
#56=FACE_OUTER_BOUND('',#76,.T.);
#57=FACE_OUTER_BOUND('',#77,.T.);
#58=FACE_OUTER_BOUND('',#78,.T.);
#59=FACE_OUTER_BOUND('',#79,.T.);
#60=FACE_OUTER_BOUND('',#80,.T.);
#61=FACE_OUTER_BOUND('',#81,.T.);
#62=FACE_OUTER_BOUND('',#83,.T.);
#63=FACE_OUTER_BOUND('',#84,.T.);
#64=FACE_OUTER_BOUND('',#85,.T.);
#65=FACE_OUTER_BOUND('',#87,.T.);
#66=FACE_OUTER_BOUND('',#88,.T.);
#67=FACE_OUTER_BOUND('',#89,.T.);
#68=FACE_OUTER_BOUND('',#90,.T.);
#69=FACE_OUTER_BOUND('',#91,.T.);
#70=FACE_OUTER_BOUND('',#92,.T.);
#71=FACE_OUTER_BOUND('',#93,.T.);
#72=FACE_OUTER_BOUND('',#98,.T.);
#73=EDGE_LOOP('',(#255,#256,#257,#258));
#74=EDGE_LOOP('',(#259,#260,#261,#262));
#75=EDGE_LOOP('',(#263,#264,#265,#266));
#76=EDGE_LOOP('',(#267,#268,#269,#270));
#77=EDGE_LOOP('',(#271,#272,#273,#274));
#78=EDGE_LOOP('',(#275,#276,#277,#278));
#79=EDGE_LOOP('',(#279,#280,#281,#282));
#80=EDGE_LOOP('',(#283,#284,#285,#286));
#81=EDGE_LOOP('',(#287,#288));
#82=EDGE_LOOP('',(#289));
#83=EDGE_LOOP('',(#290,#291,#292,#293,#294,#295));
#84=EDGE_LOOP('',(#296,#297,#298,#299));
#85=EDGE_LOOP('',(#300,#301));
#86=EDGE_LOOP('',(#302));
#87=EDGE_LOOP('',(#303,#304,#305,#306,#307,#308));
#88=EDGE_LOOP('',(#309,#310,#311,#312));
#89=EDGE_LOOP('',(#313,#314,#315,#316));
#90=EDGE_LOOP('',(#317,#318,#319,#320));
#91=EDGE_LOOP('',(#321,#322,#323,#324));
#92=EDGE_LOOP('',(#325,#326,#327,#328));
#93=EDGE_LOOP('',(#329,#330,#331,#332));
#94=EDGE_LOOP('',(#333,#334,#335,#336));
#95=EDGE_LOOP('',(#337,#338,#339,#340));
#96=EDGE_LOOP('',(#341));
#97=EDGE_LOOP('',(#342));
#98=EDGE_LOOP('',(#343,#344,#345,#346));
#99=EDGE_LOOP('',(#347,#348,#349,#350));
#100=EDGE_LOOP('',(#351,#352,#353,#354));
#101=EDGE_LOOP('',(#355,#356));
#102=EDGE_LOOP('',(#357,#358));
#103=LINE('',#569,#135);
#104=LINE('',#571,#136);
#105=LINE('',#573,#137);
#106=LINE('',#574,#138);
#107=LINE('',#580,#139);
#108=LINE('',#583,#140);
#109=LINE('',#585,#141);
#110=LINE('',#586,#142);
#111=LINE('',#593,#143);
#112=LINE('',#595,#144);
#113=LINE('',#597,#145);
#114=LINE('',#598,#146);
#115=LINE('',#604,#147);
#116=LINE('',#607,#148);
#117=LINE('',#609,#149);
#118=LINE('',#610,#150);
#119=LINE('',#626,#151);
#120=LINE('',#629,#152);
#121=LINE('',#643,#153);
#122=LINE('',#646,#154);
#123=LINE('',#651,#155);
#124=LINE('',#653,#156);
#125=LINE('',#655,#157);
#126=LINE('',#656,#158);
#127=LINE('',#659,#159);
#128=LINE('',#661,#160);
#129=LINE('',#662,#161);
#130=LINE('',#665,#162);
#131=LINE('',#667,#163);
#132=LINE('',#668,#164);
#133=LINE('',#670,#165);
#134=LINE('',#671,#166);
#135=VECTOR('',#455,10.);
#136=VECTOR('',#456,10.);
#137=VECTOR('',#457,10.);
#138=VECTOR('',#458,10.);
#139=VECTOR('',#465,10.);
#140=VECTOR('',#468,10.);
#141=VECTOR('',#469,10.);
#142=VECTOR('',#470,10.);
#143=VECTOR('',#479,10.);
#144=VECTOR('',#480,10.);
#145=VECTOR('',#481,10.);
#146=VECTOR('',#482,10.);
#147=VECTOR('',#489,10.);
#148=VECTOR('',#492,10.);
#149=VECTOR('',#493,10.);
#150=VECTOR('',#494,10.);
#151=VECTOR('',#515,3.45);
#152=VECTOR('',#518,1.7);
#153=VECTOR('',#535,3.45);
#154=VECTOR('',#538,1.7);
#155=VECTOR('',#543,10.);
#156=VECTOR('',#544,10.);
#157=VECTOR('',#545,10.);
#158=VECTOR('',#546,10.);
#159=VECTOR('',#549,10.);
#160=VECTOR('',#550,10.);
#161=VECTOR('',#551,10.);
#162=VECTOR('',#554,10.);
#163=VECTOR('',#555,10.);
#164=VECTOR('',#556,10.);
#165=VECTOR('',#559,10.);
#166=VECTOR('',#560,10.);
#167=VERTEX_POINT('',#567);
#168=VERTEX_POINT('',#568);
#169=VERTEX_POINT('',#570);
#170=VERTEX_POINT('',#572);
#171=VERTEX_POINT('',#576);
#172=VERTEX_POINT('',#578);
#173=VERTEX_POINT('',#582);
#174=VERTEX_POINT('',#584);
#175=VERTEX_POINT('',#591);
#176=VERTEX_POINT('',#592);
#177=VERTEX_POINT('',#594);
#178=VERTEX_POINT('',#596);
#179=VERTEX_POINT('',#600);
#180=VERTEX_POINT('',#602);
#181=VERTEX_POINT('',#606);
#182=VERTEX_POINT('',#608);
#183=VERTEX_POINT('',#615);
#184=VERTEX_POINT('',#616);
#185=VERTEX_POINT('',#619);
#186=VERTEX_POINT('',#622);
#187=VERTEX_POINT('',#623);
#188=VERTEX_POINT('',#628);
#189=VERTEX_POINT('',#632);
#190=VERTEX_POINT('',#633);
#191=VERTEX_POINT('',#636);
#192=VERTEX_POINT('',#639);
#193=VERTEX_POINT('',#640);
#194=VERTEX_POINT('',#645);
#195=VERTEX_POINT('',#649);
#196=VERTEX_POINT('',#650);
#197=VERTEX_POINT('',#652);
#198=VERTEX_POINT('',#654);
#199=VERTEX_POINT('',#658);
#200=VERTEX_POINT('',#660);
#201=VERTEX_POINT('',#664);
#202=VERTEX_POINT('',#666);
#203=EDGE_CURVE('',#167,#168,#103,.T.);
#204=EDGE_CURVE('',#169,#167,#104,.T.);
#205=EDGE_CURVE('',#170,#169,#105,.T.);
#206=EDGE_CURVE('',#170,#168,#106,.T.);
#207=EDGE_CURVE('',#168,#171,#25,.T.);
#208=EDGE_CURVE('',#172,#170,#26,.T.);
#209=EDGE_CURVE('',#172,#171,#107,.T.);
#210=EDGE_CURVE('',#171,#173,#108,.T.);
#211=EDGE_CURVE('',#174,#172,#109,.T.);
#212=EDGE_CURVE('',#174,#173,#110,.T.);
#213=EDGE_CURVE('',#173,#167,#27,.T.);
#214=EDGE_CURVE('',#169,#174,#28,.T.);
#215=EDGE_CURVE('',#175,#176,#111,.T.);
#216=EDGE_CURVE('',#177,#175,#112,.T.);
#217=EDGE_CURVE('',#178,#177,#113,.T.);
#218=EDGE_CURVE('',#178,#176,#114,.T.);
#219=EDGE_CURVE('',#176,#179,#29,.T.);
#220=EDGE_CURVE('',#180,#178,#30,.T.);
#221=EDGE_CURVE('',#180,#179,#115,.T.);
#222=EDGE_CURVE('',#179,#181,#116,.T.);
#223=EDGE_CURVE('',#182,#180,#117,.T.);
#224=EDGE_CURVE('',#182,#181,#118,.T.);
#225=EDGE_CURVE('',#181,#175,#31,.T.);
#226=EDGE_CURVE('',#177,#182,#32,.T.);
#227=EDGE_CURVE('',#183,#184,#33,.T.);
#228=EDGE_CURVE('',#184,#183,#34,.T.);
#229=EDGE_CURVE('',#185,#185,#35,.T.);
#230=EDGE_CURVE('',#186,#187,#36,.T.);
#231=EDGE_CURVE('',#187,#186,#37,.T.);
#232=EDGE_CURVE('',#187,#184,#119,.T.);
#233=EDGE_CURVE('',#185,#188,#120,.T.);
#234=EDGE_CURVE('',#188,#188,#38,.T.);
#235=EDGE_CURVE('',#189,#190,#39,.T.);
#236=EDGE_CURVE('',#190,#189,#40,.T.);
#237=EDGE_CURVE('',#191,#191,#41,.T.);
#238=EDGE_CURVE('',#192,#193,#42,.T.);
#239=EDGE_CURVE('',#193,#192,#43,.T.);
#240=EDGE_CURVE('',#193,#190,#121,.T.);
#241=EDGE_CURVE('',#191,#194,#122,.T.);
#242=EDGE_CURVE('',#194,#194,#44,.T.);
#243=EDGE_CURVE('',#195,#196,#123,.T.);
#244=EDGE_CURVE('',#196,#197,#124,.T.);
#245=EDGE_CURVE('',#198,#197,#125,.T.);
#246=EDGE_CURVE('',#195,#198,#126,.T.);
#247=EDGE_CURVE('',#199,#195,#127,.T.);
#248=EDGE_CURVE('',#200,#198,#128,.T.);
#249=EDGE_CURVE('',#199,#200,#129,.T.);
#250=EDGE_CURVE('',#201,#199,#130,.T.);
#251=EDGE_CURVE('',#202,#200,#131,.T.);
#252=EDGE_CURVE('',#201,#202,#132,.T.);
#253=EDGE_CURVE('',#196,#201,#133,.T.);
#254=EDGE_CURVE('',#197,#202,#134,.T.);
#255=ORIENTED_EDGE('',*,*,#203,.F.);
#256=ORIENTED_EDGE('',*,*,#204,.F.);
#257=ORIENTED_EDGE('',*,*,#205,.F.);
#258=ORIENTED_EDGE('',*,*,#206,.T.);
#259=ORIENTED_EDGE('',*,*,#207,.F.);
#260=ORIENTED_EDGE('',*,*,#206,.F.);
#261=ORIENTED_EDGE('',*,*,#208,.F.);
#262=ORIENTED_EDGE('',*,*,#209,.T.);
#263=ORIENTED_EDGE('',*,*,#210,.F.);
#264=ORIENTED_EDGE('',*,*,#209,.F.);
#265=ORIENTED_EDGE('',*,*,#211,.F.);
#266=ORIENTED_EDGE('',*,*,#212,.T.);
#267=ORIENTED_EDGE('',*,*,#213,.F.);
#268=ORIENTED_EDGE('',*,*,#212,.F.);
#269=ORIENTED_EDGE('',*,*,#214,.F.);
#270=ORIENTED_EDGE('',*,*,#204,.T.);
#271=ORIENTED_EDGE('',*,*,#215,.F.);
#272=ORIENTED_EDGE('',*,*,#216,.F.);
#273=ORIENTED_EDGE('',*,*,#217,.F.);
#274=ORIENTED_EDGE('',*,*,#218,.T.);
#275=ORIENTED_EDGE('',*,*,#219,.F.);
#276=ORIENTED_EDGE('',*,*,#218,.F.);
#277=ORIENTED_EDGE('',*,*,#220,.F.);
#278=ORIENTED_EDGE('',*,*,#221,.T.);
#279=ORIENTED_EDGE('',*,*,#222,.F.);
#280=ORIENTED_EDGE('',*,*,#221,.F.);
#281=ORIENTED_EDGE('',*,*,#223,.F.);
#282=ORIENTED_EDGE('',*,*,#224,.T.);
#283=ORIENTED_EDGE('',*,*,#225,.F.);
#284=ORIENTED_EDGE('',*,*,#224,.F.);
#285=ORIENTED_EDGE('',*,*,#226,.F.);
#286=ORIENTED_EDGE('',*,*,#216,.T.);
#287=ORIENTED_EDGE('',*,*,#227,.T.);
#288=ORIENTED_EDGE('',*,*,#228,.T.);
#289=ORIENTED_EDGE('',*,*,#229,.F.);
#290=ORIENTED_EDGE('',*,*,#230,.F.);
#291=ORIENTED_EDGE('',*,*,#231,.F.);
#292=ORIENTED_EDGE('',*,*,#232,.T.);
#293=ORIENTED_EDGE('',*,*,#227,.F.);
#294=ORIENTED_EDGE('',*,*,#228,.F.);
#295=ORIENTED_EDGE('',*,*,#232,.F.);
#296=ORIENTED_EDGE('',*,*,#229,.T.);
#297=ORIENTED_EDGE('',*,*,#233,.T.);
#298=ORIENTED_EDGE('',*,*,#234,.F.);
#299=ORIENTED_EDGE('',*,*,#233,.F.);
#300=ORIENTED_EDGE('',*,*,#235,.T.);
#301=ORIENTED_EDGE('',*,*,#236,.T.);
#302=ORIENTED_EDGE('',*,*,#237,.F.);
#303=ORIENTED_EDGE('',*,*,#238,.F.);
#304=ORIENTED_EDGE('',*,*,#239,.F.);
#305=ORIENTED_EDGE('',*,*,#240,.T.);
#306=ORIENTED_EDGE('',*,*,#235,.F.);
#307=ORIENTED_EDGE('',*,*,#236,.F.);
#308=ORIENTED_EDGE('',*,*,#240,.F.);
#309=ORIENTED_EDGE('',*,*,#237,.T.);
#310=ORIENTED_EDGE('',*,*,#241,.T.);
#311=ORIENTED_EDGE('',*,*,#242,.F.);
#312=ORIENTED_EDGE('',*,*,#241,.F.);
#313=ORIENTED_EDGE('',*,*,#243,.T.);
#314=ORIENTED_EDGE('',*,*,#244,.T.);
#315=ORIENTED_EDGE('',*,*,#245,.F.);
#316=ORIENTED_EDGE('',*,*,#246,.F.);
#317=ORIENTED_EDGE('',*,*,#247,.T.);
#318=ORIENTED_EDGE('',*,*,#246,.T.);
#319=ORIENTED_EDGE('',*,*,#248,.F.);
#320=ORIENTED_EDGE('',*,*,#249,.F.);
#321=ORIENTED_EDGE('',*,*,#250,.T.);
#322=ORIENTED_EDGE('',*,*,#249,.T.);
#323=ORIENTED_EDGE('',*,*,#251,.F.);
#324=ORIENTED_EDGE('',*,*,#252,.F.);
#325=ORIENTED_EDGE('',*,*,#253,.T.);
#326=ORIENTED_EDGE('',*,*,#252,.T.);
#327=ORIENTED_EDGE('',*,*,#254,.F.);
#328=ORIENTED_EDGE('',*,*,#244,.F.);
#329=ORIENTED_EDGE('',*,*,#254,.T.);
#330=ORIENTED_EDGE('',*,*,#251,.T.);
#331=ORIENTED_EDGE('',*,*,#248,.T.);
#332=ORIENTED_EDGE('',*,*,#245,.T.);
#333=ORIENTED_EDGE('',*,*,#205,.T.);
#334=ORIENTED_EDGE('',*,*,#214,.T.);
#335=ORIENTED_EDGE('',*,*,#211,.T.);
#336=ORIENTED_EDGE('',*,*,#208,.T.);
#337=ORIENTED_EDGE('',*,*,#223,.T.);
#338=ORIENTED_EDGE('',*,*,#220,.T.);
#339=ORIENTED_EDGE('',*,*,#217,.T.);
#340=ORIENTED_EDGE('',*,*,#226,.T.);
#341=ORIENTED_EDGE('',*,*,#234,.T.);
#342=ORIENTED_EDGE('',*,*,#242,.T.);
#343=ORIENTED_EDGE('',*,*,#253,.F.);
#344=ORIENTED_EDGE('',*,*,#243,.F.);
#345=ORIENTED_EDGE('',*,*,#247,.F.);
#346=ORIENTED_EDGE('',*,*,#250,.F.);
#347=ORIENTED_EDGE('',*,*,#203,.T.);
#348=ORIENTED_EDGE('',*,*,#207,.T.);
#349=ORIENTED_EDGE('',*,*,#210,.T.);
#350=ORIENTED_EDGE('',*,*,#213,.T.);
#351=ORIENTED_EDGE('',*,*,#222,.T.);
#352=ORIENTED_EDGE('',*,*,#225,.T.);
#353=ORIENTED_EDGE('',*,*,#215,.T.);
#354=ORIENTED_EDGE('',*,*,#219,.T.);
#355=ORIENTED_EDGE('',*,*,#230,.T.);
#356=ORIENTED_EDGE('',*,*,#231,.T.);
#357=ORIENTED_EDGE('',*,*,#238,.T.);
#358=ORIENTED_EDGE('',*,*,#239,.T.);
#359=PLANE('',#411);
#360=PLANE('',#415);
#361=PLANE('',#419);
#362=PLANE('',#423);
#363=PLANE('',#427);
#364=PLANE('',#436);
#365=PLANE('',#445);
#366=PLANE('',#446);
#367=PLANE('',#447);
#368=PLANE('',#448);
#369=PLANE('',#449);
#370=PLANE('',#450);
#371=ADVANCED_FACE('',(#53),#359,.F.);
#372=ADVANCED_FACE('',(#54),#45,.F.);
#373=ADVANCED_FACE('',(#55),#360,.F.);
#374=ADVANCED_FACE('',(#56),#46,.F.);
#375=ADVANCED_FACE('',(#57),#361,.F.);
#376=ADVANCED_FACE('',(#58),#47,.F.);
#377=ADVANCED_FACE('',(#59),#362,.F.);
#378=ADVANCED_FACE('',(#60),#48,.F.);
#379=ADVANCED_FACE('',(#61,#15),#363,.T.);
#380=ADVANCED_FACE('',(#62),#49,.F.);
#381=ADVANCED_FACE('',(#63),#50,.F.);
#382=ADVANCED_FACE('',(#64,#16),#364,.T.);
#383=ADVANCED_FACE('',(#65),#51,.F.);
#384=ADVANCED_FACE('',(#66),#52,.F.);
#385=ADVANCED_FACE('',(#67),#365,.T.);
#386=ADVANCED_FACE('',(#68),#366,.T.);
#387=ADVANCED_FACE('',(#69),#367,.T.);
#388=ADVANCED_FACE('',(#70),#368,.T.);
#389=ADVANCED_FACE('',(#71,#17,#18,#19,#20),#369,.T.);
#390=ADVANCED_FACE('',(#72,#21,#22,#23,#24),#370,.F.);
#391=CLOSED_SHELL('',(#371,#372,#373,#374,#375,#376,#377,#378,#379,#380,
#381,#382,#383,#384,#385,#386,#387,#388,#389,#390));
#392=DERIVED_UNIT_ELEMENT(#394,1.);
#393=DERIVED_UNIT_ELEMENT(#679,3.);
#394=(
MASS_UNIT()
NAMED_UNIT(*)
SI_UNIT($,.GRAM.)
);
#395=DERIVED_UNIT((#392,#393));
#396=MEASURE_REPRESENTATION_ITEM('density measure',
POSITIVE_RATIO_MEASURE(8.),#395);
#397=PROPERTY_DEFINITION_REPRESENTATION(#402,#399);
#398=PROPERTY_DEFINITION_REPRESENTATION(#403,#400);
#399=REPRESENTATION('material name',(#401),#676);
#400=REPRESENTATION('density',(#396),#676);
#401=DESCRIPTIVE_REPRESENTATION_ITEM('Acier inoxydable',
'Acier inoxydable');
#402=PROPERTY_DEFINITION('material property','material name',#686);
#403=PROPERTY_DEFINITION('material property','density of part',#686);
#404=DATE_TIME_ROLE('creation_date');
#405=APPLIED_DATE_AND_TIME_ASSIGNMENT(#406,#404,(#686));
#406=DATE_AND_TIME(#407,#408);
#407=CALENDAR_DATE(2019,22,11);
#408=LOCAL_TIME(11,10,2.,#409);
#409=COORDINATED_UNIVERSAL_TIME_OFFSET(0,0,.BEHIND.);
#410=AXIS2_PLACEMENT_3D('placement',#565,#451,#452);
#411=AXIS2_PLACEMENT_3D('',#566,#453,#454);
#412=AXIS2_PLACEMENT_3D('',#575,#459,#460);
#413=AXIS2_PLACEMENT_3D('',#577,#461,#462);
#414=AXIS2_PLACEMENT_3D('',#579,#463,#464);
#415=AXIS2_PLACEMENT_3D('',#581,#466,#467);
#416=AXIS2_PLACEMENT_3D('',#587,#471,#472);
#417=AXIS2_PLACEMENT_3D('',#588,#473,#474);
#418=AXIS2_PLACEMENT_3D('',#589,#475,#476);
#419=AXIS2_PLACEMENT_3D('',#590,#477,#478);
#420=AXIS2_PLACEMENT_3D('',#599,#483,#484);
#421=AXIS2_PLACEMENT_3D('',#601,#485,#486);
#422=AXIS2_PLACEMENT_3D('',#603,#487,#488);
#423=AXIS2_PLACEMENT_3D('',#605,#490,#491);
#424=AXIS2_PLACEMENT_3D('',#611,#495,#496);
#425=AXIS2_PLACEMENT_3D('',#612,#497,#498);
#426=AXIS2_PLACEMENT_3D('',#613,#499,#500);
#427=AXIS2_PLACEMENT_3D('',#614,#501,#502);
#428=AXIS2_PLACEMENT_3D('',#617,#503,#504);
#429=AXIS2_PLACEMENT_3D('',#618,#505,#506);
#430=AXIS2_PLACEMENT_3D('',#620,#507,#508);
#431=AXIS2_PLACEMENT_3D('',#621,#509,#510);
#432=AXIS2_PLACEMENT_3D('',#624,#511,#512);
#433=AXIS2_PLACEMENT_3D('',#625,#513,#514);
#434=AXIS2_PLACEMENT_3D('',#627,#516,#517);
#435=AXIS2_PLACEMENT_3D('',#630,#519,#520);
#436=AXIS2_PLACEMENT_3D('',#631,#521,#522);
#437=AXIS2_PLACEMENT_3D('',#634,#523,#524);
#438=AXIS2_PLACEMENT_3D('',#635,#525,#526);
#439=AXIS2_PLACEMENT_3D('',#637,#527,#528);
#440=AXIS2_PLACEMENT_3D('',#638,#529,#530);
#441=AXIS2_PLACEMENT_3D('',#641,#531,#532);
#442=AXIS2_PLACEMENT_3D('',#642,#533,#534);
#443=AXIS2_PLACEMENT_3D('',#644,#536,#537);
#444=AXIS2_PLACEMENT_3D('',#647,#539,#540);
#445=AXIS2_PLACEMENT_3D('',#648,#541,#542);
#446=AXIS2_PLACEMENT_3D('',#657,#547,#548);
#447=AXIS2_PLACEMENT_3D('',#663,#552,#553);
#448=AXIS2_PLACEMENT_3D('',#669,#557,#558);
#449=AXIS2_PLACEMENT_3D('',#672,#561,#562);
#450=AXIS2_PLACEMENT_3D('',#673,#563,#564);
#451=DIRECTION('axis',(0.,0.,1.));
#452=DIRECTION('refdir',(1.,0.,0.));
#453=DIRECTION('center_axis',(0.,2.22044604925031E-16,1.));
#454=DIRECTION('ref_axis',(0.,1.,-2.22044604925031E-16));
#455=DIRECTION('',(0.,-1.,2.22044604925031E-16));
#456=DIRECTION('',(-1.,0.,0.));
#457=DIRECTION('',(0.,1.,-2.22044604925031E-16));
#458=DIRECTION('',(-1.,0.,0.));
#459=DIRECTION('center_axis',(-1.,0.,0.));
#460=DIRECTION('ref_axis',(0.,0.,1.));
#461=DIRECTION('center_axis',(1.,0.,0.));
#462=DIRECTION('ref_axis',(0.,0.,1.));
#463=DIRECTION('center_axis',(-1.,0.,0.));
#464=DIRECTION('ref_axis',(0.,0.,1.));
#465=DIRECTION('',(-1.,0.,0.));
#466=DIRECTION('center_axis',(0.,1.11022302462516E-16,-1.));
#467=DIRECTION('ref_axis',(0.,-1.,-1.11022302462516E-16));
#468=DIRECTION('',(0.,1.,1.11022302462516E-16));
#469=DIRECTION('',(0.,-1.,-1.11022302462516E-16));
#470=DIRECTION('',(-1.,0.,0.));
#471=DIRECTION('center_axis',(-1.,0.,0.));
#472=DIRECTION('ref_axis',(0.,0.,-1.));
#473=DIRECTION('center_axis',(1.,0.,0.));
#474=DIRECTION('ref_axis',(0.,0.,-1.));
#475=DIRECTION('center_axis',(-1.,0.,0.));
#476=DIRECTION('ref_axis',(0.,0.,-1.));
#477=DIRECTION('center_axis',(0.,2.22044604925031E-16,1.));
#478=DIRECTION('ref_axis',(0.,1.,-2.22044604925031E-16));
#479=DIRECTION('',(0.,-1.,2.22044604925031E-16));
#480=DIRECTION('',(-1.,0.,0.));
#481=DIRECTION('',(0.,1.,-2.22044604925031E-16));
#482=DIRECTION('',(-1.,0.,0.));
#483=DIRECTION('center_axis',(-1.,0.,0.));
#484=DIRECTION('ref_axis',(0.,0.,1.));
#485=DIRECTION('center_axis',(1.,0.,0.));
#486=DIRECTION('ref_axis',(0.,0.,1.));
#487=DIRECTION('center_axis',(-1.,0.,0.));
#488=DIRECTION('ref_axis',(0.,0.,1.));
#489=DIRECTION('',(-1.,0.,0.));
#490=DIRECTION('center_axis',(0.,1.11022302462516E-16,-1.));
#491=DIRECTION('ref_axis',(0.,-1.,-1.11022302462516E-16));
#492=DIRECTION('',(0.,1.,1.11022302462516E-16));
#493=DIRECTION('',(0.,-1.,-1.11022302462516E-16));
#494=DIRECTION('',(-1.,0.,0.));
#495=DIRECTION('center_axis',(-1.,0.,0.));
#496=DIRECTION('ref_axis',(0.,0.,-1.));
#497=DIRECTION('center_axis',(1.,0.,0.));
#498=DIRECTION('ref_axis',(0.,0.,-1.));
#499=DIRECTION('center_axis',(-1.,0.,0.));
#500=DIRECTION('ref_axis',(0.,0.,-1.));
#501=DIRECTION('center_axis',(-1.,0.,0.));
#502=DIRECTION('ref_axis',(0.,0.,1.));
#503=DIRECTION('center_axis',(-1.,0.,0.));
#504=DIRECTION('ref_axis',(0.,0.,1.));
#505=DIRECTION('center_axis',(-1.,0.,0.));
#506=DIRECTION('ref_axis',(0.,0.,1.));
#507=DIRECTION('center_axis',(-1.,0.,0.));
#508=DIRECTION('ref_axis',(0.,0.,1.));
#509=DIRECTION('center_axis',(-1.,0.,0.));
#510=DIRECTION('ref_axis',(0.,0.,1.));
#511=DIRECTION('center_axis',(1.,0.,0.));
#512=DIRECTION('ref_axis',(0.,0.,1.));
#513=DIRECTION('center_axis',(1.,0.,0.));
#514=DIRECTION('ref_axis',(0.,0.,1.));
#515=DIRECTION('',(1.,0.,0.));
#516=DIRECTION('center_axis',(-1.,0.,0.));
#517=DIRECTION('ref_axis',(0.,0.,1.));
#518=DIRECTION('',(1.,0.,0.));
#519=DIRECTION('center_axis',(-1.,0.,0.));
#520=DIRECTION('ref_axis',(0.,0.,1.));
#521=DIRECTION('center_axis',(-1.,0.,0.));
#522=DIRECTION('ref_axis',(0.,0.,1.));
#523=DIRECTION('center_axis',(-1.,0.,0.));
#524=DIRECTION('ref_axis',(0.,0.,1.));
#525=DIRECTION('center_axis',(-1.,0.,0.));
#526=DIRECTION('ref_axis',(0.,0.,1.));
#527=DIRECTION('center_axis',(-1.,0.,0.));
#528=DIRECTION('ref_axis',(0.,0.,1.));
#529=DIRECTION('center_axis',(-1.,0.,0.));
#530=DIRECTION('ref_axis',(0.,0.,1.));
#531=DIRECTION('center_axis',(1.,0.,0.));
#532=DIRECTION('ref_axis',(0.,0.,1.));
#533=DIRECTION('center_axis',(1.,0.,0.));
#534=DIRECTION('ref_axis',(0.,0.,1.));
#535=DIRECTION('',(1.,0.,0.));
#536=DIRECTION('center_axis',(-1.,0.,0.));
#537=DIRECTION('ref_axis',(0.,0.,1.));
#538=DIRECTION('',(1.,0.,0.));
#539=DIRECTION('center_axis',(-1.,0.,0.));
#540=DIRECTION('ref_axis',(0.,0.,1.));
#541=DIRECTION('center_axis',(0.,1.,0.));
#542=DIRECTION('ref_axis',(0.,0.,1.));
#543=DIRECTION('',(0.,0.,1.));
#544=DIRECTION('',(1.,0.,0.));
#545=DIRECTION('',(0.,0.,1.));
#546=DIRECTION('',(1.,0.,0.));
#547=DIRECTION('center_axis',(0.,1.48029736616688E-16,-1.));
#548=DIRECTION('ref_axis',(0.,1.,1.48029736616688E-16));
#549=DIRECTION('',(0.,1.,1.48029736616688E-16));
#550=DIRECTION('',(0.,1.,1.48029736616688E-16));
#551=DIRECTION('',(1.,0.,0.));
#552=DIRECTION('center_axis',(0.,-1.,-1.83697019872103E-16));
#553=DIRECTION('ref_axis',(0.,1.83697019872103E-16,-1.));
#554=DIRECTION('',(0.,1.83697019872103E-16,-1.));
#555=DIRECTION('',(0.,1.83697019872103E-16,-1.));
#556=DIRECTION('',(1.,0.,0.));
#557=DIRECTION('center_axis',(0.,0.,1.));
#558=DIRECTION('ref_axis',(0.,-1.,0.));
#559=DIRECTION('',(0.,-1.,0.));
#560=DIRECTION('',(0.,-1.,0.));
#561=DIRECTION('center_axis',(1.,0.,0.));
#562=DIRECTION('ref_axis',(0.,0.,-1.));
#563=DIRECTION('center_axis',(1.,0.,0.));
#564=DIRECTION('ref_axis',(0.,0.,-1.));
#565=CARTESIAN_POINT('',(0.,0.,0.));
#566=CARTESIAN_POINT('Origin',(6.,10.,-4.7));
#567=CARTESIAN_POINT('',(0.,50.,-4.70000000000001));
#568=CARTESIAN_POINT('',(0.,10.,-4.7));
#569=CARTESIAN_POINT('',(0.,20.,-4.7));
#570=CARTESIAN_POINT('',(6.,50.,-4.70000000000001));
#571=CARTESIAN_POINT('',(6.,50.,-4.70000000000001));
#572=CARTESIAN_POINT('',(6.,10.,-4.7));
#573=CARTESIAN_POINT('',(6.,20.,-4.7));
#574=CARTESIAN_POINT('',(6.,10.,-4.7));
#575=CARTESIAN_POINT('Origin',(6.,10.,-7.5));
#576=CARTESIAN_POINT('',(0.,10.,-10.3));
#577=CARTESIAN_POINT('Origin',(0.,10.,-7.5));
#578=CARTESIAN_POINT('',(6.,10.,-10.3));
#579=CARTESIAN_POINT('Origin',(6.,10.,-7.5));
#580=CARTESIAN_POINT('',(6.,10.,-10.3));
#581=CARTESIAN_POINT('Origin',(6.,50.,-10.3));
#582=CARTESIAN_POINT('',(0.,50.,-10.3));
#583=CARTESIAN_POINT('',(0.,40.,-10.3));
#584=CARTESIAN_POINT('',(6.,50.,-10.3));
#585=CARTESIAN_POINT('',(6.,40.,-10.3));
#586=CARTESIAN_POINT('',(6.,50.,-10.3));
#587=CARTESIAN_POINT('Origin',(6.,50.,-7.5));
#588=CARTESIAN_POINT('Origin',(0.,50.,-7.5));
#589=CARTESIAN_POINT('Origin',(6.,50.,-7.5));
#590=CARTESIAN_POINT('Origin',(6.,10.,-29.7));
#591=CARTESIAN_POINT('',(0.,50.,-29.7));
#592=CARTESIAN_POINT('',(0.,10.,-29.7));
#593=CARTESIAN_POINT('',(0.,20.,-29.7));
#594=CARTESIAN_POINT('',(6.,50.,-29.7));
#595=CARTESIAN_POINT('',(6.,50.,-29.7));
#596=CARTESIAN_POINT('',(6.,10.,-29.7));
#597=CARTESIAN_POINT('',(6.,20.,-29.7));
#598=CARTESIAN_POINT('',(6.,10.,-29.7));
#599=CARTESIAN_POINT('Origin',(6.,10.,-32.5));
#600=CARTESIAN_POINT('',(0.,10.,-35.3));
#601=CARTESIAN_POINT('Origin',(0.,10.,-32.5));
#602=CARTESIAN_POINT('',(6.,10.,-35.3));
#603=CARTESIAN_POINT('Origin',(6.,10.,-32.5));
#604=CARTESIAN_POINT('',(6.,10.,-35.3));
#605=CARTESIAN_POINT('Origin',(6.,50.,-35.3));
#606=CARTESIAN_POINT('',(0.,50.,-35.3));
#607=CARTESIAN_POINT('',(0.,40.,-35.3));
#608=CARTESIAN_POINT('',(6.,50.,-35.3));
#609=CARTESIAN_POINT('',(6.,40.,-35.3));
#610=CARTESIAN_POINT('',(6.,50.,-35.3));
#611=CARTESIAN_POINT('Origin',(6.,50.,-32.5));
#612=CARTESIAN_POINT('Origin',(0.,50.,-32.5));
#613=CARTESIAN_POINT('Origin',(6.,50.,-32.5));
#614=CARTESIAN_POINT('Origin',(4.,35.,-20.));
#615=CARTESIAN_POINT('',(4.,35.,-16.55));
#616=CARTESIAN_POINT('',(4.,35.,-23.45));
#617=CARTESIAN_POINT('Origin',(4.,35.,-20.));
#618=CARTESIAN_POINT('Origin',(4.,35.,-20.));
#619=CARTESIAN_POINT('',(4.,35.,-21.7));
#620=CARTESIAN_POINT('Origin',(4.,35.,-20.));
#621=CARTESIAN_POINT('Origin',(2.,35.,-20.));
#622=CARTESIAN_POINT('',(0.,35.,-16.55));
#623=CARTESIAN_POINT('',(0.,35.,-23.45));
#624=CARTESIAN_POINT('Origin',(0.,35.,-20.));
#625=CARTESIAN_POINT('Origin',(0.,35.,-20.));
#626=CARTESIAN_POINT('',(2.,35.,-23.45));
#627=CARTESIAN_POINT('Origin',(74.3602100605022,35.,-20.));
#628=CARTESIAN_POINT('',(6.,35.,-21.7));
#629=CARTESIAN_POINT('',(74.3602100605022,35.,-21.7));
#630=CARTESIAN_POINT('Origin',(6.,35.,-20.));
#631=CARTESIAN_POINT('Origin',(4.,25.,-20.));
#632=CARTESIAN_POINT('',(4.,25.,-16.55));
#633=CARTESIAN_POINT('',(4.,25.,-23.45));
#634=CARTESIAN_POINT('Origin',(4.,25.,-20.));
#635=CARTESIAN_POINT('Origin',(4.,25.,-20.));
#636=CARTESIAN_POINT('',(4.,25.,-21.7));
#637=CARTESIAN_POINT('Origin',(4.,25.,-20.));
#638=CARTESIAN_POINT('Origin',(2.,25.,-20.));
#639=CARTESIAN_POINT('',(0.,25.,-16.55));
#640=CARTESIAN_POINT('',(0.,25.,-23.45));
#641=CARTESIAN_POINT('Origin',(0.,25.,-20.));
#642=CARTESIAN_POINT('Origin',(0.,25.,-20.));
#643=CARTESIAN_POINT('',(2.,25.,-23.45));
#644=CARTESIAN_POINT('Origin',(74.3602100605022,25.,-20.));
#645=CARTESIAN_POINT('',(6.,25.,-21.7));
#646=CARTESIAN_POINT('',(74.3602100605022,25.,-21.7));
#647=CARTESIAN_POINT('Origin',(6.,25.,-20.));
#648=CARTESIAN_POINT('Origin',(0.,60.,-40.));
#649=CARTESIAN_POINT('',(0.,60.,-40.));
#650=CARTESIAN_POINT('',(0.,60.,0.));
#651=CARTESIAN_POINT('',(0.,60.,-40.));
#652=CARTESIAN_POINT('',(6.,60.,0.));
#653=CARTESIAN_POINT('',(0.,60.,0.));
#654=CARTESIAN_POINT('',(6.,60.,-40.));
#655=CARTESIAN_POINT('',(6.,60.,-40.));
#656=CARTESIAN_POINT('',(0.,60.,-40.));
#657=CARTESIAN_POINT('Origin',(0.,7.34788079488412E-15,-40.));
#658=CARTESIAN_POINT('',(0.,7.34788079488412E-15,-40.));
#659=CARTESIAN_POINT('',(0.,8.88178419700125E-15,-40.));
#660=CARTESIAN_POINT('',(6.,8.88178419700125E-15,-40.));
#661=CARTESIAN_POINT('',(6.,8.88178419700125E-15,-40.));
#662=CARTESIAN_POINT('',(0.,7.34788079488412E-15,-40.));
#663=CARTESIAN_POINT('Origin',(0.,0.,0.));
#664=CARTESIAN_POINT('',(0.,0.,0.));
#665=CARTESIAN_POINT('',(0.,0.,0.));
#666=CARTESIAN_POINT('',(6.,0.,0.));
#667=CARTESIAN_POINT('',(6.,0.,0.));
#668=CARTESIAN_POINT('',(0.,0.,0.));
#669=CARTESIAN_POINT('Origin',(0.,60.,0.));
#670=CARTESIAN_POINT('',(0.,60.,0.));
#671=CARTESIAN_POINT('',(6.,60.,0.));
#672=CARTESIAN_POINT('Origin',(6.,30.,-20.));
#673=CARTESIAN_POINT('Origin',(0.,30.,-20.));
#674=UNCERTAINTY_MEASURE_WITH_UNIT(LENGTH_MEASURE(0.01),#678,
'DISTANCE_ACCURACY_VALUE',
'Maximum model space distance between geometric entities at asserted c
onnectivities');
#675=UNCERTAINTY_MEASURE_WITH_UNIT(LENGTH_MEASURE(0.01),#678,
'DISTANCE_ACCURACY_VALUE',
'Maximum model space distance between geometric entities at asserted c
onnectivities');
#676=(
GEOMETRIC_REPRESENTATION_CONTEXT(3)
GLOBAL_UNCERTAINTY_ASSIGNED_CONTEXT((#674))
GLOBAL_UNIT_ASSIGNED_CONTEXT((#678,#680,#681))
REPRESENTATION_CONTEXT('','3D')
);
#677=(
GEOMETRIC_REPRESENTATION_CONTEXT(3)
GLOBAL_UNCERTAINTY_ASSIGNED_CONTEXT((#675))
GLOBAL_UNIT_ASSIGNED_CONTEXT((#678,#680,#681))
REPRESENTATION_CONTEXT('','3D')
);
#678=(
LENGTH_UNIT()
NAMED_UNIT(*)
SI_UNIT(.MILLI.,.METRE.)
);
#679=(
LENGTH_UNIT()
NAMED_UNIT(*)
SI_UNIT(.CENTI.,.METRE.)
);
#680=(
NAMED_UNIT(*)
PLANE_ANGLE_UNIT()
SI_UNIT($,.RADIAN.)
);
#681=(
NAMED_UNIT(*)
SI_UNIT($,.STERADIAN.)
SOLID_ANGLE_UNIT()
);
#682=SHAPE_DEFINITION_REPRESENTATION(#683,#684);
#683=PRODUCT_DEFINITION_SHAPE('',$,#686);
#684=SHAPE_REPRESENTATION('',(#410),#676);
#685=PRODUCT_DEFINITION_CONTEXT('part definition',#690,'design');
#686=PRODUCT_DEFINITION('GSE-1201-044-001-A',
'GSE-1201-044-001-A (Base fixation)',#687,#685);
#687=PRODUCT_DEFINITION_FORMATION('A',$,#692);
#688=PRODUCT_RELATED_PRODUCT_CATEGORY(
'GSE-1201-044-001-A (Base fixation)',
'GSE-1201-044-001-A (Base fixation)',(#692));
#689=APPLICATION_PROTOCOL_DEFINITION('international standard',
'automotive_design',2009,#690);
#690=APPLICATION_CONTEXT(
'Core Data for Automotive Mechanical Design Process');
#691=PRODUCT_CONTEXT('part definition',#690,'mechanical');
#692=PRODUCT('GSE-1201-044-001-A','GSE-1201-044-001-A (Base fixation)',
'Base fixation clamp',(#691));
#693=PRESENTATION_STYLE_ASSIGNMENT((#694));
#694=SURFACE_STYLE_USAGE(.BOTH.,#697);
#695=SURFACE_STYLE_RENDERING_WITH_PROPERTIES($,#701,(#696));
#696=SURFACE_STYLE_TRANSPARENT(0.);
#697=SURFACE_SIDE_STYLE('',(#698,#695));
#698=SURFACE_STYLE_FILL_AREA(#699);
#699=FILL_AREA_STYLE('',(#700));
#700=FILL_AREA_STYLE_COLOUR('',#701);
#701=COLOUR_RGB('',0.745098039215686,0.737254901960784,0.729411764705882);
ENDSEC;
END-ISO-10303-21;
