ISO-10303-21;
HEADER;
/* Generated by software containing ST-Developer
 * from STEP Tools, Inc. (www.steptools.com) 
 */

FILE_DESCRIPTION(
/* description */ (''),
/* implementation_level */ '2;1');

FILE_NAME(
/* name */ 'C:\\Users\\u226184\\Desktop\\ProjetAlex\\Chambre2.stp',
/* time_stamp */ '2019-11-15T08:43:06+01:00',
/* author */ ('u226184'),
/* organization */ (''),
/* preprocessor_version */ 'ST-DEVELOPER v17',
/* originating_system */ 'Autodesk Inventor 2018',
/* authorisation */ '');

FILE_SCHEMA (('AUTOMOTIVE_DESIGN { 1 0 10303 214 3 1 1 }'));
ENDSEC;

DATA;
#10=MECHANICAL_DESIGN_GEOMETRIC_PRESENTATION_REPRESENTATION('',(#13),#271);
#11=SHAPE_REPRESENTATION_RELATIONSHIP('SRR','None',#278,#12);
#12=ADVANCED_BREP_SHAPE_REPRESENTATION('',(#14),#270);
#13=STYLED_ITEM('',(#287),#14);
#14=MANIFOLD_SOLID_BREP('Solide1',#143);
#15=FACE_BOUND('',#40,.T.);
#16=FACE_BOUND('',#42,.T.);
#17=FACE_BOUND('',#47,.T.);
#18=FACE_BOUND('',#50,.T.);
#19=PLANE('',#168);
#20=PLANE('',#170);
#21=PLANE('',#179);
#22=PLANE('',#182);
#23=CYLINDRICAL_SURFACE('',#166,26.);
#24=CYLINDRICAL_SURFACE('',#172,25.);
#25=CYLINDRICAL_SURFACE('',#177,26.);
#26=CYLINDRICAL_SURFACE('',#180,27.5);
#27=FACE_OUTER_BOUND('',#37,.T.);
#28=FACE_OUTER_BOUND('',#38,.T.);
#29=FACE_OUTER_BOUND('',#39,.T.);
#30=FACE_OUTER_BOUND('',#41,.T.);
#31=FACE_OUTER_BOUND('',#43,.T.);
#32=FACE_OUTER_BOUND('',#44,.T.);
#33=FACE_OUTER_BOUND('',#45,.T.);
#34=FACE_OUTER_BOUND('',#46,.T.);
#35=FACE_OUTER_BOUND('',#48,.T.);
#36=FACE_OUTER_BOUND('',#49,.T.);
#37=EDGE_LOOP('',(#99,#100,#101,#102));
#38=EDGE_LOOP('',(#103,#104,#105,#106));
#39=EDGE_LOOP('',(#107));
#40=EDGE_LOOP('',(#108));
#41=EDGE_LOOP('',(#109));
#42=EDGE_LOOP('',(#110));
#43=EDGE_LOOP('',(#111,#112,#113,#114));
#44=EDGE_LOOP('',(#115,#116,#117,#118));
#45=EDGE_LOOP('',(#119,#120,#121,#122));
#46=EDGE_LOOP('',(#123));
#47=EDGE_LOOP('',(#124));
#48=EDGE_LOOP('',(#125,#126,#127,#128));
#49=EDGE_LOOP('',(#129));
#50=EDGE_LOOP('',(#130));
#51=LINE('',#236,#57);
#52=LINE('',#240,#58);
#53=LINE('',#251,#59);
#54=LINE('',#256,#60);
#55=LINE('',#260,#61);
#56=LINE('',#266,#62);
#57=VECTOR('',#189,26.25);
#58=VECTOR('',#194,26.);
#59=VECTOR('',#209,25.);
#60=VECTOR('',#214,25.75);
#61=VECTOR('',#219,26.);
#62=VECTOR('',#228,27.5);
#63=CIRCLE('',#164,26.5);
#64=CIRCLE('',#165,26.);
#65=CIRCLE('',#167,26.);
#66=CIRCLE('',#169,27.5);
#67=CIRCLE('',#171,25.);
#68=CIRCLE('',#173,25.);
#69=CIRCLE('',#175,25.5);
#70=CIRCLE('',#176,26.);
#71=CIRCLE('',#178,26.);
#72=CIRCLE('',#181,27.5);
#73=VERTEX_POINT('',#233);
#74=VERTEX_POINT('',#235);
#75=VERTEX_POINT('',#239);
#76=VERTEX_POINT('',#243);
#77=VERTEX_POINT('',#246);
#78=VERTEX_POINT('',#249);
#79=VERTEX_POINT('',#253);
#80=VERTEX_POINT('',#255);
#81=VERTEX_POINT('',#259);
#82=VERTEX_POINT('',#264);
#83=EDGE_CURVE('',#73,#73,#63,.T.);
#84=EDGE_CURVE('',#73,#74,#51,.T.);
#85=EDGE_CURVE('',#74,#74,#64,.T.);
#86=EDGE_CURVE('',#74,#75,#52,.T.);
#87=EDGE_CURVE('',#75,#75,#65,.T.);
#88=EDGE_CURVE('',#76,#76,#66,.T.);
#89=EDGE_CURVE('',#77,#77,#67,.T.);
#90=EDGE_CURVE('',#78,#78,#68,.T.);
#91=EDGE_CURVE('',#78,#77,#53,.T.);
#92=EDGE_CURVE('',#79,#79,#69,.T.);
#93=EDGE_CURVE('',#79,#80,#54,.T.);
#94=EDGE_CURVE('',#80,#80,#70,.T.);
#95=EDGE_CURVE('',#80,#81,#55,.T.);
#96=EDGE_CURVE('',#81,#81,#71,.T.);
#97=EDGE_CURVE('',#82,#82,#72,.T.);
#98=EDGE_CURVE('',#82,#76,#56,.T.);
#99=ORIENTED_EDGE('',*,*,#83,.T.);
#100=ORIENTED_EDGE('',*,*,#84,.T.);
#101=ORIENTED_EDGE('',*,*,#85,.T.);
#102=ORIENTED_EDGE('',*,*,#84,.F.);
#103=ORIENTED_EDGE('',*,*,#85,.F.);
#104=ORIENTED_EDGE('',*,*,#86,.T.);
#105=ORIENTED_EDGE('',*,*,#87,.T.);
#106=ORIENTED_EDGE('',*,*,#86,.F.);
#107=ORIENTED_EDGE('',*,*,#88,.T.);
#108=ORIENTED_EDGE('',*,*,#83,.F.);
#109=ORIENTED_EDGE('',*,*,#87,.F.);
#110=ORIENTED_EDGE('',*,*,#89,.F.);
#111=ORIENTED_EDGE('',*,*,#90,.F.);
#112=ORIENTED_EDGE('',*,*,#91,.T.);
#113=ORIENTED_EDGE('',*,*,#89,.T.);
#114=ORIENTED_EDGE('',*,*,#91,.F.);
#115=ORIENTED_EDGE('',*,*,#92,.T.);
#116=ORIENTED_EDGE('',*,*,#93,.T.);
#117=ORIENTED_EDGE('',*,*,#94,.T.);
#118=ORIENTED_EDGE('',*,*,#93,.F.);
#119=ORIENTED_EDGE('',*,*,#94,.F.);
#120=ORIENTED_EDGE('',*,*,#95,.T.);
#121=ORIENTED_EDGE('',*,*,#96,.F.);
#122=ORIENTED_EDGE('',*,*,#95,.F.);
#123=ORIENTED_EDGE('',*,*,#92,.F.);
#124=ORIENTED_EDGE('',*,*,#90,.T.);
#125=ORIENTED_EDGE('',*,*,#97,.F.);
#126=ORIENTED_EDGE('',*,*,#98,.T.);
#127=ORIENTED_EDGE('',*,*,#88,.F.);
#128=ORIENTED_EDGE('',*,*,#98,.F.);
#129=ORIENTED_EDGE('',*,*,#97,.T.);
#130=ORIENTED_EDGE('',*,*,#96,.T.);
#131=CONICAL_SURFACE('',#163,26.25,0.785398163397447);
#132=CONICAL_SURFACE('',#174,25.75,0.785398163397446);
#133=ADVANCED_FACE('',(#27),#131,.F.);
#134=ADVANCED_FACE('',(#28),#23,.F.);
#135=ADVANCED_FACE('',(#29,#15),#19,.F.);
#136=ADVANCED_FACE('',(#30,#16),#20,.F.);
#137=ADVANCED_FACE('',(#31),#24,.F.);
#138=ADVANCED_FACE('',(#32),#132,.T.);
#139=ADVANCED_FACE('',(#33),#25,.T.);
#140=ADVANCED_FACE('',(#34,#17),#21,.T.);
#141=ADVANCED_FACE('',(#35),#26,.T.);
#142=ADVANCED_FACE('',(#36,#18),#22,.T.);
#143=CLOSED_SHELL('',(#133,#134,#135,#136,#137,#138,#139,#140,#141,#142));
#144=DERIVED_UNIT_ELEMENT(#146,1.);
#145=DERIVED_UNIT_ELEMENT(#273,3.);
#146=(
MASS_UNIT()
NAMED_UNIT(*)
SI_UNIT($,.GRAM.)
);
#147=DERIVED_UNIT((#144,#145));
#148=MEASURE_REPRESENTATION_ITEM('density measure',
POSITIVE_RATIO_MEASURE(1.),#147);
#149=PROPERTY_DEFINITION_REPRESENTATION(#154,#151);
#150=PROPERTY_DEFINITION_REPRESENTATION(#155,#152);
#151=REPRESENTATION('material name',(#153),#270);
#152=REPRESENTATION('density',(#148),#270);
#153=DESCRIPTIVE_REPRESENTATION_ITEM('G\X\E9n\X\E9rique','G\X\E9n\X\E9
rique');
#154=PROPERTY_DEFINITION('material property','material name',#280);
#155=PROPERTY_DEFINITION('material property','density of part',#280);
#156=DATE_TIME_ROLE('creation_date');
#157=APPLIED_DATE_AND_TIME_ASSIGNMENT(#158,#156,(#280));
#158=DATE_AND_TIME(#159,#160);
#159=CALENDAR_DATE(2019,11,11);
#160=LOCAL_TIME(16,30,23.,#161);
#161=COORDINATED_UNIVERSAL_TIME_OFFSET(0,0,.BEHIND.);
#162=AXIS2_PLACEMENT_3D('placement',#231,#183,#184);
#163=AXIS2_PLACEMENT_3D('',#232,#185,#186);
#164=AXIS2_PLACEMENT_3D('',#234,#187,#188);
#165=AXIS2_PLACEMENT_3D('',#237,#190,#191);
#166=AXIS2_PLACEMENT_3D('',#238,#192,#193);
#167=AXIS2_PLACEMENT_3D('',#241,#195,#196);
#168=AXIS2_PLACEMENT_3D('',#242,#197,#198);
#169=AXIS2_PLACEMENT_3D('',#244,#199,#200);
#170=AXIS2_PLACEMENT_3D('',#245,#201,#202);
#171=AXIS2_PLACEMENT_3D('',#247,#203,#204);
#172=AXIS2_PLACEMENT_3D('',#248,#205,#206);
#173=AXIS2_PLACEMENT_3D('',#250,#207,#208);
#174=AXIS2_PLACEMENT_3D('',#252,#210,#211);
#175=AXIS2_PLACEMENT_3D('',#254,#212,#213);
#176=AXIS2_PLACEMENT_3D('',#257,#215,#216);
#177=AXIS2_PLACEMENT_3D('',#258,#217,#218);
#178=AXIS2_PLACEMENT_3D('',#261,#220,#221);
#179=AXIS2_PLACEMENT_3D('',#262,#222,#223);
#180=AXIS2_PLACEMENT_3D('',#263,#224,#225);
#181=AXIS2_PLACEMENT_3D('',#265,#226,#227);
#182=AXIS2_PLACEMENT_3D('',#267,#229,#230);
#183=DIRECTION('axis',(0.,0.,1.));
#184=DIRECTION('refdir',(1.,0.,0.));
#185=DIRECTION('center_axis',(0.,-1.,0.));
#186=DIRECTION('ref_axis',(-1.,0.,0.));
#187=DIRECTION('center_axis',(0.,-1.,0.));
#188=DIRECTION('ref_axis',(-1.,0.,0.));
#189=DIRECTION('',(-0.707106781186546,0.707106781186549,-8.65956056235492E-17));
#190=DIRECTION('center_axis',(0.,1.,0.));
#191=DIRECTION('ref_axis',(-1.,0.,0.));
#192=DIRECTION('center_axis',(0.,1.,0.));
#193=DIRECTION('ref_axis',(-1.,0.,0.));
#194=DIRECTION('',(0.,1.,0.));
#195=DIRECTION('center_axis',(0.,1.,0.));
#196=DIRECTION('ref_axis',(-1.,0.,0.));
#197=DIRECTION('center_axis',(0.,1.,0.));
#198=DIRECTION('ref_axis',(0.,0.,1.));
#199=DIRECTION('center_axis',(0.,-1.,0.));
#200=DIRECTION('ref_axis',(1.,0.,0.));
#201=DIRECTION('center_axis',(0.,1.,0.));
#202=DIRECTION('ref_axis',(0.,0.,1.));
#203=DIRECTION('center_axis',(0.,-1.,0.));
#204=DIRECTION('ref_axis',(-1.,0.,0.));
#205=DIRECTION('center_axis',(0.,-1.,0.));
#206=DIRECTION('ref_axis',(-1.,0.,0.));
#207=DIRECTION('center_axis',(0.,-1.,0.));
#208=DIRECTION('ref_axis',(-1.,0.,0.));
#209=DIRECTION('',(0.,-1.,0.));
#210=DIRECTION('center_axis',(0.,-1.,0.));
#211=DIRECTION('ref_axis',(-1.,0.,0.));
#212=DIRECTION('center_axis',(0.,-1.,0.));
#213=DIRECTION('ref_axis',(-1.,0.,0.));
#214=DIRECTION('',(0.707106781186546,-0.707106781186549,-8.65956056235492E-17));
#215=DIRECTION('center_axis',(0.,1.,0.));
#216=DIRECTION('ref_axis',(-1.,0.,0.));
#217=DIRECTION('center_axis',(0.,1.,0.));
#218=DIRECTION('ref_axis',(-1.,0.,0.));
#219=DIRECTION('',(0.,-1.,0.));
#220=DIRECTION('center_axis',(0.,-1.,0.));
#221=DIRECTION('ref_axis',(-1.,0.,0.));
#222=DIRECTION('center_axis',(0.,1.,0.));
#223=DIRECTION('ref_axis',(0.,0.,1.));
#224=DIRECTION('center_axis',(0.,1.,0.));
#225=DIRECTION('ref_axis',(1.,0.,0.));
#226=DIRECTION('center_axis',(0.,1.,0.));
#227=DIRECTION('ref_axis',(1.,0.,0.));
#228=DIRECTION('',(0.,-1.,0.));
#229=DIRECTION('center_axis',(0.,1.,0.));
#230=DIRECTION('ref_axis',(0.,0.,1.));
#231=CARTESIAN_POINT('',(0.,0.,0.));
#232=CARTESIAN_POINT('Origin',(0.,0.25,0.));
#233=CARTESIAN_POINT('',(26.5,0.,3.24531401774049E-15));
#234=CARTESIAN_POINT('Origin',(0.,0.,0.));
#235=CARTESIAN_POINT('',(26.,0.5,-3.18408167778312E-15));
#236=CARTESIAN_POINT('',(26.25,0.25,3.2146978477618E-15));
#237=CARTESIAN_POINT('Origin',(0.,0.5,0.));
#238=CARTESIAN_POINT('Origin',(0.,0.,0.));
#239=CARTESIAN_POINT('',(26.,8.,3.18408167778312E-15));
#240=CARTESIAN_POINT('',(26.,0.,-3.18408167778312E-15));
#241=CARTESIAN_POINT('Origin',(0.,8.,0.));
#242=CARTESIAN_POINT('Origin',(2.43380803013824E-15,0.,0.));
#243=CARTESIAN_POINT('',(-27.5,0.,3.36777869765522E-15));
#244=CARTESIAN_POINT('Origin',(0.,0.,0.));
#245=CARTESIAN_POINT('Origin',(-3.68141098481574E-15,8.,-5.69345140833413E-16));
#246=CARTESIAN_POINT('',(25.,8.,-3.06161699786838E-15));
#247=CARTESIAN_POINT('Origin',(0.,8.,0.));
#248=CARTESIAN_POINT('Origin',(0.,18.,0.));
#249=CARTESIAN_POINT('',(25.,18.,-3.06161699786838E-15));
#250=CARTESIAN_POINT('Origin',(0.,18.,0.));
#251=CARTESIAN_POINT('',(25.,18.,3.06161699786838E-15));
#252=CARTESIAN_POINT('Origin',(0.,17.75,0.));
#253=CARTESIAN_POINT('',(25.5,18.,3.12284933782575E-15));
#254=CARTESIAN_POINT('Origin',(0.,18.,0.));
#255=CARTESIAN_POINT('',(26.,17.5,-3.18408167778312E-15));
#256=CARTESIAN_POINT('',(25.75,17.75,-3.15346550780443E-15));
#257=CARTESIAN_POINT('Origin',(0.,17.5,0.));
#258=CARTESIAN_POINT('Origin',(0.,13.,0.));
#259=CARTESIAN_POINT('',(26.,13.,-3.18408167778312E-15));
#260=CARTESIAN_POINT('',(26.,13.,-3.18408167778312E-15));
#261=CARTESIAN_POINT('Origin',(0.,13.,0.));
#262=CARTESIAN_POINT('Origin',(-2.6534013981526E-16,18.,0.));
#263=CARTESIAN_POINT('Origin',(0.,0.,0.));
#264=CARTESIAN_POINT('',(-27.5,13.,3.36777869765522E-15));
#265=CARTESIAN_POINT('Origin',(0.,13.,0.));
#266=CARTESIAN_POINT('',(-27.5,0.,3.36777869765522E-15));
#267=CARTESIAN_POINT('Origin',(2.43380803013824E-15,13.,0.));
#268=UNCERTAINTY_MEASURE_WITH_UNIT(LENGTH_MEASURE(0.01),#272,
'DISTANCE_ACCURACY_VALUE',
'Maximum model space distance between geometric entities at asserted c
onnectivities');
#269=UNCERTAINTY_MEASURE_WITH_UNIT(LENGTH_MEASURE(0.01),#272,
'DISTANCE_ACCURACY_VALUE',
'Maximum model space distance between geometric entities at asserted c
onnectivities');
#270=(
GEOMETRIC_REPRESENTATION_CONTEXT(3)
GLOBAL_UNCERTAINTY_ASSIGNED_CONTEXT((#268))
GLOBAL_UNIT_ASSIGNED_CONTEXT((#272,#275,#274))
REPRESENTATION_CONTEXT('','3D')
);
#271=(
GEOMETRIC_REPRESENTATION_CONTEXT(3)
GLOBAL_UNCERTAINTY_ASSIGNED_CONTEXT((#269))
GLOBAL_UNIT_ASSIGNED_CONTEXT((#272,#275,#274))
REPRESENTATION_CONTEXT('','3D')
);
#272=(
LENGTH_UNIT()
NAMED_UNIT(*)
SI_UNIT(.MILLI.,.METRE.)
);
#273=(
LENGTH_UNIT()
NAMED_UNIT(*)
SI_UNIT(.CENTI.,.METRE.)
);
#274=(
NAMED_UNIT(*)
SI_UNIT($,.STERADIAN.)
SOLID_ANGLE_UNIT()
);
#275=(
NAMED_UNIT(*)
PLANE_ANGLE_UNIT()
SI_UNIT($,.RADIAN.)
);
#276=SHAPE_DEFINITION_REPRESENTATION(#277,#278);
#277=PRODUCT_DEFINITION_SHAPE('',$,#280);
#278=SHAPE_REPRESENTATION('',(#162),#270);
#279=PRODUCT_DEFINITION_CONTEXT('part definition',#284,'design');
#280=PRODUCT_DEFINITION('Chambre2','Chambre2',#281,#279);
#281=PRODUCT_DEFINITION_FORMATION('',$,#286);
#282=PRODUCT_RELATED_PRODUCT_CATEGORY('Chambre2','Chambre2',(#286));
#283=APPLICATION_PROTOCOL_DEFINITION('international standard',
'automotive_design',2009,#284);
#284=APPLICATION_CONTEXT(
'Core Data for Automotive Mechanical Design Process');
#285=PRODUCT_CONTEXT('part definition',#284,'mechanical');
#286=PRODUCT('Chambre2','Chambre2',$,(#285));
#287=PRESENTATION_STYLE_ASSIGNMENT((#288));
#288=SURFACE_STYLE_USAGE(.BOTH.,#289);
#289=SURFACE_SIDE_STYLE('',(#290));
#290=SURFACE_STYLE_FILL_AREA(#291);
#291=FILL_AREA_STYLE('',(#292));
#292=FILL_AREA_STYLE_COLOUR('',#293);
#293=COLOUR_RGB('',0.898039215686275,0.898039215686275,0.898039215686275);
ENDSEC;
END-ISO-10303-21;
