ISO-10303-21;
HEADER;
FILE_DESCRIPTION(('CATIA V5 STEP Exchange'),'2;1');

FILE_NAME('F:\\FUS50\\PART\\600\\FUS50-600-036.stp','2019-05-12T13:12:04+00:00',('none'),('none'),'CATIA Version 5 Release 21 GA (IN-10)','CATIA V5 STEP AP203','none');

FILE_SCHEMA(('CONFIG_CONTROL_DESIGN'));

ENDSEC;
/* file written by CATIA V5R21 */
DATA;
#5=PRODUCT('FUS50-600-036','','',(#2)) ;
#1=APPLICATION_CONTEXT('configuration controlled 3D design of mechanical parts and assemblies') ;
#14=PRODUCT_DEFINITION('',' ',#6,#3) ;
#16=SECURITY_CLASSIFICATION(' ',' ',#15) ;
#15=SECURITY_CLASSIFICATION_LEVEL('unclassified') ;
#47=CARTESIAN_POINT(' ',(0.,0.,0.)) ;
#52=CARTESIAN_POINT('Axis2P3D Location',(-0.469999999999,-1.87769799709E-013,3.1755931218E-013)) ;
#57=CARTESIAN_POINT('Line Origine',(3.75,-1.02723882098E-014,4.22)) ;
#61=CARTESIAN_POINT('Vertex',(3.5,9.72337444935E-016,3.97)) ;
#63=CARTESIAN_POINT('Vertex',(4.,4.96233734508E-016,4.47)) ;
#66=CARTESIAN_POINT('Axis2P3D Location',(4.,2.26485497023E-014,-7.99360577727E-015)) ;
#70=CARTESIAN_POINT('Vertex',(4.,-1.95627382446E-007,-4.47)) ;
#73=CARTESIAN_POINT('Line Origine',(3.75,-1.84686263532E-007,-4.22)) ;
#77=CARTESIAN_POINT('Vertex',(3.5,-4.86168722467E-016,-3.97)) ;
#80=CARTESIAN_POINT('Axis2P3D Location',(3.5,-8.88178419715E-016,2.84217094304E-014)) ;
#92=CARTESIAN_POINT('Axis2P3D Location',(-0.47,-1.04349417995E-012,3.8999914409E-014)) ;
#97=CARTESIAN_POINT('Axis2P3D Location',(4.,1.3167245072E-013,2.70894418009E-014)) ;
#102=CARTESIAN_POINT('Axis2P3D Location',(3.5,2.22044604868E-016,2.84217094304E-014)) ;
#114=CARTESIAN_POINT('Axis2P3D Location',(-5.75,1.57651669497E-014,-1.75)) ;
#119=CARTESIAN_POINT('Line Origine',(0.25,-6.,-1.75000004541)) ;
#123=CARTESIAN_POINT('Vertex',(0.5,-6.25,-1.75)) ;
#125=CARTESIAN_POINT('Vertex',(0.,-5.75,-1.75)) ;
#128=CARTESIAN_POINT('Axis2P3D Location',(-2.30926389122E-014,4.4408920985E-016,-1.75)) ;
#132=CARTESIAN_POINT('Vertex',(0.,5.75,-1.74999987699)) ;
#135=CARTESIAN_POINT('Line Origine',(0.25,6.,-1.74999987164)) ;
#139=CARTESIAN_POINT('Vertex',(0.5,6.25,-1.75)) ;
#142=CARTESIAN_POINT('Axis2P3D Location',(0.5,-8.881784197E-016,-1.75)) ;
#154=CARTESIAN_POINT('Axis2P3D Location',(0.,5.75,11.2)) ;
#159=CARTESIAN_POINT('Line Origine',(0.,5.75,2.84217094304E-014)) ;
#163=CARTESIAN_POINT('Vertex',(0.,5.75,1.75)) ;
#166=CARTESIAN_POINT('Line Origine',(0.25,6.,1.75)) ;
#170=CARTESIAN_POINT('Vertex',(0.5,6.25,1.75)) ;
#173=CARTESIAN_POINT('Line Origine',(0.5,6.25,2.84217094304E-014)) ;
#185=CARTESIAN_POINT('Axis2P3D Location',(-5.75,-2.30926389122E-014,1.75)) ;
#190=CARTESIAN_POINT('Axis2P3D Location',(2.30926389122E-014,-2.6645352591E-015,1.75)) ;
#194=CARTESIAN_POINT('Vertex',(0.,-5.75,1.75000060685)) ;
#197=CARTESIAN_POINT('Line Origine',(0.25,-6.,1.75000063323)) ;
#201=CARTESIAN_POINT('Vertex',(0.5,-6.25,1.75)) ;
#204=CARTESIAN_POINT('Axis2P3D Location',(0.5,-8.881784197E-016,1.75)) ;
#216=CARTESIAN_POINT('Axis2P3D Location',(0.,-5.75,-11.2)) ;
#221=CARTESIAN_POINT('Line Origine',(0.,-5.75,2.84217094304E-014)) ;
#226=CARTESIAN_POINT('Line Origine',(0.5,-6.25,2.84217094304E-014)) ;
#238=CARTESIAN_POINT('Axis2P3D Location',(2.,7.88860905221E-031,2.84217094304E-014)) ;
#243=CARTESIAN_POINT('Axis2P3D Location',(0.5,7.88860905221E-031,2.84217094304E-014)) ;
#247=CARTESIAN_POINT('Vertex',(0.5,-4.86168722467E-016,-3.97)) ;
#249=CARTESIAN_POINT('Vertex',(0.5,9.72337444935E-016,3.97)) ;
#252=CARTESIAN_POINT('Line Origine',(2.,-4.86168722467E-016,-3.97)) ;
#257=CARTESIAN_POINT('Line Origine',(2.,4.49840577114E-015,3.97)) ;
#269=CARTESIAN_POINT('Axis2P3D Location',(0.5,7.88860905221E-031,2.84217094304E-014)) ;
#281=CARTESIAN_POINT('Axis2P3D Location',(0.,7.88860905221E-031,2.84217094304E-014)) ;
#292=CARTESIAN_POINT('Axis2P3D Location',(0.,1.91513471748E-014,1.48161647881E-014)) ;
#296=CARTESIAN_POINT('Vertex',(0.,1.92252337646E-015,4.47)) ;
#298=CARTESIAN_POINT('Vertex',(0.,6.78755674882E-009,-4.47)) ;
#301=CARTESIAN_POINT('Axis2P3D Location',(0.,8.27725296139E-016,1.68753899743E-014)) ;
#311=CARTESIAN_POINT('Axis2P3D Location',(4.47,-2.55209187117E-013,1.78057568689E-013)) ;
#316=CARTESIAN_POINT('Line Origine',(0.25,1.6071107501E-014,4.22)) ;
#321=CARTESIAN_POINT('Line Origine',(0.25,1.47264230143E-014,-4.22)) ;
#333=CARTESIAN_POINT('Axis2P3D Location',(4.47,-5.5203841498E-013,1.51390011638E-013)) ;
#345=CARTESIAN_POINT('Axis2P3D Location',(4.,7.88860905221E-031,2.84217094304E-014)) ;
#350=CARTESIAN_POINT('Axis2P3D Location',(4.,-5.47101980121E-017,-1.75)) ;
#354=CARTESIAN_POINT('Vertex',(4.,-6.05,-1.75)) ;
#356=CARTESIAN_POINT('Vertex',(4.,6.05,-1.75000000978)) ;
#359=CARTESIAN_POINT('Line Origine',(4.,6.05,2.86437540353E-014)) ;
#363=CARTESIAN_POINT('Vertex',(4.,6.05,1.75)) ;
#366=CARTESIAN_POINT('Axis2P3D Location',(4.,-5.10702591328E-015,1.75)) ;
#370=CARTESIAN_POINT('Vertex',(4.,-6.05,1.75000009034)) ;
#373=CARTESIAN_POINT('Line Origine',(4.,-6.05,2.93098878501E-014)) ;
#389=CARTESIAN_POINT('Axis2P3D Location',(2.,-1.19367344451E-015,-1.75)) ;
#394=CARTESIAN_POINT('Line Origine',(2.,-6.25,-1.75)) ;
#398=CARTESIAN_POINT('Vertex',(3.8,-6.25,-1.75)) ;
#401=CARTESIAN_POINT('Line Origine',(2.,6.25,-1.75)) ;
#405=CARTESIAN_POINT('Vertex',(3.8,6.25,-1.75)) ;
#408=CARTESIAN_POINT('Axis2P3D Location',(3.8,-1.19367344451E-015,-1.75)) ;
#420=CARTESIAN_POINT('Axis2P3D Location',(0.,6.25,1.75)) ;
#425=CARTESIAN_POINT('Line Origine',(3.8,6.25,2.86437540353E-014)) ;
#429=CARTESIAN_POINT('Vertex',(3.8,6.25,1.75)) ;
#432=CARTESIAN_POINT('Line Origine',(2.15,6.25,1.75)) ;
#444=CARTESIAN_POINT('Axis2P3D Location',(2.,-1.10182493457E-015,1.75)) ;
#449=CARTESIAN_POINT('Line Origine',(2.,-6.25,1.75)) ;
#453=CARTESIAN_POINT('Vertex',(3.8,-6.25,1.75)) ;
#456=CARTESIAN_POINT('Axis2P3D Location',(3.8,-1.10182493457E-015,1.75)) ;
#468=CARTESIAN_POINT('Axis2P3D Location',(0.,-6.25,-1.75)) ;
#473=CARTESIAN_POINT('Line Origine',(3.8,-6.25,2.975397706E-014)) ;
#485=CARTESIAN_POINT('Axis2P3D Location',(10.05,1.29896093881E-014,-1.75)) ;
#490=CARTESIAN_POINT('Line Origine',(3.9,-6.15,-1.75)) ;
#495=CARTESIAN_POINT('Line Origine',(3.9,6.15,-1.75)) ;
#507=CARTESIAN_POINT('Axis2P3D Location',(3.8,6.25,-11.2)) ;
#512=CARTESIAN_POINT('Line Origine',(3.9,6.15,1.75)) ;
#524=CARTESIAN_POINT('Axis2P3D Location',(10.05,-8.50430836863E-014,1.75)) ;
#529=CARTESIAN_POINT('Line Origine',(3.9,-6.15,1.75)) ;
#541=CARTESIAN_POINT('Axis2P3D Location',(3.8,-6.25,11.2)) ;
#53=DIRECTION('Axis2P3D Direction',(1.,4.70734562441E-014,-7.28306304154E-014)) ;
#54=DIRECTION('Axis2P3D XDirection',(7.28350225829E-014,-5.01245825855E-015,1.)) ;
#58=DIRECTION('Vector Direction',(0.707106781186,2.97416168991E-014,0.707106781187)) ;
#67=DIRECTION('Axis2P3D Direction',(1.,4.70734562441E-014,2.35953734509E-028)) ;
#74=DIRECTION('Vector Direction',(0.707106781186,-3.09461555835E-008,-0.707106781187)) ;
#81=DIRECTION('Axis2P3D Direction',(1.,4.70734562441E-014,2.35953734509E-028)) ;
#93=DIRECTION('Axis2P3D Direction',(1.,2.62900812231E-013,-2.6645352591E-015)) ;
#94=DIRECTION('Axis2P3D XDirection',(5.47909030642E-014,-0.218499409285,-0.975837080737)) ;
#98=DIRECTION('Axis2P3D Direction',(1.,2.50917535538E-013,-5.6182875581E-014)) ;
#103=DIRECTION('Axis2P3D Direction',(1.,2.50917535538E-013,-5.6182875581E-014)) ;
#115=DIRECTION('Axis2P3D Direction',(1.,-2.6645352591E-015,-1.7763568394E-014)) ;
#116=DIRECTION('Axis2P3D XDirection',(3.9512670479E-015,-0.931854304863,0.362832681148)) ;
#120=DIRECTION('Vector Direction',(0.707106781187,-0.707106781187,-5.35137124841E-009)) ;
#129=DIRECTION('Axis2P3D Direction',(1.,-6.35676984914E-015,-1.63259366003E-014)) ;
#136=DIRECTION('Vector Direction',(0.707106781187,0.707106781187,1.51273041818E-008)) ;
#143=DIRECTION('Axis2P3D Direction',(1.,-6.35676984914E-015,-1.63259366003E-014)) ;
#155=DIRECTION('Axis2P3D Direction',(0.707106781187,-0.707106781187,0.)) ;
#156=DIRECTION('Axis2P3D XDirection',(0.,0.,-1.)) ;
#160=DIRECTION('Vector Direction',(0.,0.,-1.)) ;
#167=DIRECTION('Vector Direction',(0.707106781187,0.707106781187,0.)) ;
#174=DIRECTION('Vector Direction',(0.,0.,-1.)) ;
#186=DIRECTION('Axis2P3D Direction',(1.,3.5527136788E-015,-8.881784197E-016)) ;
#187=DIRECTION('Axis2P3D XDirection',(-3.6878492447E-015,0.925704315776,-0.378247960673)) ;
#191=DIRECTION('Axis2P3D Direction',(1.,1.97300228941E-016,4.82862281952E-016)) ;
#198=DIRECTION('Vector Direction',(0.707106781187,-0.707106781187,7.46274315924E-008)) ;
#205=DIRECTION('Axis2P3D Direction',(1.,1.97300228941E-016,4.82862281952E-016)) ;
#217=DIRECTION('Axis2P3D Direction',(0.707106781187,0.707106781187,-0.)) ;
#218=DIRECTION('Axis2P3D XDirection',(0.,0.,1.)) ;
#222=DIRECTION('Vector Direction',(0.,0.,1.)) ;
#227=DIRECTION('Vector Direction',(0.,0.,1.)) ;
#239=DIRECTION('Axis2P3D Direction',(1.,0.,-0.)) ;
#240=DIRECTION('Axis2P3D XDirection',(0.,0.,1.)) ;
#244=DIRECTION('Axis2P3D Direction',(1.,0.,-0.)) ;
#253=DIRECTION('Vector Direction',(1.,0.,0.)) ;
#258=DIRECTION('Vector Direction',(1.,0.,0.)) ;
#270=DIRECTION('Axis2P3D Direction',(1.,0.,-0.)) ;
#282=DIRECTION('Axis2P3D Direction',(1.,0.,-0.)) ;
#283=DIRECTION('Axis2P3D XDirection',(0.,0.,1.)) ;
#293=DIRECTION('Axis2P3D Direction',(1.,0.,-0.)) ;
#302=DIRECTION('Axis2P3D Direction',(1.,0.,-0.)) ;
#312=DIRECTION('Axis2P3D Direction',(-1.,6.39488462184E-014,-3.77475828373E-014)) ;
#313=DIRECTION('Axis2P3D XDirection',(-3.78004547582E-014,-6.80073695593E-015,1.)) ;
#317=DIRECTION('Vector Direction',(-0.707106781186,4.54559563807E-014,0.707106781187)) ;
#322=DIRECTION('Vector Direction',(-0.707106781186,4.52306399069E-014,-0.707106781187)) ;
#334=DIRECTION('Axis2P3D Direction',(-1.,1.39444011893E-013,-3.10862446895E-014)) ;
#335=DIRECTION('Axis2P3D XDirection',(-3.16101363832E-014,-0.427434275095,-0.904046426061)) ;
#346=DIRECTION('Axis2P3D Direction',(1.,0.,-0.)) ;
#347=DIRECTION('Axis2P3D XDirection',(0.,0.,1.)) ;
#351=DIRECTION('Axis2P3D Direction',(1.,0.,-0.)) ;
#360=DIRECTION('Vector Direction',(0.,0.,1.)) ;
#367=DIRECTION('Axis2P3D Direction',(1.,0.,-0.)) ;
#374=DIRECTION('Vector Direction',(0.,0.,-1.)) ;
#390=DIRECTION('Axis2P3D Direction',(1.,0.,-0.)) ;
#391=DIRECTION('Axis2P3D XDirection',(0.,-1.,6.12303176911E-017)) ;
#395=DIRECTION('Vector Direction',(1.,0.,0.)) ;
#402=DIRECTION('Vector Direction',(1.,0.,0.)) ;
#409=DIRECTION('Axis2P3D Direction',(1.,0.,-0.)) ;
#421=DIRECTION('Axis2P3D Direction',(0.,-1.,0.)) ;
#422=DIRECTION('Axis2P3D XDirection',(0.,-0.,-1.)) ;
#426=DIRECTION('Vector Direction',(0.,0.,1.)) ;
#433=DIRECTION('Vector Direction',(1.,0.,0.)) ;
#445=DIRECTION('Axis2P3D Direction',(1.,0.,-0.)) ;
#446=DIRECTION('Axis2P3D XDirection',(0.,1.,7.04487466627E-016)) ;
#450=DIRECTION('Vector Direction',(1.,0.,0.)) ;
#457=DIRECTION('Axis2P3D Direction',(1.,0.,-0.)) ;
#469=DIRECTION('Axis2P3D Direction',(0.,1.,0.)) ;
#470=DIRECTION('Axis2P3D XDirection',(0.,0.,1.)) ;
#474=DIRECTION('Vector Direction',(0.,0.,-1.)) ;
#486=DIRECTION('Axis2P3D Direction',(-1.,-2.22044604925E-015,-2.22044604925E-015)) ;
#487=DIRECTION('Axis2P3D XDirection',(1.97563352395E-015,-0.991151909759,0.132732406673)) ;
#491=DIRECTION('Vector Direction',(-0.707106781187,-0.707106781187,-7.85046229342E-016)) ;
#496=DIRECTION('Vector Direction',(-0.707106781187,0.707106781187,-2.35513868803E-015)) ;
#508=DIRECTION('Axis2P3D Direction',(0.707106781187,0.707106781187,-0.)) ;
#509=DIRECTION('Axis2P3D XDirection',(0.,0.,1.)) ;
#513=DIRECTION('Vector Direction',(0.707106781187,-0.707106781187,0.)) ;
#525=DIRECTION('Axis2P3D Direction',(-1.,1.33226762955E-014,-1.55431223448E-014)) ;
#526=DIRECTION('Axis2P3D XDirection',(1.98880441411E-014,0.809016994375,-0.587785252292)) ;
#530=DIRECTION('Vector Direction',(-0.707106781187,-0.707106781187,-2.51214793389E-014)) ;
#542=DIRECTION('Axis2P3D Direction',(0.707106781187,-0.707106781187,0.)) ;
#543=DIRECTION('Axis2P3D XDirection',(0.,0.,-1.)) ;
#48=AXIS2_PLACEMENT_3D(' ',#47,$,$) ;
#55=AXIS2_PLACEMENT_3D('Cone Axis2P3D',#52,#53,#54) ;
#68=AXIS2_PLACEMENT_3D('Circle Axis2P3D',#66,#67,$) ;
#82=AXIS2_PLACEMENT_3D('Circle Axis2P3D',#80,#81,$) ;
#95=AXIS2_PLACEMENT_3D('Cone Axis2P3D',#92,#93,#94) ;
#99=AXIS2_PLACEMENT_3D('Circle Axis2P3D',#97,#98,$) ;
#104=AXIS2_PLACEMENT_3D('Circle Axis2P3D',#102,#103,$) ;
#117=AXIS2_PLACEMENT_3D('Cone Axis2P3D',#114,#115,#116) ;
#130=AXIS2_PLACEMENT_3D('Circle Axis2P3D',#128,#129,$) ;
#144=AXIS2_PLACEMENT_3D('Circle Axis2P3D',#142,#143,$) ;
#157=AXIS2_PLACEMENT_3D('Plane Axis2P3D',#154,#155,#156) ;
#188=AXIS2_PLACEMENT_3D('Cone Axis2P3D',#185,#186,#187) ;
#192=AXIS2_PLACEMENT_3D('Circle Axis2P3D',#190,#191,$) ;
#206=AXIS2_PLACEMENT_3D('Circle Axis2P3D',#204,#205,$) ;
#219=AXIS2_PLACEMENT_3D('Plane Axis2P3D',#216,#217,#218) ;
#241=AXIS2_PLACEMENT_3D('Cylinder Axis2P3D',#238,#239,#240) ;
#245=AXIS2_PLACEMENT_3D('Circle Axis2P3D',#243,#244,$) ;
#271=AXIS2_PLACEMENT_3D('Circle Axis2P3D',#269,#270,$) ;
#284=AXIS2_PLACEMENT_3D('Plane Axis2P3D',#281,#282,#283) ;
#294=AXIS2_PLACEMENT_3D('Circle Axis2P3D',#292,#293,$) ;
#303=AXIS2_PLACEMENT_3D('Circle Axis2P3D',#301,#302,$) ;
#314=AXIS2_PLACEMENT_3D('Cone Axis2P3D',#311,#312,#313) ;
#336=AXIS2_PLACEMENT_3D('Cone Axis2P3D',#333,#334,#335) ;
#348=AXIS2_PLACEMENT_3D('Plane Axis2P3D',#345,#346,#347) ;
#352=AXIS2_PLACEMENT_3D('Circle Axis2P3D',#350,#351,$) ;
#368=AXIS2_PLACEMENT_3D('Circle Axis2P3D',#366,#367,$) ;
#392=AXIS2_PLACEMENT_3D('Cylinder Axis2P3D',#389,#390,#391) ;
#410=AXIS2_PLACEMENT_3D('Circle Axis2P3D',#408,#409,$) ;
#423=AXIS2_PLACEMENT_3D('Plane Axis2P3D',#420,#421,#422) ;
#447=AXIS2_PLACEMENT_3D('Cylinder Axis2P3D',#444,#445,#446) ;
#458=AXIS2_PLACEMENT_3D('Circle Axis2P3D',#456,#457,$) ;
#471=AXIS2_PLACEMENT_3D('Plane Axis2P3D',#468,#469,#470) ;
#488=AXIS2_PLACEMENT_3D('Cone Axis2P3D',#485,#486,#487) ;
#510=AXIS2_PLACEMENT_3D('Plane Axis2P3D',#507,#508,#509) ;
#527=AXIS2_PLACEMENT_3D('Cone Axis2P3D',#524,#525,#526) ;
#544=AXIS2_PLACEMENT_3D('Plane Axis2P3D',#541,#542,#543) ;
#40=PRODUCT_DEFINITION_SHAPE(' ',' ',#14) ;
#31=APPROVAL_PERSON_ORGANIZATION(#25,#21,#19) ;
#25=PERSON_AND_ORGANIZATION(#22,#23) ;
#22=PERSON(' ',' ',' ',$,$,$) ;
#23=ORGANIZATION(' ',' ',' ') ;
#21=APPROVAL(#20,' ') ;
#20=APPROVAL_STATUS('not_yet_approved') ;
#19=APPROVAL_ROLE('APPROVER') ;
#13=DATE_AND_TIME(#11,#12) ;
#12=LOCAL_TIME(15,12,4.,#10) ;
#10=COORDINATED_UNIVERSAL_TIME_OFFSET(0,0,.AHEAD.) ;
#86=ORIENTED_EDGE('',*,*,#65,.T.) ;
#87=ORIENTED_EDGE('',*,*,#72,.T.) ;
#88=ORIENTED_EDGE('',*,*,#79,.F.) ;
#89=ORIENTED_EDGE('',*,*,#84,.F.) ;
#108=ORIENTED_EDGE('',*,*,#79,.T.) ;
#109=ORIENTED_EDGE('',*,*,#101,.T.) ;
#110=ORIENTED_EDGE('',*,*,#65,.F.) ;
#111=ORIENTED_EDGE('',*,*,#106,.F.) ;
#148=ORIENTED_EDGE('',*,*,#127,.T.) ;
#149=ORIENTED_EDGE('',*,*,#134,.T.) ;
#150=ORIENTED_EDGE('',*,*,#141,.F.) ;
#151=ORIENTED_EDGE('',*,*,#146,.F.) ;
#179=ORIENTED_EDGE('',*,*,#141,.T.) ;
#180=ORIENTED_EDGE('',*,*,#165,.T.) ;
#181=ORIENTED_EDGE('',*,*,#172,.F.) ;
#182=ORIENTED_EDGE('',*,*,#177,.F.) ;
#210=ORIENTED_EDGE('',*,*,#172,.T.) ;
#211=ORIENTED_EDGE('',*,*,#196,.T.) ;
#212=ORIENTED_EDGE('',*,*,#203,.F.) ;
#213=ORIENTED_EDGE('',*,*,#208,.F.) ;
#232=ORIENTED_EDGE('',*,*,#203,.T.) ;
#233=ORIENTED_EDGE('',*,*,#225,.T.) ;
#234=ORIENTED_EDGE('',*,*,#127,.F.) ;
#235=ORIENTED_EDGE('',*,*,#230,.F.) ;
#263=ORIENTED_EDGE('',*,*,#251,.F.) ;
#264=ORIENTED_EDGE('',*,*,#256,.T.) ;
#265=ORIENTED_EDGE('',*,*,#106,.T.) ;
#266=ORIENTED_EDGE('',*,*,#261,.F.) ;
#275=ORIENTED_EDGE('',*,*,#273,.F.) ;
#276=ORIENTED_EDGE('',*,*,#261,.T.) ;
#277=ORIENTED_EDGE('',*,*,#84,.T.) ;
#278=ORIENTED_EDGE('',*,*,#256,.F.) ;
#287=ORIENTED_EDGE('',*,*,#225,.F.) ;
#288=ORIENTED_EDGE('',*,*,#196,.F.) ;
#289=ORIENTED_EDGE('',*,*,#165,.F.) ;
#290=ORIENTED_EDGE('',*,*,#134,.F.) ;
#307=ORIENTED_EDGE('',*,*,#300,.T.) ;
#308=ORIENTED_EDGE('',*,*,#305,.T.) ;
#327=ORIENTED_EDGE('',*,*,#320,.T.) ;
#328=ORIENTED_EDGE('',*,*,#273,.T.) ;
#329=ORIENTED_EDGE('',*,*,#325,.F.) ;
#330=ORIENTED_EDGE('',*,*,#300,.F.) ;
#339=ORIENTED_EDGE('',*,*,#325,.T.) ;
#340=ORIENTED_EDGE('',*,*,#251,.T.) ;
#341=ORIENTED_EDGE('',*,*,#320,.F.) ;
#342=ORIENTED_EDGE('',*,*,#305,.F.) ;
#379=ORIENTED_EDGE('',*,*,#358,.T.) ;
#380=ORIENTED_EDGE('',*,*,#365,.T.) ;
#381=ORIENTED_EDGE('',*,*,#372,.T.) ;
#382=ORIENTED_EDGE('',*,*,#377,.T.) ;
#385=ORIENTED_EDGE('',*,*,#101,.F.) ;
#386=ORIENTED_EDGE('',*,*,#72,.F.) ;
#414=ORIENTED_EDGE('',*,*,#400,.F.) ;
#415=ORIENTED_EDGE('',*,*,#146,.T.) ;
#416=ORIENTED_EDGE('',*,*,#407,.T.) ;
#417=ORIENTED_EDGE('',*,*,#412,.F.) ;
#438=ORIENTED_EDGE('',*,*,#431,.F.) ;
#439=ORIENTED_EDGE('',*,*,#407,.F.) ;
#440=ORIENTED_EDGE('',*,*,#177,.T.) ;
#441=ORIENTED_EDGE('',*,*,#436,.T.) ;
#462=ORIENTED_EDGE('',*,*,#436,.F.) ;
#463=ORIENTED_EDGE('',*,*,#208,.T.) ;
#464=ORIENTED_EDGE('',*,*,#455,.T.) ;
#465=ORIENTED_EDGE('',*,*,#460,.F.) ;
#479=ORIENTED_EDGE('',*,*,#477,.F.) ;
#480=ORIENTED_EDGE('',*,*,#455,.F.) ;
#481=ORIENTED_EDGE('',*,*,#230,.T.) ;
#482=ORIENTED_EDGE('',*,*,#400,.T.) ;
#501=ORIENTED_EDGE('',*,*,#494,.T.) ;
#502=ORIENTED_EDGE('',*,*,#412,.T.) ;
#503=ORIENTED_EDGE('',*,*,#499,.F.) ;
#504=ORIENTED_EDGE('',*,*,#358,.F.) ;
#518=ORIENTED_EDGE('',*,*,#499,.T.) ;
#519=ORIENTED_EDGE('',*,*,#431,.T.) ;
#520=ORIENTED_EDGE('',*,*,#516,.F.) ;
#521=ORIENTED_EDGE('',*,*,#365,.F.) ;
#535=ORIENTED_EDGE('',*,*,#516,.T.) ;
#536=ORIENTED_EDGE('',*,*,#460,.T.) ;
#537=ORIENTED_EDGE('',*,*,#533,.F.) ;
#538=ORIENTED_EDGE('',*,*,#372,.F.) ;
#547=ORIENTED_EDGE('',*,*,#533,.T.) ;
#548=ORIENTED_EDGE('',*,*,#477,.T.) ;
#549=ORIENTED_EDGE('',*,*,#494,.F.) ;
#550=ORIENTED_EDGE('',*,*,#377,.F.) ;
#309=FACE_BOUND('',#306,.T.) ;
#387=FACE_BOUND('',#384,.T.) ;
#51=CLOSED_SHELL('Closed Shell',(#91,#113,#153,#184,#215,#237,#268,#280,#310,#332,#344,#388,#419,#443,#467,#484,#506,#523,#540,#552)) ;
#59=VECTOR('Line Direction',#58,1.) ;
#75=VECTOR('Line Direction',#74,1.) ;
#121=VECTOR('Line Direction',#120,1.) ;
#137=VECTOR('Line Direction',#136,1.) ;
#161=VECTOR('Line Direction',#160,1.) ;
#168=VECTOR('Line Direction',#167,1.) ;
#175=VECTOR('Line Direction',#174,1.) ;
#199=VECTOR('Line Direction',#198,1.) ;
#223=VECTOR('Line Direction',#222,1.) ;
#228=VECTOR('Line Direction',#227,1.) ;
#254=VECTOR('Line Direction',#253,1.) ;
#259=VECTOR('Line Direction',#258,1.) ;
#318=VECTOR('Line Direction',#317,1.) ;
#323=VECTOR('Line Direction',#322,1.) ;
#361=VECTOR('Line Direction',#360,1.) ;
#375=VECTOR('Line Direction',#374,1.) ;
#396=VECTOR('Line Direction',#395,1.) ;
#403=VECTOR('Line Direction',#402,1.) ;
#427=VECTOR('Line Direction',#426,1.) ;
#434=VECTOR('Line Direction',#433,1.) ;
#451=VECTOR('Line Direction',#450,1.) ;
#475=VECTOR('Line Direction',#474,1.) ;
#492=VECTOR('Line Direction',#491,1.) ;
#497=VECTOR('Line Direction',#496,1.) ;
#514=VECTOR('Line Direction',#513,1.) ;
#531=VECTOR('Line Direction',#530,1.) ;
#554=ADVANCED_BREP_SHAPE_REPRESENTATION('NONE',(#553),#46) ;
#49=SHAPE_REPRESENTATION(' ',(#48),#46) ;
#91=ADVANCED_FACE('Corps principal',(#90),#56,.F.) ;
#113=ADVANCED_FACE('Corps principal',(#112),#96,.F.) ;
#153=ADVANCED_FACE('Corps principal',(#152),#118,.T.) ;
#184=ADVANCED_FACE('Corps principal',(#183),#158,.F.) ;
#215=ADVANCED_FACE('Corps principal',(#214),#189,.T.) ;
#237=ADVANCED_FACE('Corps principal',(#236),#220,.F.) ;
#268=ADVANCED_FACE('Corps principal',(#267),#242,.F.) ;
#280=ADVANCED_FACE('Corps principal',(#279),#242,.F.) ;
#310=ADVANCED_FACE('Corps principal',(#291,#309),#285,.F.) ;
#332=ADVANCED_FACE('Corps principal',(#331),#315,.F.) ;
#344=ADVANCED_FACE('Corps principal',(#343),#337,.F.) ;
#388=ADVANCED_FACE('Corps principal',(#383,#387),#349,.T.) ;
#419=ADVANCED_FACE('Corps principal',(#418),#393,.T.) ;
#443=ADVANCED_FACE('Corps principal',(#442),#424,.F.) ;
#467=ADVANCED_FACE('Corps principal',(#466),#448,.T.) ;
#484=ADVANCED_FACE('Corps principal',(#483),#472,.F.) ;
#506=ADVANCED_FACE('Corps principal',(#505),#489,.T.) ;
#523=ADVANCED_FACE('Corps principal',(#522),#511,.T.) ;
#540=ADVANCED_FACE('Corps principal',(#539),#528,.T.) ;
#552=ADVANCED_FACE('Corps principal',(#551),#545,.T.) ;
#4=APPLICATION_PROTOCOL_DEFINITION('international standard','config_control_design',1994,#1) ;
#32=APPROVAL_DATE_TIME(#13,#21) ;
#553=MANIFOLD_SOLID_BREP('Corps principal',#51) ;
#11=CALENDAR_DATE(2019,12,5) ;
#30=CC_DESIGN_APPROVAL(#21,(#16,#6,#14)) ;
#18=CC_DESIGN_DATE_AND_TIME_ASSIGNMENT(#13,#17,(#16)) ;
#29=CC_DESIGN_DATE_AND_TIME_ASSIGNMENT(#13,#28,(#14)) ;
#17=DATE_TIME_ROLE('classification_date') ;
#28=DATE_TIME_ROLE('creation_date') ;
#27=CC_DESIGN_PERSON_AND_ORGANIZATION_ASSIGNMENT(#25,#26,(#16)) ;
#33=CC_DESIGN_PERSON_AND_ORGANIZATION_ASSIGNMENT(#25,#34,(#6)) ;
#35=CC_DESIGN_PERSON_AND_ORGANIZATION_ASSIGNMENT(#25,#36,(#6,#14)) ;
#37=CC_DESIGN_PERSON_AND_ORGANIZATION_ASSIGNMENT(#25,#38,(#5)) ;
#26=PERSON_AND_ORGANIZATION_ROLE('classification_officer') ;
#34=PERSON_AND_ORGANIZATION_ROLE('design_supplier') ;
#36=PERSON_AND_ORGANIZATION_ROLE('creator') ;
#38=PERSON_AND_ORGANIZATION_ROLE('design_owner') ;
#39=CC_DESIGN_SECURITY_CLASSIFICATION(#16,(#6)) ;
#69=CIRCLE('generated circle',#68,4.47) ;
#83=CIRCLE('generated circle',#82,3.97) ;
#100=CIRCLE('generated circle',#99,4.47) ;
#105=CIRCLE('generated circle',#104,3.97) ;
#131=CIRCLE('generated circle',#130,5.75) ;
#145=CIRCLE('generated circle',#144,6.25) ;
#193=CIRCLE('generated circle',#192,5.75) ;
#207=CIRCLE('generated circle',#206,6.25) ;
#246=CIRCLE('generated circle',#245,3.97) ;
#272=CIRCLE('generated circle',#271,3.97) ;
#295=CIRCLE('generated circle',#294,4.47) ;
#304=CIRCLE('generated circle',#303,4.47) ;
#353=CIRCLE('generated circle',#352,6.05) ;
#369=CIRCLE('generated circle',#368,6.05) ;
#411=CIRCLE('generated circle',#410,6.25) ;
#459=CIRCLE('generated circle',#458,6.25) ;
#56=CONICAL_SURFACE('Cone',#55,0.,0.785398163398) ;
#96=CONICAL_SURFACE('Cone',#95,0.,0.785398163398) ;
#118=CONICAL_SURFACE('Cone',#117,0.,0.785398163397) ;
#189=CONICAL_SURFACE('Cone',#188,0.,0.785398163397) ;
#315=CONICAL_SURFACE('Cone',#314,0.,0.785398163398) ;
#337=CONICAL_SURFACE('Cone',#336,0.,0.785398163398) ;
#489=CONICAL_SURFACE('Cone',#488,0.,0.785398163397) ;
#528=CONICAL_SURFACE('Cone',#527,0.,0.785398163397) ;
#555=SHAPE_REPRESENTATION_RELATIONSHIP(' ',' ',#49,#554) ;
#242=CYLINDRICAL_SURFACE('generated cylinder',#241,3.97) ;
#393=CYLINDRICAL_SURFACE('generated cylinder',#392,6.25) ;
#448=CYLINDRICAL_SURFACE('generated cylinder',#447,6.25) ;
#3=DESIGN_CONTEXT(' ',#1,'design') ;
#65=EDGE_CURVE('',#62,#64,#60,.T.) ;
#72=EDGE_CURVE('',#64,#71,#69,.T.) ;
#79=EDGE_CURVE('',#78,#71,#76,.T.) ;
#84=EDGE_CURVE('',#62,#78,#83,.T.) ;
#101=EDGE_CURVE('',#71,#64,#100,.T.) ;
#106=EDGE_CURVE('',#78,#62,#105,.T.) ;
#127=EDGE_CURVE('',#124,#126,#122,.F.) ;
#134=EDGE_CURVE('',#126,#133,#131,.T.) ;
#141=EDGE_CURVE('',#140,#133,#138,.F.) ;
#146=EDGE_CURVE('',#124,#140,#145,.T.) ;
#165=EDGE_CURVE('',#133,#164,#162,.F.) ;
#172=EDGE_CURVE('',#171,#164,#169,.F.) ;
#177=EDGE_CURVE('',#140,#171,#176,.F.) ;
#196=EDGE_CURVE('',#164,#195,#193,.T.) ;
#203=EDGE_CURVE('',#202,#195,#200,.F.) ;
#208=EDGE_CURVE('',#171,#202,#207,.T.) ;
#225=EDGE_CURVE('',#195,#126,#224,.F.) ;
#230=EDGE_CURVE('',#202,#124,#229,.F.) ;
#251=EDGE_CURVE('',#248,#250,#246,.T.) ;
#256=EDGE_CURVE('',#248,#78,#255,.T.) ;
#261=EDGE_CURVE('',#250,#62,#260,.T.) ;
#273=EDGE_CURVE('',#250,#248,#272,.T.) ;
#300=EDGE_CURVE('',#297,#299,#295,.T.) ;
#305=EDGE_CURVE('',#299,#297,#304,.T.) ;
#320=EDGE_CURVE('',#297,#250,#319,.F.) ;
#325=EDGE_CURVE('',#299,#248,#324,.F.) ;
#358=EDGE_CURVE('',#355,#357,#353,.T.) ;
#365=EDGE_CURVE('',#357,#364,#362,.T.) ;
#372=EDGE_CURVE('',#364,#371,#369,.T.) ;
#377=EDGE_CURVE('',#371,#355,#376,.T.) ;
#400=EDGE_CURVE('',#124,#399,#397,.T.) ;
#407=EDGE_CURVE('',#140,#406,#404,.T.) ;
#412=EDGE_CURVE('',#399,#406,#411,.T.) ;
#431=EDGE_CURVE('',#406,#430,#428,.T.) ;
#436=EDGE_CURVE('',#171,#430,#435,.T.) ;
#455=EDGE_CURVE('',#202,#454,#452,.T.) ;
#460=EDGE_CURVE('',#430,#454,#459,.T.) ;
#477=EDGE_CURVE('',#454,#399,#476,.T.) ;
#494=EDGE_CURVE('',#355,#399,#493,.T.) ;
#499=EDGE_CURVE('',#357,#406,#498,.T.) ;
#516=EDGE_CURVE('',#364,#430,#515,.F.) ;
#533=EDGE_CURVE('',#371,#454,#532,.T.) ;
#85=EDGE_LOOP('',(#86,#87,#88,#89)) ;
#107=EDGE_LOOP('',(#108,#109,#110,#111)) ;
#147=EDGE_LOOP('',(#148,#149,#150,#151)) ;
#178=EDGE_LOOP('',(#179,#180,#181,#182)) ;
#209=EDGE_LOOP('',(#210,#211,#212,#213)) ;
#231=EDGE_LOOP('',(#232,#233,#234,#235)) ;
#262=EDGE_LOOP('',(#263,#264,#265,#266)) ;
#274=EDGE_LOOP('',(#275,#276,#277,#278)) ;
#286=EDGE_LOOP('',(#287,#288,#289,#290)) ;
#306=EDGE_LOOP('',(#307,#308)) ;
#326=EDGE_LOOP('',(#327,#328,#329,#330)) ;
#338=EDGE_LOOP('',(#339,#340,#341,#342)) ;
#378=EDGE_LOOP('',(#379,#380,#381,#382)) ;
#384=EDGE_LOOP('',(#385,#386)) ;
#413=EDGE_LOOP('',(#414,#415,#416,#417)) ;
#437=EDGE_LOOP('',(#438,#439,#440,#441)) ;
#461=EDGE_LOOP('',(#462,#463,#464,#465)) ;
#478=EDGE_LOOP('',(#479,#480,#481,#482)) ;
#500=EDGE_LOOP('',(#501,#502,#503,#504)) ;
#517=EDGE_LOOP('',(#518,#519,#520,#521)) ;
#534=EDGE_LOOP('',(#535,#536,#537,#538)) ;
#546=EDGE_LOOP('',(#547,#548,#549,#550)) ;
#90=FACE_OUTER_BOUND('',#85,.T.) ;
#112=FACE_OUTER_BOUND('',#107,.T.) ;
#152=FACE_OUTER_BOUND('',#147,.T.) ;
#183=FACE_OUTER_BOUND('',#178,.T.) ;
#214=FACE_OUTER_BOUND('',#209,.T.) ;
#236=FACE_OUTER_BOUND('',#231,.T.) ;
#267=FACE_OUTER_BOUND('',#262,.T.) ;
#279=FACE_OUTER_BOUND('',#274,.T.) ;
#291=FACE_OUTER_BOUND('',#286,.T.) ;
#331=FACE_OUTER_BOUND('',#326,.T.) ;
#343=FACE_OUTER_BOUND('',#338,.T.) ;
#383=FACE_OUTER_BOUND('',#378,.T.) ;
#418=FACE_OUTER_BOUND('',#413,.T.) ;
#442=FACE_OUTER_BOUND('',#437,.T.) ;
#466=FACE_OUTER_BOUND('',#461,.T.) ;
#483=FACE_OUTER_BOUND('',#478,.T.) ;
#505=FACE_OUTER_BOUND('',#500,.T.) ;
#522=FACE_OUTER_BOUND('',#517,.T.) ;
#539=FACE_OUTER_BOUND('',#534,.T.) ;
#551=FACE_OUTER_BOUND('',#546,.T.) ;
#45=UNCERTAINTY_MEASURE_WITH_UNIT(LENGTH_MEASURE(0.005),#41,'distance_accuracy_value','CONFUSED CURVE UNCERTAINTY') ;
#60=LINE('Line',#57,#59) ;
#76=LINE('Line',#73,#75) ;
#122=LINE('Line',#119,#121) ;
#138=LINE('Line',#135,#137) ;
#162=LINE('Line',#159,#161) ;
#169=LINE('Line',#166,#168) ;
#176=LINE('Line',#173,#175) ;
#200=LINE('Line',#197,#199) ;
#224=LINE('Line',#221,#223) ;
#229=LINE('Line',#226,#228) ;
#255=LINE('Line',#252,#254) ;
#260=LINE('Line',#257,#259) ;
#319=LINE('Line',#316,#318) ;
#324=LINE('Line',#321,#323) ;
#362=LINE('Line',#359,#361) ;
#376=LINE('Line',#373,#375) ;
#397=LINE('Line',#394,#396) ;
#404=LINE('Line',#401,#403) ;
#428=LINE('Line',#425,#427) ;
#435=LINE('Line',#432,#434) ;
#452=LINE('Line',#449,#451) ;
#476=LINE('Line',#473,#475) ;
#493=LINE('Line',#490,#492) ;
#498=LINE('Line',#495,#497) ;
#515=LINE('Line',#512,#514) ;
#532=LINE('Line',#529,#531) ;
#2=MECHANICAL_CONTEXT(' ',#1,'mechanical') ;
#24=PERSONAL_ADDRESS(' ',' ',' ',' ',' ',' ',' ',' ',' ',' ',' ',' ',(#22),' ') ;
#158=PLANE('',#157) ;
#220=PLANE('',#219) ;
#285=PLANE('',#284) ;
#349=PLANE('',#348) ;
#424=PLANE('',#423) ;
#472=PLANE('',#471) ;
#511=PLANE('',#510) ;
#545=PLANE('',#544) ;
#43=PLANE_ANGLE_MEASURE_WITH_UNIT(PLANE_ANGLE_MEASURE(0.0174532925199),#42) ;
#7=PRODUCT_CATEGORY('part',$) ;
#9=PRODUCT_CATEGORY_RELATIONSHIP(' ',' ',#7,#8) ;
#6=PRODUCT_DEFINITION_FORMATION_WITH_SPECIFIED_SOURCE('',' ',#5,.MADE.) ;
#8=PRODUCT_RELATED_PRODUCT_CATEGORY('detail',$,(#5)) ;
#50=SHAPE_DEFINITION_REPRESENTATION(#40,#49) ;
#62=VERTEX_POINT('',#61) ;
#64=VERTEX_POINT('',#63) ;
#71=VERTEX_POINT('',#70) ;
#78=VERTEX_POINT('',#77) ;
#124=VERTEX_POINT('',#123) ;
#126=VERTEX_POINT('',#125) ;
#133=VERTEX_POINT('',#132) ;
#140=VERTEX_POINT('',#139) ;
#164=VERTEX_POINT('',#163) ;
#171=VERTEX_POINT('',#170) ;
#195=VERTEX_POINT('',#194) ;
#202=VERTEX_POINT('',#201) ;
#248=VERTEX_POINT('',#247) ;
#250=VERTEX_POINT('',#249) ;
#297=VERTEX_POINT('',#296) ;
#299=VERTEX_POINT('',#298) ;
#355=VERTEX_POINT('',#354) ;
#357=VERTEX_POINT('',#356) ;
#364=VERTEX_POINT('',#363) ;
#371=VERTEX_POINT('',#370) ;
#399=VERTEX_POINT('',#398) ;
#406=VERTEX_POINT('',#405) ;
#430=VERTEX_POINT('',#429) ;
#454=VERTEX_POINT('',#453) ;
#41=(LENGTH_UNIT()NAMED_UNIT(*)SI_UNIT(.MILLI.,.METRE.)) ;
#42=(NAMED_UNIT(*)PLANE_ANGLE_UNIT()SI_UNIT($,.RADIAN.)) ;
#44=(NAMED_UNIT(*)SI_UNIT($,.STERADIAN.)SOLID_ANGLE_UNIT()) ;
#46=(GEOMETRIC_REPRESENTATION_CONTEXT(3)GLOBAL_UNCERTAINTY_ASSIGNED_CONTEXT((#45))GLOBAL_UNIT_ASSIGNED_CONTEXT((#41,#42,#44))REPRESENTATION_CONTEXT(' ',' ')) ;
ENDSEC;
END-ISO-10303-21;
