ISO-10303-21;
HEADER;
/* Generated by software containing ST-Developer
 * from STEP Tools, Inc. (www.steptools.com) 
 */

FILE_DESCRIPTION(
/* description */ (''),
/* implementation_level */ '2;1');

FILE_NAME(
/* name */ 
'C:/Users/jonathan/Desktop/patte fixation beringer mc127 v1.step',
/* time_stamp */ '2019-11-02T19:36:12+01:00',
/* author */ (''),
/* organization */ (''),
/* preprocessor_version */ 'ST-DEVELOPER v18',
/* originating_system */ 'Autodesk Translation Framework v8.6.0.1094',
/* authorisation */ '');

FILE_SCHEMA (('AUTOMOTIVE_DESIGN { 1 0 10303 214 3 1 1 }'));
ENDSEC;

DATA;
#10=MECHANICAL_DESIGN_GEOMETRIC_PRESENTATION_REPRESENTATION('',(#13),#440);
#11=SHAPE_REPRESENTATION_RELATIONSHIP('SRR','None',#447,#12);
#12=ADVANCED_BREP_SHAPE_REPRESENTATION('',(#14),#439);
#13=STYLED_ITEM('',(#456),#14);
#14=MANIFOLD_SOLID_BREP('Body1',#252);
#15=FACE_BOUND('',#52,.T.);
#16=FACE_BOUND('',#53,.T.);
#17=FACE_BOUND('',#54,.T.);
#18=FACE_BOUND('',#56,.T.);
#19=FACE_BOUND('',#57,.T.);
#20=FACE_BOUND('',#58,.T.);
#21=PLANE('',#275);
#22=PLANE('',#279);
#23=PLANE('',#283);
#24=PLANE('',#287);
#25=PLANE('',#291);
#26=PLANE('',#292);
#27=FACE_OUTER_BOUND('',#40,.T.);
#28=FACE_OUTER_BOUND('',#41,.T.);
#29=FACE_OUTER_BOUND('',#42,.T.);
#30=FACE_OUTER_BOUND('',#43,.T.);
#31=FACE_OUTER_BOUND('',#44,.T.);
#32=FACE_OUTER_BOUND('',#45,.T.);
#33=FACE_OUTER_BOUND('',#46,.T.);
#34=FACE_OUTER_BOUND('',#47,.T.);
#35=FACE_OUTER_BOUND('',#48,.T.);
#36=FACE_OUTER_BOUND('',#49,.T.);
#37=FACE_OUTER_BOUND('',#50,.T.);
#38=FACE_OUTER_BOUND('',#51,.T.);
#39=FACE_OUTER_BOUND('',#55,.T.);
#40=EDGE_LOOP('',(#166,#167,#168,#169));
#41=EDGE_LOOP('',(#170,#171,#172,#173));
#42=EDGE_LOOP('',(#174,#175,#176,#177));
#43=EDGE_LOOP('',(#178,#179,#180,#181));
#44=EDGE_LOOP('',(#182,#183,#184,#185));
#45=EDGE_LOOP('',(#186,#187,#188,#189));
#46=EDGE_LOOP('',(#190,#191,#192,#193));
#47=EDGE_LOOP('',(#194,#195,#196,#197));
#48=EDGE_LOOP('',(#198,#199,#200,#201));
#49=EDGE_LOOP('',(#202,#203,#204,#205));
#50=EDGE_LOOP('',(#206,#207,#208,#209));
#51=EDGE_LOOP('',(#210,#211,#212,#213,#214,#215,#216,#217));
#52=EDGE_LOOP('',(#218));
#53=EDGE_LOOP('',(#219));
#54=EDGE_LOOP('',(#220));
#55=EDGE_LOOP('',(#221,#222,#223,#224,#225,#226,#227,#228));
#56=EDGE_LOOP('',(#229));
#57=EDGE_LOOP('',(#230));
#58=EDGE_LOOP('',(#231));
#59=LINE('',#373,#78);
#60=LINE('',#379,#79);
#61=LINE('',#385,#80);
#62=LINE('',#390,#81);
#63=LINE('',#392,#82);
#64=LINE('',#394,#83);
#65=LINE('',#395,#84);
#66=LINE('',#401,#85);
#67=LINE('',#404,#86);
#68=LINE('',#406,#87);
#69=LINE('',#407,#88);
#70=LINE('',#413,#89);
#71=LINE('',#416,#90);
#72=LINE('',#418,#91);
#73=LINE('',#419,#92);
#74=LINE('',#425,#93);
#75=LINE('',#428,#94);
#76=LINE('',#430,#95);
#77=LINE('',#431,#96);
#78=VECTOR('',#299,3.);
#79=VECTOR('',#306,3.);
#80=VECTOR('',#313,3.);
#81=VECTOR('',#318,10.);
#82=VECTOR('',#319,10.);
#83=VECTOR('',#320,10.);
#84=VECTOR('',#321,10.);
#85=VECTOR('',#328,10.);
#86=VECTOR('',#331,10.);
#87=VECTOR('',#332,10.);
#88=VECTOR('',#333,10.);
#89=VECTOR('',#340,10.);
#90=VECTOR('',#343,10.);
#91=VECTOR('',#344,10.);
#92=VECTOR('',#345,10.);
#93=VECTOR('',#352,10.);
#94=VECTOR('',#355,10.);
#95=VECTOR('',#356,10.);
#96=VECTOR('',#357,10.);
#97=CIRCLE('',#267,3.);
#98=CIRCLE('',#268,3.);
#99=CIRCLE('',#270,3.);
#100=CIRCLE('',#271,3.);
#101=CIRCLE('',#273,3.);
#102=CIRCLE('',#274,3.);
#103=CIRCLE('',#277,9.99999999999998);
#104=CIRCLE('',#278,9.99999999999998);
#105=CIRCLE('',#281,9.99999999999998);
#106=CIRCLE('',#282,9.99999999999998);
#107=CIRCLE('',#285,10.);
#108=CIRCLE('',#286,10.);
#109=CIRCLE('',#289,10.);
#110=CIRCLE('',#290,10.);
#111=VERTEX_POINT('',#370);
#112=VERTEX_POINT('',#372);
#113=VERTEX_POINT('',#376);
#114=VERTEX_POINT('',#378);
#115=VERTEX_POINT('',#382);
#116=VERTEX_POINT('',#384);
#117=VERTEX_POINT('',#388);
#118=VERTEX_POINT('',#389);
#119=VERTEX_POINT('',#391);
#120=VERTEX_POINT('',#393);
#121=VERTEX_POINT('',#397);
#122=VERTEX_POINT('',#399);
#123=VERTEX_POINT('',#403);
#124=VERTEX_POINT('',#405);
#125=VERTEX_POINT('',#409);
#126=VERTEX_POINT('',#411);
#127=VERTEX_POINT('',#415);
#128=VERTEX_POINT('',#417);
#129=VERTEX_POINT('',#421);
#130=VERTEX_POINT('',#423);
#131=VERTEX_POINT('',#427);
#132=VERTEX_POINT('',#429);
#133=EDGE_CURVE('',#111,#111,#97,.T.);
#134=EDGE_CURVE('',#111,#112,#59,.T.);
#135=EDGE_CURVE('',#112,#112,#98,.T.);
#136=EDGE_CURVE('',#113,#113,#99,.T.);
#137=EDGE_CURVE('',#113,#114,#60,.T.);
#138=EDGE_CURVE('',#114,#114,#100,.T.);
#139=EDGE_CURVE('',#115,#115,#101,.T.);
#140=EDGE_CURVE('',#115,#116,#61,.T.);
#141=EDGE_CURVE('',#116,#116,#102,.T.);
#142=EDGE_CURVE('',#117,#118,#62,.T.);
#143=EDGE_CURVE('',#118,#119,#63,.T.);
#144=EDGE_CURVE('',#120,#119,#64,.T.);
#145=EDGE_CURVE('',#117,#120,#65,.T.);
#146=EDGE_CURVE('',#117,#121,#103,.T.);
#147=EDGE_CURVE('',#122,#120,#104,.T.);
#148=EDGE_CURVE('',#121,#122,#66,.T.);
#149=EDGE_CURVE('',#121,#123,#67,.T.);
#150=EDGE_CURVE('',#124,#122,#68,.T.);
#151=EDGE_CURVE('',#123,#124,#69,.T.);
#152=EDGE_CURVE('',#125,#123,#105,.T.);
#153=EDGE_CURVE('',#126,#124,#106,.T.);
#154=EDGE_CURVE('',#125,#126,#70,.T.);
#155=EDGE_CURVE('',#125,#127,#71,.T.);
#156=EDGE_CURVE('',#128,#126,#72,.T.);
#157=EDGE_CURVE('',#127,#128,#73,.T.);
#158=EDGE_CURVE('',#129,#127,#107,.T.);
#159=EDGE_CURVE('',#130,#128,#108,.T.);
#160=EDGE_CURVE('',#129,#130,#74,.T.);
#161=EDGE_CURVE('',#131,#129,#75,.T.);
#162=EDGE_CURVE('',#132,#130,#76,.T.);
#163=EDGE_CURVE('',#131,#132,#77,.T.);
#164=EDGE_CURVE('',#118,#131,#109,.T.);
#165=EDGE_CURVE('',#119,#132,#110,.T.);
#166=ORIENTED_EDGE('',*,*,#133,.F.);
#167=ORIENTED_EDGE('',*,*,#134,.T.);
#168=ORIENTED_EDGE('',*,*,#135,.T.);
#169=ORIENTED_EDGE('',*,*,#134,.F.);
#170=ORIENTED_EDGE('',*,*,#136,.F.);
#171=ORIENTED_EDGE('',*,*,#137,.T.);
#172=ORIENTED_EDGE('',*,*,#138,.T.);
#173=ORIENTED_EDGE('',*,*,#137,.F.);
#174=ORIENTED_EDGE('',*,*,#139,.F.);
#175=ORIENTED_EDGE('',*,*,#140,.T.);
#176=ORIENTED_EDGE('',*,*,#141,.T.);
#177=ORIENTED_EDGE('',*,*,#140,.F.);
#178=ORIENTED_EDGE('',*,*,#142,.T.);
#179=ORIENTED_EDGE('',*,*,#143,.T.);
#180=ORIENTED_EDGE('',*,*,#144,.F.);
#181=ORIENTED_EDGE('',*,*,#145,.F.);
#182=ORIENTED_EDGE('',*,*,#146,.F.);
#183=ORIENTED_EDGE('',*,*,#145,.T.);
#184=ORIENTED_EDGE('',*,*,#147,.F.);
#185=ORIENTED_EDGE('',*,*,#148,.F.);
#186=ORIENTED_EDGE('',*,*,#149,.F.);
#187=ORIENTED_EDGE('',*,*,#148,.T.);
#188=ORIENTED_EDGE('',*,*,#150,.F.);
#189=ORIENTED_EDGE('',*,*,#151,.F.);
#190=ORIENTED_EDGE('',*,*,#152,.T.);
#191=ORIENTED_EDGE('',*,*,#151,.T.);
#192=ORIENTED_EDGE('',*,*,#153,.F.);
#193=ORIENTED_EDGE('',*,*,#154,.F.);
#194=ORIENTED_EDGE('',*,*,#155,.F.);
#195=ORIENTED_EDGE('',*,*,#154,.T.);
#196=ORIENTED_EDGE('',*,*,#156,.F.);
#197=ORIENTED_EDGE('',*,*,#157,.F.);
#198=ORIENTED_EDGE('',*,*,#158,.T.);
#199=ORIENTED_EDGE('',*,*,#157,.T.);
#200=ORIENTED_EDGE('',*,*,#159,.F.);
#201=ORIENTED_EDGE('',*,*,#160,.F.);
#202=ORIENTED_EDGE('',*,*,#161,.T.);
#203=ORIENTED_EDGE('',*,*,#160,.T.);
#204=ORIENTED_EDGE('',*,*,#162,.F.);
#205=ORIENTED_EDGE('',*,*,#163,.F.);
#206=ORIENTED_EDGE('',*,*,#164,.T.);
#207=ORIENTED_EDGE('',*,*,#163,.T.);
#208=ORIENTED_EDGE('',*,*,#165,.F.);
#209=ORIENTED_EDGE('',*,*,#143,.F.);
#210=ORIENTED_EDGE('',*,*,#165,.T.);
#211=ORIENTED_EDGE('',*,*,#162,.T.);
#212=ORIENTED_EDGE('',*,*,#159,.T.);
#213=ORIENTED_EDGE('',*,*,#156,.T.);
#214=ORIENTED_EDGE('',*,*,#153,.T.);
#215=ORIENTED_EDGE('',*,*,#150,.T.);
#216=ORIENTED_EDGE('',*,*,#147,.T.);
#217=ORIENTED_EDGE('',*,*,#144,.T.);
#218=ORIENTED_EDGE('',*,*,#139,.T.);
#219=ORIENTED_EDGE('',*,*,#136,.T.);
#220=ORIENTED_EDGE('',*,*,#133,.T.);
#221=ORIENTED_EDGE('',*,*,#164,.F.);
#222=ORIENTED_EDGE('',*,*,#142,.F.);
#223=ORIENTED_EDGE('',*,*,#146,.T.);
#224=ORIENTED_EDGE('',*,*,#149,.T.);
#225=ORIENTED_EDGE('',*,*,#152,.F.);
#226=ORIENTED_EDGE('',*,*,#155,.T.);
#227=ORIENTED_EDGE('',*,*,#158,.F.);
#228=ORIENTED_EDGE('',*,*,#161,.F.);
#229=ORIENTED_EDGE('',*,*,#141,.F.);
#230=ORIENTED_EDGE('',*,*,#138,.F.);
#231=ORIENTED_EDGE('',*,*,#135,.F.);
#232=CYLINDRICAL_SURFACE('',#266,3.);
#233=CYLINDRICAL_SURFACE('',#269,3.);
#234=CYLINDRICAL_SURFACE('',#272,3.);
#235=CYLINDRICAL_SURFACE('',#276,9.99999999999998);
#236=CYLINDRICAL_SURFACE('',#280,9.99999999999998);
#237=CYLINDRICAL_SURFACE('',#284,10.);
#238=CYLINDRICAL_SURFACE('',#288,10.);
#239=ADVANCED_FACE('',(#27),#232,.F.);
#240=ADVANCED_FACE('',(#28),#233,.F.);
#241=ADVANCED_FACE('',(#29),#234,.F.);
#242=ADVANCED_FACE('',(#30),#21,.T.);
#243=ADVANCED_FACE('',(#31),#235,.F.);
#244=ADVANCED_FACE('',(#32),#22,.T.);
#245=ADVANCED_FACE('',(#33),#236,.T.);
#246=ADVANCED_FACE('',(#34),#23,.T.);
#247=ADVANCED_FACE('',(#35),#237,.T.);
#248=ADVANCED_FACE('',(#36),#24,.T.);
#249=ADVANCED_FACE('',(#37),#238,.T.);
#250=ADVANCED_FACE('',(#38,#15,#16,#17),#25,.T.);
#251=ADVANCED_FACE('',(#39,#18,#19,#20),#26,.F.);
#252=CLOSED_SHELL('',(#239,#240,#241,#242,#243,#244,#245,#246,#247,#248,
#249,#250,#251));
#253=DERIVED_UNIT_ELEMENT(#255,1.);
#254=DERIVED_UNIT_ELEMENT(#442,3.);
#255=(
MASS_UNIT()
NAMED_UNIT(*)
SI_UNIT(.KILO.,.GRAM.)
);
#256=DERIVED_UNIT((#253,#254));
#257=MEASURE_REPRESENTATION_ITEM('density measure',
POSITIVE_RATIO_MEASURE(7850.),#256);
#258=PROPERTY_DEFINITION_REPRESENTATION(#263,#260);
#259=PROPERTY_DEFINITION_REPRESENTATION(#264,#261);
#260=REPRESENTATION('material name',(#262),#439);
#261=REPRESENTATION('density',(#257),#439);
#262=DESCRIPTIVE_REPRESENTATION_ITEM('Steel','Steel');
#263=PROPERTY_DEFINITION('material property','material name',#449);
#264=PROPERTY_DEFINITION('material property','density of part',#449);
#265=AXIS2_PLACEMENT_3D('placement',#368,#293,#294);
#266=AXIS2_PLACEMENT_3D('',#369,#295,#296);
#267=AXIS2_PLACEMENT_3D('',#371,#297,#298);
#268=AXIS2_PLACEMENT_3D('',#374,#300,#301);
#269=AXIS2_PLACEMENT_3D('',#375,#302,#303);
#270=AXIS2_PLACEMENT_3D('',#377,#304,#305);
#271=AXIS2_PLACEMENT_3D('',#380,#307,#308);
#272=AXIS2_PLACEMENT_3D('',#381,#309,#310);
#273=AXIS2_PLACEMENT_3D('',#383,#311,#312);
#274=AXIS2_PLACEMENT_3D('',#386,#314,#315);
#275=AXIS2_PLACEMENT_3D('',#387,#316,#317);
#276=AXIS2_PLACEMENT_3D('',#396,#322,#323);
#277=AXIS2_PLACEMENT_3D('',#398,#324,#325);
#278=AXIS2_PLACEMENT_3D('',#400,#326,#327);
#279=AXIS2_PLACEMENT_3D('',#402,#329,#330);
#280=AXIS2_PLACEMENT_3D('',#408,#334,#335);
#281=AXIS2_PLACEMENT_3D('',#410,#336,#337);
#282=AXIS2_PLACEMENT_3D('',#412,#338,#339);
#283=AXIS2_PLACEMENT_3D('',#414,#341,#342);
#284=AXIS2_PLACEMENT_3D('',#420,#346,#347);
#285=AXIS2_PLACEMENT_3D('',#422,#348,#349);
#286=AXIS2_PLACEMENT_3D('',#424,#350,#351);
#287=AXIS2_PLACEMENT_3D('',#426,#353,#354);
#288=AXIS2_PLACEMENT_3D('',#432,#358,#359);
#289=AXIS2_PLACEMENT_3D('',#433,#360,#361);
#290=AXIS2_PLACEMENT_3D('',#434,#362,#363);
#291=AXIS2_PLACEMENT_3D('',#435,#364,#365);
#292=AXIS2_PLACEMENT_3D('',#436,#366,#367);
#293=DIRECTION('axis',(0.,0.,1.));
#294=DIRECTION('refdir',(1.,0.,0.));
#295=DIRECTION('center_axis',(1.,0.,0.));
#296=DIRECTION('ref_axis',(0.,0.,-1.));
#297=DIRECTION('center_axis',(-1.,0.,0.));
#298=DIRECTION('ref_axis',(0.,0.,-1.));
#299=DIRECTION('',(-1.,0.,0.));
#300=DIRECTION('center_axis',(-1.,0.,0.));
#301=DIRECTION('ref_axis',(0.,0.,-1.));
#302=DIRECTION('center_axis',(1.,0.,0.));
#303=DIRECTION('ref_axis',(0.,0.,-1.));
#304=DIRECTION('center_axis',(-1.,0.,0.));
#305=DIRECTION('ref_axis',(0.,0.,-1.));
#306=DIRECTION('',(-1.,0.,0.));
#307=DIRECTION('center_axis',(-1.,0.,0.));
#308=DIRECTION('ref_axis',(0.,0.,-1.));
#309=DIRECTION('center_axis',(1.,0.,0.));
#310=DIRECTION('ref_axis',(0.,0.,-1.));
#311=DIRECTION('center_axis',(-1.,0.,0.));
#312=DIRECTION('ref_axis',(0.,0.,-1.));
#313=DIRECTION('',(-1.,0.,0.));
#314=DIRECTION('center_axis',(-1.,0.,0.));
#315=DIRECTION('ref_axis',(0.,0.,-1.));
#316=DIRECTION('center_axis',(0.,-0.244140625000002,0.969739838938572));
#317=DIRECTION('ref_axis',(0.,-0.969739838938572,-0.244140625000002));
#318=DIRECTION('',(0.,-0.969739838938572,-0.244140625000002));
#319=DIRECTION('',(1.,0.,0.));
#320=DIRECTION('',(0.,-0.969739838938572,-0.244140625000002));
#321=DIRECTION('',(1.,0.,0.));
#322=DIRECTION('center_axis',(1.,0.,0.));
#323=DIRECTION('ref_axis',(0.,0.244140625,-0.969739838938573));
#324=DIRECTION('center_axis',(1.,0.,0.));
#325=DIRECTION('ref_axis',(0.,0.244140625,-0.969739838938573));
#326=DIRECTION('center_axis',(-1.,0.,0.));
#327=DIRECTION('ref_axis',(0.,0.244140625,-0.969739838938573));
#328=DIRECTION('',(1.,0.,0.));
#329=DIRECTION('center_axis',(0.,-1.,0.));
#330=DIRECTION('ref_axis',(0.,0.,-1.));
#331=DIRECTION('',(0.,0.,1.));
#332=DIRECTION('',(0.,0.,-1.));
#333=DIRECTION('',(1.,0.,0.));
#334=DIRECTION('center_axis',(1.,0.,0.));
#335=DIRECTION('ref_axis',(0.,1.,-1.77635683940025E-15));
#336=DIRECTION('center_axis',(1.,0.,0.));
#337=DIRECTION('ref_axis',(0.,1.,-1.77635683940025E-15));
#338=DIRECTION('center_axis',(1.,0.,0.));
#339=DIRECTION('ref_axis',(0.,1.,-1.77635683940025E-15));
#340=DIRECTION('',(1.,0.,0.));
#341=DIRECTION('center_axis',(0.,1.,0.));
#342=DIRECTION('ref_axis',(0.,0.,1.));
#343=DIRECTION('',(0.,0.,-1.));
#344=DIRECTION('',(0.,0.,1.));
#345=DIRECTION('',(1.,0.,0.));
#346=DIRECTION('center_axis',(1.,0.,0.));
#347=DIRECTION('ref_axis',(0.,0.244140625000004,-0.969739838938572));
#348=DIRECTION('center_axis',(1.,0.,0.));
#349=DIRECTION('ref_axis',(0.,0.244140625000004,-0.969739838938572));
#350=DIRECTION('center_axis',(1.,0.,0.));
#351=DIRECTION('ref_axis',(0.,0.244140625000004,-0.969739838938572));
#352=DIRECTION('',(1.,0.,0.));
#353=DIRECTION('center_axis',(0.,0.244140625000002,-0.969739838938572));
#354=DIRECTION('ref_axis',(0.,0.969739838938572,0.244140625000002));
#355=DIRECTION('',(0.,0.969739838938572,0.244140625000002));
#356=DIRECTION('',(0.,0.969739838938572,0.244140625000002));
#357=DIRECTION('',(1.,0.,0.));
#358=DIRECTION('center_axis',(1.,0.,0.));
#359=DIRECTION('ref_axis',(0.,-0.244140625000002,0.969739838938573));
#360=DIRECTION('center_axis',(1.,0.,0.));
#361=DIRECTION('ref_axis',(0.,-0.244140625000002,0.969739838938573));
#362=DIRECTION('center_axis',(1.,0.,0.));
#363=DIRECTION('ref_axis',(0.,-0.244140625000002,0.969739838938573));
#364=DIRECTION('center_axis',(1.,0.,0.));
#365=DIRECTION('ref_axis',(0.,0.,-1.));
#366=DIRECTION('center_axis',(1.,0.,0.));
#367=DIRECTION('ref_axis',(0.,0.,-1.));
#368=CARTESIAN_POINT('',(0.,0.,0.));
#369=CARTESIAN_POINT('Origin',(0.,64.8431855267735,37.115548940985));
#370=CARTESIAN_POINT('',(5.,64.8431855267735,40.115548940985));
#371=CARTESIAN_POINT('Origin',(5.,64.8431855267735,37.115548940985));
#372=CARTESIAN_POINT('',(0.,64.8431855267735,40.115548940985));
#373=CARTESIAN_POINT('',(0.,64.8431855267735,40.115548940985));
#374=CARTESIAN_POINT('Origin',(0.,64.8431855267735,37.115548940985));
#375=CARTESIAN_POINT('Origin',(0.,26.0535919692305,27.3499239409851));
#376=CARTESIAN_POINT('',(5.,26.0535919692305,30.3499239409851));
#377=CARTESIAN_POINT('Origin',(5.,26.0535919692305,27.3499239409851));
#378=CARTESIAN_POINT('',(0.,26.0535919692305,30.3499239409851));
#379=CARTESIAN_POINT('',(0.,26.0535919692305,30.3499239409851));
#380=CARTESIAN_POINT('Origin',(0.,26.0535919692305,27.3499239409851));
#381=CARTESIAN_POINT('Origin',(0.,64.8431855267735,69.115548940985));
#382=CARTESIAN_POINT('',(5.,64.8431855267735,72.115548940985));
#383=CARTESIAN_POINT('Origin',(5.,64.8431855267735,69.115548940985));
#384=CARTESIAN_POINT('',(0.,64.8431855267735,72.115548940985));
#385=CARTESIAN_POINT('',(0.,64.8431855267735,72.115548940985));
#386=CARTESIAN_POINT('Origin',(0.,64.8431855267735,69.115548940985));
#387=CARTESIAN_POINT('Origin',(0.,47.2845917767735,43.0070609923073));
#388=CARTESIAN_POINT('',(0.,47.2845917767735,43.0070609923073));
#389=CARTESIAN_POINT('',(0.,23.6121857192305,37.0473223303707));
#390=CARTESIAN_POINT('',(0.,47.2845917767735,43.0070609923073));
#391=CARTESIAN_POINT('',(5.,23.6121857192305,37.0473223303707));
#392=CARTESIAN_POINT('',(0.,23.6121857192305,37.0473223303707));
#393=CARTESIAN_POINT('',(5.,47.2845917767735,43.0070609923073));
#394=CARTESIAN_POINT('',(5.,47.2845917767735,43.0070609923073));
#395=CARTESIAN_POINT('',(0.,47.2845917767735,43.0070609923073));
#396=CARTESIAN_POINT('Origin',(0.,44.8431855267735,52.704459381693));
#397=CARTESIAN_POINT('',(0.,54.8431855267735,52.704459381693));
#398=CARTESIAN_POINT('Origin',(0.,44.8431855267735,52.704459381693));
#399=CARTESIAN_POINT('',(5.,54.8431855267735,52.704459381693));
#400=CARTESIAN_POINT('Origin',(5.,44.8431855267735,52.704459381693));
#401=CARTESIAN_POINT('',(0.,54.8431855267735,52.704459381693));
#402=CARTESIAN_POINT('Origin',(0.,54.8431855267735,69.115548940985));
#403=CARTESIAN_POINT('',(0.,54.8431855267735,69.115548940985));
#404=CARTESIAN_POINT('',(0.,54.8431855267735,52.704459381693));
#405=CARTESIAN_POINT('',(5.,54.8431855267735,69.115548940985));
#406=CARTESIAN_POINT('',(5.,54.8431855267735,52.704459381693));
#407=CARTESIAN_POINT('',(0.,54.8431855267735,69.115548940985));
#408=CARTESIAN_POINT('Origin',(0.,64.8431855267735,69.1155489409851));
#409=CARTESIAN_POINT('',(0.,74.8431855267735,69.115548940985));
#410=CARTESIAN_POINT('Origin',(0.,64.8431855267735,69.1155489409851));
#411=CARTESIAN_POINT('',(5.,74.8431855267735,69.115548940985));
#412=CARTESIAN_POINT('Origin',(5.,64.8431855267735,69.1155489409851));
#413=CARTESIAN_POINT('',(0.,74.8431855267735,69.115548940985));
#414=CARTESIAN_POINT('Origin',(0.,74.8431855267735,37.1155489409852));
#415=CARTESIAN_POINT('',(0.,74.8431855267735,37.1155489409852));
#416=CARTESIAN_POINT('',(0.,74.8431855267735,69.115548940985));
#417=CARTESIAN_POINT('',(5.,74.8431855267735,37.1155489409852));
#418=CARTESIAN_POINT('',(5.,74.8431855267735,69.115548940985));
#419=CARTESIAN_POINT('',(0.,74.8431855267735,37.1155489409852));
#420=CARTESIAN_POINT('Origin',(0.,64.8431855267735,37.1155489409852));
#421=CARTESIAN_POINT('',(0.,67.2845917767735,27.4181505515995));
#422=CARTESIAN_POINT('Origin',(0.,64.8431855267735,37.1155489409852));
#423=CARTESIAN_POINT('',(5.,67.2845917767735,27.4181505515995));
#424=CARTESIAN_POINT('Origin',(5.,64.8431855267735,37.1155489409852));
#425=CARTESIAN_POINT('',(0.,67.2845917767735,27.4181505515995));
#426=CARTESIAN_POINT('Origin',(0.,28.4949982192305,17.6525255515994));
#427=CARTESIAN_POINT('',(0.,28.4949982192305,17.6525255515994));
#428=CARTESIAN_POINT('',(0.,28.4949982192305,17.6525255515994));
#429=CARTESIAN_POINT('',(5.,28.4949982192305,17.6525255515994));
#430=CARTESIAN_POINT('',(5.,28.4949982192305,17.6525255515994));
#431=CARTESIAN_POINT('',(0.,28.4949982192305,17.6525255515994));
#432=CARTESIAN_POINT('Origin',(0.,26.0535919692305,27.349923940985));
#433=CARTESIAN_POINT('Origin',(0.,26.0535919692305,27.349923940985));
#434=CARTESIAN_POINT('Origin',(5.,26.0535919692305,27.349923940985));
#435=CARTESIAN_POINT('Origin',(5.,45.448388748002,48.2327364409851));
#436=CARTESIAN_POINT('Origin',(0.,45.448388748002,48.2327364409851));
#437=UNCERTAINTY_MEASURE_WITH_UNIT(LENGTH_MEASURE(0.01),#441,
'DISTANCE_ACCURACY_VALUE',
'Maximum model space distance between geometric entities at asserted c
onnectivities');
#438=UNCERTAINTY_MEASURE_WITH_UNIT(LENGTH_MEASURE(0.01),#441,
'DISTANCE_ACCURACY_VALUE',
'Maximum model space distance between geometric entities at asserted c
onnectivities');
#439=(
GEOMETRIC_REPRESENTATION_CONTEXT(3)
GLOBAL_UNCERTAINTY_ASSIGNED_CONTEXT((#437))
GLOBAL_UNIT_ASSIGNED_CONTEXT((#441,#443,#444))
REPRESENTATION_CONTEXT('','3D')
);
#440=(
GEOMETRIC_REPRESENTATION_CONTEXT(3)
GLOBAL_UNCERTAINTY_ASSIGNED_CONTEXT((#438))
GLOBAL_UNIT_ASSIGNED_CONTEXT((#441,#443,#444))
REPRESENTATION_CONTEXT('','3D')
);
#441=(
LENGTH_UNIT()
NAMED_UNIT(*)
SI_UNIT(.MILLI.,.METRE.)
);
#442=(
LENGTH_UNIT()
NAMED_UNIT(*)
SI_UNIT($,.METRE.)
);
#443=(
NAMED_UNIT(*)
PLANE_ANGLE_UNIT()
SI_UNIT($,.RADIAN.)
);
#444=(
NAMED_UNIT(*)
SI_UNIT($,.STERADIAN.)
SOLID_ANGLE_UNIT()
);
#445=SHAPE_DEFINITION_REPRESENTATION(#446,#447);
#446=PRODUCT_DEFINITION_SHAPE('',$,#449);
#447=SHAPE_REPRESENTATION('',(#265),#439);
#448=PRODUCT_DEFINITION_CONTEXT('part definition',#453,'design');
#449=PRODUCT_DEFINITION('patte fixation beringer mc127',
'patte fixation beringer mc127 v1',#450,#448);
#450=PRODUCT_DEFINITION_FORMATION('',$,#455);
#451=PRODUCT_RELATED_PRODUCT_CATEGORY(
'patte fixation beringer mc127 v1','patte fixation beringer mc127 v1',(#455));
#452=APPLICATION_PROTOCOL_DEFINITION('international standard',
'automotive_design',2009,#453);
#453=APPLICATION_CONTEXT(
'Core Data for Automotive Mechanical Design Process');
#454=PRODUCT_CONTEXT('part definition',#453,'mechanical');
#455=PRODUCT('patte fixation beringer mc127',
'patte fixation beringer mc127 v1',$,(#454));
#456=PRESENTATION_STYLE_ASSIGNMENT((#457));
#457=SURFACE_STYLE_USAGE(.BOTH.,#458);
#458=SURFACE_SIDE_STYLE('',(#459));
#459=SURFACE_STYLE_FILL_AREA(#460);
#460=FILL_AREA_STYLE('Steel - Satin',(#461));
#461=FILL_AREA_STYLE_COLOUR('Steel - Satin',#462);
#462=COLOUR_RGB('Steel - Satin',0.627450980392157,0.627450980392157,0.627450980392157);
ENDSEC;
END-ISO-10303-21;
