ISO-10303-21;
HEADER;
/* Generated by software containing ST-Developer
 * from STEP Tools, Inc. (www.steptools.com) 
 */

FILE_DESCRIPTION(
/* description */ (''),
/* implementation_level */ '2;1');

FILE_NAME(
/* name */ 
'C:\\Users\\louis.petitjean\\Desktop\\GSE-1201-000-000-A Thruster Bala
nce\\Storage fixation\\GSE-1201-045-001-A (Road fixation).stp',
/* time_stamp */ '2019-11-25T11:54:07+01:00',
/* author */ ('louis.petitjean'),
/* organization */ ('EXOTRAIL'),
/* preprocessor_version */ 'ST-DEVELOPER v18',
/* originating_system */ 'Autodesk Inventor 2020',
/* authorisation */ '');

FILE_SCHEMA (('AUTOMOTIVE_DESIGN { 1 0 10303 214 3 1 1 }'));
ENDSEC;

DATA;
#10=MECHANICAL_DESIGN_GEOMETRIC_PRESENTATION_REPRESENTATION('',(#13),#485);
#11=SHAPE_REPRESENTATION_RELATIONSHIP('SRR','None',#492,#12);
#12=ADVANCED_BREP_SHAPE_REPRESENTATION('',(#14),#484);
#13=STYLED_ITEM('',(#501),#14);
#14=MANIFOLD_SOLID_BREP('Solide1',#271);
#15=FACE_BOUND('',#56,.T.);
#16=FACE_BOUND('',#57,.T.);
#17=FACE_BOUND('',#59,.T.);
#18=FACE_BOUND('',#60,.T.);
#19=PLANE('',#315);
#20=PLANE('',#316);
#21=PLANE('',#317);
#22=PLANE('',#318);
#23=PLANE('',#319);
#24=PLANE('',#320);
#25=CYLINDRICAL_SURFACE('',#294,1.2295);
#26=CYLINDRICAL_SURFACE('',#300,1.2295);
#27=CYLINDRICAL_SURFACE('',#306,1.2295);
#28=CYLINDRICAL_SURFACE('',#312,1.2295);
#29=FACE_OUTER_BOUND('',#43,.T.);
#30=FACE_OUTER_BOUND('',#44,.T.);
#31=FACE_OUTER_BOUND('',#45,.T.);
#32=FACE_OUTER_BOUND('',#46,.T.);
#33=FACE_OUTER_BOUND('',#47,.T.);
#34=FACE_OUTER_BOUND('',#48,.T.);
#35=FACE_OUTER_BOUND('',#49,.T.);
#36=FACE_OUTER_BOUND('',#50,.T.);
#37=FACE_OUTER_BOUND('',#51,.T.);
#38=FACE_OUTER_BOUND('',#52,.T.);
#39=FACE_OUTER_BOUND('',#53,.T.);
#40=FACE_OUTER_BOUND('',#54,.T.);
#41=FACE_OUTER_BOUND('',#55,.T.);
#42=FACE_OUTER_BOUND('',#58,.T.);
#43=EDGE_LOOP('',(#181,#182,#183,#184));
#44=EDGE_LOOP('',(#185,#186,#187,#188,#189,#190));
#45=EDGE_LOOP('',(#191,#192,#193,#194));
#46=EDGE_LOOP('',(#195,#196,#197,#198,#199,#200));
#47=EDGE_LOOP('',(#201,#202,#203,#204));
#48=EDGE_LOOP('',(#205,#206,#207,#208,#209,#210));
#49=EDGE_LOOP('',(#211,#212,#213,#214));
#50=EDGE_LOOP('',(#215,#216,#217,#218,#219,#220));
#51=EDGE_LOOP('',(#221,#222,#223,#224));
#52=EDGE_LOOP('',(#225,#226,#227,#228));
#53=EDGE_LOOP('',(#229,#230,#231,#232));
#54=EDGE_LOOP('',(#233,#234,#235,#236));
#55=EDGE_LOOP('',(#237,#238,#239,#240));
#56=EDGE_LOOP('',(#241,#242));
#57=EDGE_LOOP('',(#243,#244));
#58=EDGE_LOOP('',(#245,#246,#247,#248));
#59=EDGE_LOOP('',(#249,#250));
#60=EDGE_LOOP('',(#251,#252));
#61=LINE('',#409,#81);
#62=LINE('',#416,#82);
#63=LINE('',#422,#83);
#64=LINE('',#429,#84);
#65=LINE('',#435,#85);
#66=LINE('',#442,#86);
#67=LINE('',#448,#87);
#68=LINE('',#455,#88);
#69=LINE('',#459,#89);
#70=LINE('',#461,#90);
#71=LINE('',#463,#91);
#72=LINE('',#464,#92);
#73=LINE('',#467,#93);
#74=LINE('',#469,#94);
#75=LINE('',#470,#95);
#76=LINE('',#473,#96);
#77=LINE('',#475,#97);
#78=LINE('',#476,#98);
#79=LINE('',#478,#99);
#80=LINE('',#479,#100);
#81=VECTOR('',#327,0.61475);
#82=VECTOR('',#336,1.2295);
#83=VECTOR('',#341,0.61475);
#84=VECTOR('',#350,1.2295);
#85=VECTOR('',#355,0.61475);
#86=VECTOR('',#364,1.2295);
#87=VECTOR('',#369,0.61475);
#88=VECTOR('',#378,1.2295);
#89=VECTOR('',#381,10.);
#90=VECTOR('',#382,10.);
#91=VECTOR('',#383,10.);
#92=VECTOR('',#384,10.);
#93=VECTOR('',#387,10.);
#94=VECTOR('',#388,10.);
#95=VECTOR('',#389,10.);
#96=VECTOR('',#392,10.);
#97=VECTOR('',#393,10.);
#98=VECTOR('',#394,10.);
#99=VECTOR('',#397,10.);
#100=VECTOR('',#398,10.);
#101=CIRCLE('',#292,1.2295);
#102=CIRCLE('',#293,1.2295);
#103=CIRCLE('',#295,1.2295);
#104=CIRCLE('',#296,1.2295);
#105=CIRCLE('',#298,1.2295);
#106=CIRCLE('',#299,1.2295);
#107=CIRCLE('',#301,1.2295);
#108=CIRCLE('',#302,1.2295);
#109=CIRCLE('',#304,1.2295);
#110=CIRCLE('',#305,1.2295);
#111=CIRCLE('',#307,1.2295);
#112=CIRCLE('',#308,1.2295);
#113=CIRCLE('',#310,1.2295);
#114=CIRCLE('',#311,1.2295);
#115=CIRCLE('',#313,1.2295);
#116=CIRCLE('',#314,1.2295);
#117=VERTEX_POINT('',#405);
#118=VERTEX_POINT('',#406);
#119=VERTEX_POINT('',#408);
#120=VERTEX_POINT('',#412);
#121=VERTEX_POINT('',#413);
#122=VERTEX_POINT('',#418);
#123=VERTEX_POINT('',#419);
#124=VERTEX_POINT('',#421);
#125=VERTEX_POINT('',#425);
#126=VERTEX_POINT('',#426);
#127=VERTEX_POINT('',#431);
#128=VERTEX_POINT('',#432);
#129=VERTEX_POINT('',#434);
#130=VERTEX_POINT('',#438);
#131=VERTEX_POINT('',#439);
#132=VERTEX_POINT('',#444);
#133=VERTEX_POINT('',#445);
#134=VERTEX_POINT('',#447);
#135=VERTEX_POINT('',#451);
#136=VERTEX_POINT('',#452);
#137=VERTEX_POINT('',#457);
#138=VERTEX_POINT('',#458);
#139=VERTEX_POINT('',#460);
#140=VERTEX_POINT('',#462);
#141=VERTEX_POINT('',#466);
#142=VERTEX_POINT('',#468);
#143=VERTEX_POINT('',#472);
#144=VERTEX_POINT('',#474);
#145=EDGE_CURVE('',#117,#118,#101,.T.);
#146=EDGE_CURVE('',#118,#119,#61,.T.);
#147=EDGE_CURVE('',#118,#117,#102,.T.);
#148=EDGE_CURVE('',#120,#121,#103,.T.);
#149=EDGE_CURVE('',#121,#120,#104,.T.);
#150=EDGE_CURVE('',#121,#118,#62,.T.);
#151=EDGE_CURVE('',#122,#123,#105,.T.);
#152=EDGE_CURVE('',#123,#124,#63,.T.);
#153=EDGE_CURVE('',#123,#122,#106,.T.);
#154=EDGE_CURVE('',#125,#126,#107,.T.);
#155=EDGE_CURVE('',#126,#125,#108,.T.);
#156=EDGE_CURVE('',#126,#123,#64,.T.);
#157=EDGE_CURVE('',#127,#128,#109,.T.);
#158=EDGE_CURVE('',#128,#129,#65,.T.);
#159=EDGE_CURVE('',#128,#127,#110,.T.);
#160=EDGE_CURVE('',#130,#131,#111,.T.);
#161=EDGE_CURVE('',#131,#130,#112,.T.);
#162=EDGE_CURVE('',#131,#128,#66,.T.);
#163=EDGE_CURVE('',#132,#133,#113,.T.);
#164=EDGE_CURVE('',#133,#134,#67,.T.);
#165=EDGE_CURVE('',#133,#132,#114,.T.);
#166=EDGE_CURVE('',#135,#136,#115,.T.);
#167=EDGE_CURVE('',#136,#135,#116,.T.);
#168=EDGE_CURVE('',#136,#133,#68,.T.);
#169=EDGE_CURVE('',#137,#138,#69,.T.);
#170=EDGE_CURVE('',#138,#139,#70,.T.);
#171=EDGE_CURVE('',#140,#139,#71,.T.);
#172=EDGE_CURVE('',#137,#140,#72,.T.);
#173=EDGE_CURVE('',#141,#137,#73,.T.);
#174=EDGE_CURVE('',#142,#140,#74,.T.);
#175=EDGE_CURVE('',#141,#142,#75,.T.);
#176=EDGE_CURVE('',#143,#141,#76,.T.);
#177=EDGE_CURVE('',#144,#142,#77,.T.);
#178=EDGE_CURVE('',#143,#144,#78,.T.);
#179=EDGE_CURVE('',#138,#143,#79,.T.);
#180=EDGE_CURVE('',#139,#144,#80,.T.);
#181=ORIENTED_EDGE('',*,*,#145,.T.);
#182=ORIENTED_EDGE('',*,*,#146,.T.);
#183=ORIENTED_EDGE('',*,*,#146,.F.);
#184=ORIENTED_EDGE('',*,*,#147,.T.);
#185=ORIENTED_EDGE('',*,*,#148,.F.);
#186=ORIENTED_EDGE('',*,*,#149,.F.);
#187=ORIENTED_EDGE('',*,*,#150,.T.);
#188=ORIENTED_EDGE('',*,*,#145,.F.);
#189=ORIENTED_EDGE('',*,*,#147,.F.);
#190=ORIENTED_EDGE('',*,*,#150,.F.);
#191=ORIENTED_EDGE('',*,*,#151,.T.);
#192=ORIENTED_EDGE('',*,*,#152,.T.);
#193=ORIENTED_EDGE('',*,*,#152,.F.);
#194=ORIENTED_EDGE('',*,*,#153,.T.);
#195=ORIENTED_EDGE('',*,*,#154,.F.);
#196=ORIENTED_EDGE('',*,*,#155,.F.);
#197=ORIENTED_EDGE('',*,*,#156,.T.);
#198=ORIENTED_EDGE('',*,*,#151,.F.);
#199=ORIENTED_EDGE('',*,*,#153,.F.);
#200=ORIENTED_EDGE('',*,*,#156,.F.);
#201=ORIENTED_EDGE('',*,*,#157,.T.);
#202=ORIENTED_EDGE('',*,*,#158,.T.);
#203=ORIENTED_EDGE('',*,*,#158,.F.);
#204=ORIENTED_EDGE('',*,*,#159,.T.);
#205=ORIENTED_EDGE('',*,*,#160,.F.);
#206=ORIENTED_EDGE('',*,*,#161,.F.);
#207=ORIENTED_EDGE('',*,*,#162,.T.);
#208=ORIENTED_EDGE('',*,*,#157,.F.);
#209=ORIENTED_EDGE('',*,*,#159,.F.);
#210=ORIENTED_EDGE('',*,*,#162,.F.);
#211=ORIENTED_EDGE('',*,*,#163,.T.);
#212=ORIENTED_EDGE('',*,*,#164,.T.);
#213=ORIENTED_EDGE('',*,*,#164,.F.);
#214=ORIENTED_EDGE('',*,*,#165,.T.);
#215=ORIENTED_EDGE('',*,*,#166,.F.);
#216=ORIENTED_EDGE('',*,*,#167,.F.);
#217=ORIENTED_EDGE('',*,*,#168,.T.);
#218=ORIENTED_EDGE('',*,*,#163,.F.);
#219=ORIENTED_EDGE('',*,*,#165,.F.);
#220=ORIENTED_EDGE('',*,*,#168,.F.);
#221=ORIENTED_EDGE('',*,*,#169,.T.);
#222=ORIENTED_EDGE('',*,*,#170,.T.);
#223=ORIENTED_EDGE('',*,*,#171,.F.);
#224=ORIENTED_EDGE('',*,*,#172,.F.);
#225=ORIENTED_EDGE('',*,*,#173,.T.);
#226=ORIENTED_EDGE('',*,*,#172,.T.);
#227=ORIENTED_EDGE('',*,*,#174,.F.);
#228=ORIENTED_EDGE('',*,*,#175,.F.);
#229=ORIENTED_EDGE('',*,*,#176,.T.);
#230=ORIENTED_EDGE('',*,*,#175,.T.);
#231=ORIENTED_EDGE('',*,*,#177,.F.);
#232=ORIENTED_EDGE('',*,*,#178,.F.);
#233=ORIENTED_EDGE('',*,*,#179,.T.);
#234=ORIENTED_EDGE('',*,*,#178,.T.);
#235=ORIENTED_EDGE('',*,*,#180,.F.);
#236=ORIENTED_EDGE('',*,*,#170,.F.);
#237=ORIENTED_EDGE('',*,*,#180,.T.);
#238=ORIENTED_EDGE('',*,*,#177,.T.);
#239=ORIENTED_EDGE('',*,*,#174,.T.);
#240=ORIENTED_EDGE('',*,*,#171,.T.);
#241=ORIENTED_EDGE('',*,*,#154,.T.);
#242=ORIENTED_EDGE('',*,*,#155,.T.);
#243=ORIENTED_EDGE('',*,*,#160,.T.);
#244=ORIENTED_EDGE('',*,*,#161,.T.);
#245=ORIENTED_EDGE('',*,*,#179,.F.);
#246=ORIENTED_EDGE('',*,*,#169,.F.);
#247=ORIENTED_EDGE('',*,*,#173,.F.);
#248=ORIENTED_EDGE('',*,*,#176,.F.);
#249=ORIENTED_EDGE('',*,*,#148,.T.);
#250=ORIENTED_EDGE('',*,*,#149,.T.);
#251=ORIENTED_EDGE('',*,*,#166,.T.);
#252=ORIENTED_EDGE('',*,*,#167,.T.);
#253=CONICAL_SURFACE('',#291,0.61475,1.02974425867665);
#254=CONICAL_SURFACE('',#297,0.61475,1.02974425867665);
#255=CONICAL_SURFACE('',#303,0.61475,1.02974425867665);
#256=CONICAL_SURFACE('',#309,0.61475,1.02974425867665);
#257=ADVANCED_FACE('',(#29),#253,.F.);
#258=ADVANCED_FACE('',(#30),#25,.F.);
#259=ADVANCED_FACE('',(#31),#254,.F.);
#260=ADVANCED_FACE('',(#32),#26,.F.);
#261=ADVANCED_FACE('',(#33),#255,.F.);
#262=ADVANCED_FACE('',(#34),#27,.F.);
#263=ADVANCED_FACE('',(#35),#256,.F.);
#264=ADVANCED_FACE('',(#36),#28,.F.);
#265=ADVANCED_FACE('',(#37),#19,.T.);
#266=ADVANCED_FACE('',(#38),#20,.T.);
#267=ADVANCED_FACE('',(#39),#21,.T.);
#268=ADVANCED_FACE('',(#40),#22,.T.);
#269=ADVANCED_FACE('',(#41,#15,#16),#23,.T.);
#270=ADVANCED_FACE('',(#42,#17,#18),#24,.F.);
#271=CLOSED_SHELL('',(#257,#258,#259,#260,#261,#262,#263,#264,#265,#266,
#267,#268,#269,#270));
#272=DERIVED_UNIT_ELEMENT(#274,1.);
#273=DERIVED_UNIT_ELEMENT(#487,3.);
#274=(
MASS_UNIT()
NAMED_UNIT(*)
SI_UNIT($,.GRAM.)
);
#275=DERIVED_UNIT((#272,#273));
#276=MEASURE_REPRESENTATION_ITEM('density measure',
POSITIVE_RATIO_MEASURE(8.),#275);
#277=PROPERTY_DEFINITION_REPRESENTATION(#282,#279);
#278=PROPERTY_DEFINITION_REPRESENTATION(#283,#280);
#279=REPRESENTATION('material name',(#281),#484);
#280=REPRESENTATION('density',(#276),#484);
#281=DESCRIPTIVE_REPRESENTATION_ITEM('Acier inoxydable',
'Acier inoxydable');
#282=PROPERTY_DEFINITION('material property','material name',#494);
#283=PROPERTY_DEFINITION('material property','density of part',#494);
#284=DATE_TIME_ROLE('creation_date');
#285=APPLIED_DATE_AND_TIME_ASSIGNMENT(#286,#284,(#494));
#286=DATE_AND_TIME(#287,#288);
#287=CALENDAR_DATE(2019,22,11);
#288=LOCAL_TIME(11,17,31.,#289);
#289=COORDINATED_UNIVERSAL_TIME_OFFSET(0,0,.BEHIND.);
#290=AXIS2_PLACEMENT_3D('placement',#403,#321,#322);
#291=AXIS2_PLACEMENT_3D('',#404,#323,#324);
#292=AXIS2_PLACEMENT_3D('',#407,#325,#326);
#293=AXIS2_PLACEMENT_3D('',#410,#328,#329);
#294=AXIS2_PLACEMENT_3D('',#411,#330,#331);
#295=AXIS2_PLACEMENT_3D('',#414,#332,#333);
#296=AXIS2_PLACEMENT_3D('',#415,#334,#335);
#297=AXIS2_PLACEMENT_3D('',#417,#337,#338);
#298=AXIS2_PLACEMENT_3D('',#420,#339,#340);
#299=AXIS2_PLACEMENT_3D('',#423,#342,#343);
#300=AXIS2_PLACEMENT_3D('',#424,#344,#345);
#301=AXIS2_PLACEMENT_3D('',#427,#346,#347);
#302=AXIS2_PLACEMENT_3D('',#428,#348,#349);
#303=AXIS2_PLACEMENT_3D('',#430,#351,#352);
#304=AXIS2_PLACEMENT_3D('',#433,#353,#354);
#305=AXIS2_PLACEMENT_3D('',#436,#356,#357);
#306=AXIS2_PLACEMENT_3D('',#437,#358,#359);
#307=AXIS2_PLACEMENT_3D('',#440,#360,#361);
#308=AXIS2_PLACEMENT_3D('',#441,#362,#363);
#309=AXIS2_PLACEMENT_3D('',#443,#365,#366);
#310=AXIS2_PLACEMENT_3D('',#446,#367,#368);
#311=AXIS2_PLACEMENT_3D('',#449,#370,#371);
#312=AXIS2_PLACEMENT_3D('',#450,#372,#373);
#313=AXIS2_PLACEMENT_3D('',#453,#374,#375);
#314=AXIS2_PLACEMENT_3D('',#454,#376,#377);
#315=AXIS2_PLACEMENT_3D('',#456,#379,#380);
#316=AXIS2_PLACEMENT_3D('',#465,#385,#386);
#317=AXIS2_PLACEMENT_3D('',#471,#390,#391);
#318=AXIS2_PLACEMENT_3D('',#477,#395,#396);
#319=AXIS2_PLACEMENT_3D('',#480,#399,#400);
#320=AXIS2_PLACEMENT_3D('',#481,#401,#402);
#321=DIRECTION('axis',(0.,0.,1.));
#322=DIRECTION('refdir',(1.,0.,0.));
#323=DIRECTION('center_axis',(-1.,0.,0.));
#324=DIRECTION('ref_axis',(0.,0.,1.));
#325=DIRECTION('center_axis',(-1.,0.,0.));
#326=DIRECTION('ref_axis',(0.,0.,1.));
#327=DIRECTION('',(0.515038074910054,1.04972719113862E-16,0.857167300702112));
#328=DIRECTION('center_axis',(-1.,0.,0.));
#329=DIRECTION('ref_axis',(0.,0.,1.));
#330=DIRECTION('center_axis',(-1.,0.,0.));
#331=DIRECTION('ref_axis',(0.,0.,1.));
#332=DIRECTION('center_axis',(1.,0.,0.));
#333=DIRECTION('ref_axis',(0.,0.,1.));
#334=DIRECTION('center_axis',(1.,0.,0.));
#335=DIRECTION('ref_axis',(0.,0.,1.));
#336=DIRECTION('',(1.,0.,0.));
#337=DIRECTION('center_axis',(1.,0.,0.));
#338=DIRECTION('ref_axis',(0.,0.,-1.));
#339=DIRECTION('center_axis',(1.,0.,0.));
#340=DIRECTION('ref_axis',(0.,0.,-1.));
#341=DIRECTION('',(-0.515038074910054,1.04972719113862E-16,-0.857167300702112));
#342=DIRECTION('center_axis',(1.,0.,0.));
#343=DIRECTION('ref_axis',(0.,0.,-1.));
#344=DIRECTION('center_axis',(1.,0.,0.));
#345=DIRECTION('ref_axis',(0.,0.,-1.));
#346=DIRECTION('center_axis',(-1.,0.,0.));
#347=DIRECTION('ref_axis',(0.,0.,-1.));
#348=DIRECTION('center_axis',(-1.,0.,0.));
#349=DIRECTION('ref_axis',(0.,0.,-1.));
#350=DIRECTION('',(-1.,0.,0.));
#351=DIRECTION('center_axis',(1.,0.,0.));
#352=DIRECTION('ref_axis',(0.,0.,-1.));
#353=DIRECTION('center_axis',(1.,0.,0.));
#354=DIRECTION('ref_axis',(0.,0.,-1.));
#355=DIRECTION('',(-0.515038074910054,1.04972719113862E-16,-0.857167300702112));
#356=DIRECTION('center_axis',(1.,0.,0.));
#357=DIRECTION('ref_axis',(0.,0.,-1.));
#358=DIRECTION('center_axis',(1.,0.,0.));
#359=DIRECTION('ref_axis',(0.,0.,-1.));
#360=DIRECTION('center_axis',(-1.,0.,0.));
#361=DIRECTION('ref_axis',(0.,0.,-1.));
#362=DIRECTION('center_axis',(-1.,0.,0.));
#363=DIRECTION('ref_axis',(0.,0.,-1.));
#364=DIRECTION('',(-1.,0.,0.));
#365=DIRECTION('center_axis',(-1.,0.,0.));
#366=DIRECTION('ref_axis',(0.,0.,1.));
#367=DIRECTION('center_axis',(-1.,0.,0.));
#368=DIRECTION('ref_axis',(0.,0.,1.));
#369=DIRECTION('',(0.515038074910054,1.04972719113862E-16,0.857167300702112));
#370=DIRECTION('center_axis',(-1.,0.,0.));
#371=DIRECTION('ref_axis',(0.,0.,1.));
#372=DIRECTION('center_axis',(-1.,0.,0.));
#373=DIRECTION('ref_axis',(0.,0.,1.));
#374=DIRECTION('center_axis',(1.,0.,0.));
#375=DIRECTION('ref_axis',(0.,0.,1.));
#376=DIRECTION('center_axis',(1.,0.,0.));
#377=DIRECTION('ref_axis',(0.,0.,1.));
#378=DIRECTION('',(1.,0.,0.));
#379=DIRECTION('center_axis',(0.,2.22044604925031E-16,-1.));
#380=DIRECTION('ref_axis',(0.,1.,2.22044604925031E-16));
#381=DIRECTION('',(0.,1.,2.22044604925031E-16));
#382=DIRECTION('',(1.,0.,0.));
#383=DIRECTION('',(0.,1.,2.22044604925031E-16));
#384=DIRECTION('',(1.,0.,0.));
#385=DIRECTION('center_axis',(0.,-1.,-1.83697019872103E-16));
#386=DIRECTION('ref_axis',(0.,1.83697019872103E-16,-1.));
#387=DIRECTION('',(0.,1.83697019872103E-16,-1.));
#388=DIRECTION('',(0.,1.83697019872103E-16,-1.));
#389=DIRECTION('',(1.,0.,0.));
#390=DIRECTION('center_axis',(0.,3.86797980653364E-33,1.));
#391=DIRECTION('ref_axis',(0.,-1.,3.86797980653364E-33));
#392=DIRECTION('',(0.,-1.,3.86797980653364E-33));
#393=DIRECTION('',(0.,-1.,3.86797980653364E-33));
#394=DIRECTION('',(1.,0.,0.));
#395=DIRECTION('center_axis',(0.,1.,-6.83214169000097E-16));
#396=DIRECTION('ref_axis',(0.,6.83214169000097E-16,1.));
#397=DIRECTION('',(0.,6.83214169000097E-16,1.));
#398=DIRECTION('',(0.,6.83214169000097E-16,1.));
#399=DIRECTION('center_axis',(1.,0.,0.));
#400=DIRECTION('ref_axis',(0.,0.,-1.));
#401=DIRECTION('center_axis',(1.,0.,0.));
#402=DIRECTION('ref_axis',(0.,0.,-1.));
#403=CARTESIAN_POINT('',(0.,0.,0.));
#404=CARTESIAN_POINT('Origin',(9.16937906554719,15.,-6.50000000000001));
#405=CARTESIAN_POINT('',(8.8,15.,-5.27050000000001));
#406=CARTESIAN_POINT('',(8.8,15.,-7.72950000000001));
#407=CARTESIAN_POINT('Origin',(8.8,15.,-6.50000000000001));
#408=CARTESIAN_POINT('',(9.53875813109439,15.,-6.50000000000001));
#409=CARTESIAN_POINT('',(9.16937906554719,15.,-7.11475000000001));
#410=CARTESIAN_POINT('Origin',(8.8,15.,-6.50000000000001));
#411=CARTESIAN_POINT('Origin',(4.4,15.,-6.50000000000001));
#412=CARTESIAN_POINT('',(0.,15.,-5.27050000000001));
#413=CARTESIAN_POINT('',(0.,15.,-7.72950000000001));
#414=CARTESIAN_POINT('Origin',(0.,15.,-6.50000000000001));
#415=CARTESIAN_POINT('Origin',(0.,15.,-6.50000000000001));
#416=CARTESIAN_POINT('',(4.4,15.,-7.72950000000001));
#417=CARTESIAN_POINT('Origin',(125.830620934453,5.,-6.5));
#418=CARTESIAN_POINT('',(126.2,5.,-7.7295));
#419=CARTESIAN_POINT('',(126.2,5.,-5.2705));
#420=CARTESIAN_POINT('Origin',(126.2,5.,-6.5));
#421=CARTESIAN_POINT('',(125.461241868906,5.,-6.5));
#422=CARTESIAN_POINT('',(125.830620934453,5.,-5.88525));
#423=CARTESIAN_POINT('Origin',(126.2,5.,-6.5));
#424=CARTESIAN_POINT('Origin',(130.6,5.,-6.5));
#425=CARTESIAN_POINT('',(135.,5.,-7.7295));
#426=CARTESIAN_POINT('',(135.,5.,-5.2705));
#427=CARTESIAN_POINT('Origin',(135.,5.,-6.5));
#428=CARTESIAN_POINT('Origin',(135.,5.,-6.5));
#429=CARTESIAN_POINT('',(130.6,5.,-5.2705));
#430=CARTESIAN_POINT('Origin',(125.830620934453,15.,-6.5));
#431=CARTESIAN_POINT('',(126.2,15.,-7.7295));
#432=CARTESIAN_POINT('',(126.2,15.,-5.2705));
#433=CARTESIAN_POINT('Origin',(126.2,15.,-6.5));
#434=CARTESIAN_POINT('',(125.461241868906,15.,-6.5));
#435=CARTESIAN_POINT('',(125.830620934453,15.,-5.88525));
#436=CARTESIAN_POINT('Origin',(126.2,15.,-6.5));
#437=CARTESIAN_POINT('Origin',(130.6,15.,-6.5));
#438=CARTESIAN_POINT('',(135.,15.,-7.7295));
#439=CARTESIAN_POINT('',(135.,15.,-5.2705));
#440=CARTESIAN_POINT('Origin',(135.,15.,-6.5));
#441=CARTESIAN_POINT('Origin',(135.,15.,-6.5));
#442=CARTESIAN_POINT('',(130.6,15.,-5.2705));
#443=CARTESIAN_POINT('Origin',(9.16937906554719,5.,-6.5));
#444=CARTESIAN_POINT('',(8.8,5.,-5.2705));
#445=CARTESIAN_POINT('',(8.8,5.,-7.7295));
#446=CARTESIAN_POINT('Origin',(8.8,5.,-6.5));
#447=CARTESIAN_POINT('',(9.53875813109439,5.,-6.5));
#448=CARTESIAN_POINT('',(9.16937906554719,5.,-7.11475));
#449=CARTESIAN_POINT('Origin',(8.8,5.,-6.5));
#450=CARTESIAN_POINT('Origin',(4.4,5.,-6.5));
#451=CARTESIAN_POINT('',(0.,5.,-5.2705));
#452=CARTESIAN_POINT('',(0.,5.,-7.7295));
#453=CARTESIAN_POINT('Origin',(0.,5.,-6.5));
#454=CARTESIAN_POINT('Origin',(0.,5.,-6.5));
#455=CARTESIAN_POINT('',(4.4,5.,-7.7295));
#456=CARTESIAN_POINT('Origin',(0.,2.38806125833734E-15,-13.));
#457=CARTESIAN_POINT('',(0.,2.38806125833734E-15,-13.));
#458=CARTESIAN_POINT('',(0.,20.,-13.));
#459=CARTESIAN_POINT('',(0.,2.22044604925031E-15,-13.));
#460=CARTESIAN_POINT('',(135.,20.,-13.));
#461=CARTESIAN_POINT('',(0.,20.,-13.));
#462=CARTESIAN_POINT('',(135.,2.22044604925031E-15,-13.));
#463=CARTESIAN_POINT('',(135.,2.22044604925031E-15,-13.));
#464=CARTESIAN_POINT('',(0.,2.38806125833734E-15,-13.));
#465=CARTESIAN_POINT('Origin',(0.,0.,0.));
#466=CARTESIAN_POINT('',(0.,0.,0.));
#467=CARTESIAN_POINT('',(0.,0.,0.));
#468=CARTESIAN_POINT('',(135.,0.,0.));
#469=CARTESIAN_POINT('',(135.,0.,0.));
#470=CARTESIAN_POINT('',(0.,0.,0.));
#471=CARTESIAN_POINT('Origin',(0.,20.,-7.73595961306729E-32));
#472=CARTESIAN_POINT('',(0.,20.,-7.73595961306729E-32));
#473=CARTESIAN_POINT('',(0.,20.,-7.73595961306729E-32));
#474=CARTESIAN_POINT('',(135.,20.,0.));
#475=CARTESIAN_POINT('',(135.,20.,-7.73595961306729E-32));
#476=CARTESIAN_POINT('',(0.,20.,-7.73595961306729E-32));
#477=CARTESIAN_POINT('Origin',(0.,20.,-13.));
#478=CARTESIAN_POINT('',(0.,20.,-13.));
#479=CARTESIAN_POINT('',(135.,20.,-13.));
#480=CARTESIAN_POINT('Origin',(135.,10.,-6.5));
#481=CARTESIAN_POINT('Origin',(0.,10.,-6.5));
#482=UNCERTAINTY_MEASURE_WITH_UNIT(LENGTH_MEASURE(0.01),#486,
'DISTANCE_ACCURACY_VALUE',
'Maximum model space distance between geometric entities at asserted c
onnectivities');
#483=UNCERTAINTY_MEASURE_WITH_UNIT(LENGTH_MEASURE(0.01),#486,
'DISTANCE_ACCURACY_VALUE',
'Maximum model space distance between geometric entities at asserted c
onnectivities');
#484=(
GEOMETRIC_REPRESENTATION_CONTEXT(3)
GLOBAL_UNCERTAINTY_ASSIGNED_CONTEXT((#482))
GLOBAL_UNIT_ASSIGNED_CONTEXT((#486,#488,#489))
REPRESENTATION_CONTEXT('','3D')
);
#485=(
GEOMETRIC_REPRESENTATION_CONTEXT(3)
GLOBAL_UNCERTAINTY_ASSIGNED_CONTEXT((#483))
GLOBAL_UNIT_ASSIGNED_CONTEXT((#486,#488,#489))
REPRESENTATION_CONTEXT('','3D')
);
#486=(
LENGTH_UNIT()
NAMED_UNIT(*)
SI_UNIT(.MILLI.,.METRE.)
);
#487=(
LENGTH_UNIT()
NAMED_UNIT(*)
SI_UNIT(.CENTI.,.METRE.)
);
#488=(
NAMED_UNIT(*)
PLANE_ANGLE_UNIT()
SI_UNIT($,.RADIAN.)
);
#489=(
NAMED_UNIT(*)
SI_UNIT($,.STERADIAN.)
SOLID_ANGLE_UNIT()
);
#490=SHAPE_DEFINITION_REPRESENTATION(#491,#492);
#491=PRODUCT_DEFINITION_SHAPE('',$,#494);
#492=SHAPE_REPRESENTATION('',(#290),#484);
#493=PRODUCT_DEFINITION_CONTEXT('part definition',#498,'design');
#494=PRODUCT_DEFINITION('GSE-1201-045-001-A',
'GSE-1201-045-001-A (Road fixation)',#495,#493);
#495=PRODUCT_DEFINITION_FORMATION('A',$,#500);
#496=PRODUCT_RELATED_PRODUCT_CATEGORY(
'GSE-1201-045-001-A (Road fixation)',
'GSE-1201-045-001-A (Road fixation)',(#500));
#497=APPLICATION_PROTOCOL_DEFINITION('international standard',
'automotive_design',2009,#498);
#498=APPLICATION_CONTEXT(
'Core Data for Automotive Mechanical Design Process');
#499=PRODUCT_CONTEXT('part definition',#498,'mechanical');
#500=PRODUCT('GSE-1201-045-001-A','GSE-1201-045-001-A (Road fixation)',
$,(#499));
#501=PRESENTATION_STYLE_ASSIGNMENT((#502));
#502=SURFACE_STYLE_USAGE(.BOTH.,#505);
#503=SURFACE_STYLE_RENDERING_WITH_PROPERTIES($,#509,(#504));
#504=SURFACE_STYLE_TRANSPARENT(0.);
#505=SURFACE_SIDE_STYLE('',(#506,#503));
#506=SURFACE_STYLE_FILL_AREA(#507);
#507=FILL_AREA_STYLE('',(#508));
#508=FILL_AREA_STYLE_COLOUR('',#509);
#509=COLOUR_RGB('',0.745098039215686,0.737254901960784,0.729411764705882);
ENDSEC;
END-ISO-10303-21;
