ISO-10303-21;
HEADER;
/* Generated by software containing ST-Developer
 * from STEP Tools, Inc. (www.steptools.com) 
 */

FILE_DESCRIPTION(
/* description */ (''),
/* implementation_level */ '2;1');

FILE_NAME(
/* name */ 
'C:\\Users\\louis.petitjean\\Desktop\\GSE-1201-000-000-A Thruster Bala
nce\\Storage fixation\\GSE-1201-047-001-A (Screw plate).stp',
/* time_stamp */ '2019-11-25T11:53:53+01:00',
/* author */ ('louis.petitjean'),
/* organization */ ('EXOTRAIL'),
/* preprocessor_version */ 'ST-DEVELOPER v18',
/* originating_system */ 'Autodesk Inventor 2020',
/* authorisation */ '');

FILE_SCHEMA (('AUTOMOTIVE_DESIGN { 1 0 10303 214 3 1 1 }'));
ENDSEC;

DATA;
#10=MECHANICAL_DESIGN_GEOMETRIC_PRESENTATION_REPRESENTATION('',(#13),#336);
#11=SHAPE_REPRESENTATION_RELATIONSHIP('SRR','None',#343,#12);
#12=ADVANCED_BREP_SHAPE_REPRESENTATION('',(#14),#335);
#13=STYLED_ITEM('',(#352),#14);
#14=MANIFOLD_SOLID_BREP('Solide1',#191);
#15=FACE_BOUND('',#44,.T.);
#16=FACE_BOUND('',#45,.T.);
#17=FACE_BOUND('',#46,.T.);
#18=FACE_BOUND('',#48,.T.);
#19=FACE_BOUND('',#49,.T.);
#20=FACE_BOUND('',#50,.T.);
#21=PLANE('',#223);
#22=PLANE('',#224);
#23=PLANE('',#225);
#24=PLANE('',#226);
#25=PLANE('',#227);
#26=PLANE('',#228);
#27=FACE_OUTER_BOUND('',#36,.T.);
#28=FACE_OUTER_BOUND('',#37,.T.);
#29=FACE_OUTER_BOUND('',#38,.T.);
#30=FACE_OUTER_BOUND('',#39,.T.);
#31=FACE_OUTER_BOUND('',#40,.T.);
#32=FACE_OUTER_BOUND('',#41,.T.);
#33=FACE_OUTER_BOUND('',#42,.T.);
#34=FACE_OUTER_BOUND('',#43,.T.);
#35=FACE_OUTER_BOUND('',#47,.T.);
#36=EDGE_LOOP('',(#131,#132,#133,#134,#135));
#37=EDGE_LOOP('',(#136,#137,#138,#139,#140));
#38=EDGE_LOOP('',(#141,#142,#143,#144,#145));
#39=EDGE_LOOP('',(#146,#147,#148,#149));
#40=EDGE_LOOP('',(#150,#151,#152,#153));
#41=EDGE_LOOP('',(#154,#155,#156,#157));
#42=EDGE_LOOP('',(#158,#159,#160,#161));
#43=EDGE_LOOP('',(#162,#163,#164,#165));
#44=EDGE_LOOP('',(#166,#167));
#45=EDGE_LOOP('',(#168,#169));
#46=EDGE_LOOP('',(#170,#171));
#47=EDGE_LOOP('',(#172,#173,#174,#175));
#48=EDGE_LOOP('',(#176));
#49=EDGE_LOOP('',(#177));
#50=EDGE_LOOP('',(#178));
#51=LINE('',#289,#66);
#52=LINE('',#297,#67);
#53=LINE('',#305,#68);
#54=LINE('',#310,#69);
#55=LINE('',#312,#70);
#56=LINE('',#314,#71);
#57=LINE('',#315,#72);
#58=LINE('',#318,#73);
#59=LINE('',#320,#74);
#60=LINE('',#321,#75);
#61=LINE('',#324,#76);
#62=LINE('',#326,#77);
#63=LINE('',#327,#78);
#64=LINE('',#329,#79);
#65=LINE('',#330,#80);
#66=VECTOR('',#237,1.2295);
#67=VECTOR('',#246,1.7);
#68=VECTOR('',#255,1.7);
#69=VECTOR('',#260,10.);
#70=VECTOR('',#261,10.);
#71=VECTOR('',#262,10.);
#72=VECTOR('',#263,10.);
#73=VECTOR('',#266,10.);
#74=VECTOR('',#267,10.);
#75=VECTOR('',#268,10.);
#76=VECTOR('',#271,10.);
#77=VECTOR('',#272,10.);
#78=VECTOR('',#273,10.);
#79=VECTOR('',#276,10.);
#80=VECTOR('',#277,10.);
#81=CIRCLE('',#212,1.2295);
#82=CIRCLE('',#213,1.2295);
#83=CIRCLE('',#214,1.2295);
#84=CIRCLE('',#216,1.7);
#85=CIRCLE('',#217,1.7);
#86=CIRCLE('',#218,1.7);
#87=CIRCLE('',#220,1.7);
#88=CIRCLE('',#221,1.7);
#89=CIRCLE('',#222,1.7);
#90=VERTEX_POINT('',#284);
#91=VERTEX_POINT('',#285);
#92=VERTEX_POINT('',#288);
#93=VERTEX_POINT('',#292);
#94=VERTEX_POINT('',#293);
#95=VERTEX_POINT('',#296);
#96=VERTEX_POINT('',#300);
#97=VERTEX_POINT('',#301);
#98=VERTEX_POINT('',#304);
#99=VERTEX_POINT('',#308);
#100=VERTEX_POINT('',#309);
#101=VERTEX_POINT('',#311);
#102=VERTEX_POINT('',#313);
#103=VERTEX_POINT('',#317);
#104=VERTEX_POINT('',#319);
#105=VERTEX_POINT('',#323);
#106=VERTEX_POINT('',#325);
#107=EDGE_CURVE('',#90,#91,#81,.T.);
#108=EDGE_CURVE('',#91,#90,#82,.T.);
#109=EDGE_CURVE('',#91,#92,#51,.T.);
#110=EDGE_CURVE('',#92,#92,#83,.T.);
#111=EDGE_CURVE('',#93,#94,#84,.T.);
#112=EDGE_CURVE('',#94,#93,#85,.T.);
#113=EDGE_CURVE('',#94,#95,#52,.T.);
#114=EDGE_CURVE('',#95,#95,#86,.T.);
#115=EDGE_CURVE('',#96,#97,#87,.T.);
#116=EDGE_CURVE('',#97,#96,#88,.T.);
#117=EDGE_CURVE('',#97,#98,#53,.T.);
#118=EDGE_CURVE('',#98,#98,#89,.T.);
#119=EDGE_CURVE('',#99,#100,#54,.T.);
#120=EDGE_CURVE('',#100,#101,#55,.T.);
#121=EDGE_CURVE('',#102,#101,#56,.T.);
#122=EDGE_CURVE('',#99,#102,#57,.T.);
#123=EDGE_CURVE('',#103,#99,#58,.T.);
#124=EDGE_CURVE('',#104,#102,#59,.T.);
#125=EDGE_CURVE('',#103,#104,#60,.T.);
#126=EDGE_CURVE('',#105,#103,#61,.T.);
#127=EDGE_CURVE('',#106,#104,#62,.T.);
#128=EDGE_CURVE('',#105,#106,#63,.T.);
#129=EDGE_CURVE('',#100,#105,#64,.T.);
#130=EDGE_CURVE('',#101,#106,#65,.T.);
#131=ORIENTED_EDGE('',*,*,#107,.F.);
#132=ORIENTED_EDGE('',*,*,#108,.F.);
#133=ORIENTED_EDGE('',*,*,#109,.T.);
#134=ORIENTED_EDGE('',*,*,#110,.F.);
#135=ORIENTED_EDGE('',*,*,#109,.F.);
#136=ORIENTED_EDGE('',*,*,#111,.F.);
#137=ORIENTED_EDGE('',*,*,#112,.F.);
#138=ORIENTED_EDGE('',*,*,#113,.T.);
#139=ORIENTED_EDGE('',*,*,#114,.F.);
#140=ORIENTED_EDGE('',*,*,#113,.F.);
#141=ORIENTED_EDGE('',*,*,#115,.F.);
#142=ORIENTED_EDGE('',*,*,#116,.F.);
#143=ORIENTED_EDGE('',*,*,#117,.T.);
#144=ORIENTED_EDGE('',*,*,#118,.F.);
#145=ORIENTED_EDGE('',*,*,#117,.F.);
#146=ORIENTED_EDGE('',*,*,#119,.T.);
#147=ORIENTED_EDGE('',*,*,#120,.T.);
#148=ORIENTED_EDGE('',*,*,#121,.F.);
#149=ORIENTED_EDGE('',*,*,#122,.F.);
#150=ORIENTED_EDGE('',*,*,#123,.T.);
#151=ORIENTED_EDGE('',*,*,#122,.T.);
#152=ORIENTED_EDGE('',*,*,#124,.F.);
#153=ORIENTED_EDGE('',*,*,#125,.F.);
#154=ORIENTED_EDGE('',*,*,#126,.T.);
#155=ORIENTED_EDGE('',*,*,#125,.T.);
#156=ORIENTED_EDGE('',*,*,#127,.F.);
#157=ORIENTED_EDGE('',*,*,#128,.F.);
#158=ORIENTED_EDGE('',*,*,#129,.T.);
#159=ORIENTED_EDGE('',*,*,#128,.T.);
#160=ORIENTED_EDGE('',*,*,#130,.F.);
#161=ORIENTED_EDGE('',*,*,#120,.F.);
#162=ORIENTED_EDGE('',*,*,#130,.T.);
#163=ORIENTED_EDGE('',*,*,#127,.T.);
#164=ORIENTED_EDGE('',*,*,#124,.T.);
#165=ORIENTED_EDGE('',*,*,#121,.T.);
#166=ORIENTED_EDGE('',*,*,#107,.T.);
#167=ORIENTED_EDGE('',*,*,#108,.T.);
#168=ORIENTED_EDGE('',*,*,#111,.T.);
#169=ORIENTED_EDGE('',*,*,#112,.T.);
#170=ORIENTED_EDGE('',*,*,#115,.T.);
#171=ORIENTED_EDGE('',*,*,#116,.T.);
#172=ORIENTED_EDGE('',*,*,#129,.F.);
#173=ORIENTED_EDGE('',*,*,#119,.F.);
#174=ORIENTED_EDGE('',*,*,#123,.F.);
#175=ORIENTED_EDGE('',*,*,#126,.F.);
#176=ORIENTED_EDGE('',*,*,#110,.T.);
#177=ORIENTED_EDGE('',*,*,#114,.T.);
#178=ORIENTED_EDGE('',*,*,#118,.T.);
#179=CYLINDRICAL_SURFACE('',#211,1.2295);
#180=CYLINDRICAL_SURFACE('',#215,1.7);
#181=CYLINDRICAL_SURFACE('',#219,1.7);
#182=ADVANCED_FACE('',(#27),#179,.F.);
#183=ADVANCED_FACE('',(#28),#180,.F.);
#184=ADVANCED_FACE('',(#29),#181,.F.);
#185=ADVANCED_FACE('',(#30),#21,.T.);
#186=ADVANCED_FACE('',(#31),#22,.T.);
#187=ADVANCED_FACE('',(#32),#23,.T.);
#188=ADVANCED_FACE('',(#33),#24,.T.);
#189=ADVANCED_FACE('',(#34,#15,#16,#17),#25,.T.);
#190=ADVANCED_FACE('',(#35,#18,#19,#20),#26,.F.);
#191=CLOSED_SHELL('',(#182,#183,#184,#185,#186,#187,#188,#189,#190));
#192=DERIVED_UNIT_ELEMENT(#194,1.);
#193=DERIVED_UNIT_ELEMENT(#338,3.);
#194=(
MASS_UNIT()
NAMED_UNIT(*)
SI_UNIT($,.GRAM.)
);
#195=DERIVED_UNIT((#192,#193));
#196=MEASURE_REPRESENTATION_ITEM('density measure',
POSITIVE_RATIO_MEASURE(8.),#195);
#197=PROPERTY_DEFINITION_REPRESENTATION(#202,#199);
#198=PROPERTY_DEFINITION_REPRESENTATION(#203,#200);
#199=REPRESENTATION('material name',(#201),#335);
#200=REPRESENTATION('density',(#196),#335);
#201=DESCRIPTIVE_REPRESENTATION_ITEM('Acier inoxydable',
'Acier inoxydable');
#202=PROPERTY_DEFINITION('material property','material name',#345);
#203=PROPERTY_DEFINITION('material property','density of part',#345);
#204=DATE_TIME_ROLE('creation_date');
#205=APPLIED_DATE_AND_TIME_ASSIGNMENT(#206,#204,(#345));
#206=DATE_AND_TIME(#207,#208);
#207=CALENDAR_DATE(2019,22,11);
#208=LOCAL_TIME(16,3,13.,#209);
#209=COORDINATED_UNIVERSAL_TIME_OFFSET(0,0,.BEHIND.);
#210=AXIS2_PLACEMENT_3D('placement',#282,#229,#230);
#211=AXIS2_PLACEMENT_3D('',#283,#231,#232);
#212=AXIS2_PLACEMENT_3D('',#286,#233,#234);
#213=AXIS2_PLACEMENT_3D('',#287,#235,#236);
#214=AXIS2_PLACEMENT_3D('',#290,#238,#239);
#215=AXIS2_PLACEMENT_3D('',#291,#240,#241);
#216=AXIS2_PLACEMENT_3D('',#294,#242,#243);
#217=AXIS2_PLACEMENT_3D('',#295,#244,#245);
#218=AXIS2_PLACEMENT_3D('',#298,#247,#248);
#219=AXIS2_PLACEMENT_3D('',#299,#249,#250);
#220=AXIS2_PLACEMENT_3D('',#302,#251,#252);
#221=AXIS2_PLACEMENT_3D('',#303,#253,#254);
#222=AXIS2_PLACEMENT_3D('',#306,#256,#257);
#223=AXIS2_PLACEMENT_3D('',#307,#258,#259);
#224=AXIS2_PLACEMENT_3D('',#316,#264,#265);
#225=AXIS2_PLACEMENT_3D('',#322,#269,#270);
#226=AXIS2_PLACEMENT_3D('',#328,#274,#275);
#227=AXIS2_PLACEMENT_3D('',#331,#278,#279);
#228=AXIS2_PLACEMENT_3D('',#332,#280,#281);
#229=DIRECTION('axis',(0.,0.,1.));
#230=DIRECTION('refdir',(1.,0.,0.));
#231=DIRECTION('center_axis',(1.,0.,0.));
#232=DIRECTION('ref_axis',(0.,0.,-1.));
#233=DIRECTION('center_axis',(-1.,0.,0.));
#234=DIRECTION('ref_axis',(0.,0.,-1.));
#235=DIRECTION('center_axis',(-1.,0.,0.));
#236=DIRECTION('ref_axis',(0.,0.,-1.));
#237=DIRECTION('',(-1.,0.,0.));
#238=DIRECTION('center_axis',(1.,0.,0.));
#239=DIRECTION('ref_axis',(0.,0.,-1.));
#240=DIRECTION('center_axis',(1.,0.,0.));
#241=DIRECTION('ref_axis',(0.,0.,-1.));
#242=DIRECTION('center_axis',(-1.,0.,0.));
#243=DIRECTION('ref_axis',(0.,0.,-1.));
#244=DIRECTION('center_axis',(-1.,0.,0.));
#245=DIRECTION('ref_axis',(0.,0.,-1.));
#246=DIRECTION('',(-1.,0.,0.));
#247=DIRECTION('center_axis',(1.,0.,0.));
#248=DIRECTION('ref_axis',(0.,0.,-1.));
#249=DIRECTION('center_axis',(1.,0.,0.));
#250=DIRECTION('ref_axis',(0.,0.,-1.));
#251=DIRECTION('center_axis',(-1.,0.,0.));
#252=DIRECTION('ref_axis',(0.,0.,-1.));
#253=DIRECTION('center_axis',(-1.,0.,0.));
#254=DIRECTION('ref_axis',(0.,0.,-1.));
#255=DIRECTION('',(-1.,0.,0.));
#256=DIRECTION('center_axis',(1.,0.,0.));
#257=DIRECTION('ref_axis',(0.,0.,-1.));
#258=DIRECTION('center_axis',(0.,1.85037170770859E-16,-1.));
#259=DIRECTION('ref_axis',(0.,1.,1.85037170770859E-16));
#260=DIRECTION('',(0.,1.,1.85037170770859E-16));
#261=DIRECTION('',(1.,0.,0.));
#262=DIRECTION('',(0.,1.,1.85037170770859E-16));
#263=DIRECTION('',(1.,0.,0.));
#264=DIRECTION('center_axis',(0.,-1.,-1.83697019872103E-16));
#265=DIRECTION('ref_axis',(0.,1.83697019872103E-16,-1.));
#266=DIRECTION('',(0.,1.83697019872103E-16,-1.));
#267=DIRECTION('',(0.,1.83697019872103E-16,-1.));
#268=DIRECTION('',(1.,0.,0.));
#269=DIRECTION('center_axis',(0.,9.76528476434349E-34,1.));
#270=DIRECTION('ref_axis',(0.,-1.,9.76528476434349E-34));
#271=DIRECTION('',(0.,-1.,9.76528476434349E-34));
#272=DIRECTION('',(0.,-1.,9.76528476434349E-34));
#273=DIRECTION('',(1.,0.,0.));
#274=DIRECTION('center_axis',(0.,1.,0.));
#275=DIRECTION('ref_axis',(0.,0.,1.));
#276=DIRECTION('',(0.,0.,1.));
#277=DIRECTION('',(0.,0.,1.));
#278=DIRECTION('center_axis',(1.,0.,0.));
#279=DIRECTION('ref_axis',(0.,0.,-1.));
#280=DIRECTION('center_axis',(1.,0.,0.));
#281=DIRECTION('ref_axis',(0.,0.,-1.));
#282=CARTESIAN_POINT('',(0.,0.,0.));
#283=CARTESIAN_POINT('Origin',(-1.4,31.,-7.5));
#284=CARTESIAN_POINT('',(3.,31.,-8.7295));
#285=CARTESIAN_POINT('',(3.,31.,-6.2705));
#286=CARTESIAN_POINT('Origin',(3.,31.,-7.5));
#287=CARTESIAN_POINT('Origin',(3.,31.,-7.5));
#288=CARTESIAN_POINT('',(0.,31.,-6.2705));
#289=CARTESIAN_POINT('',(-1.4,31.,-6.2705));
#290=CARTESIAN_POINT('Origin',(0.,31.,-7.5));
#291=CARTESIAN_POINT('Origin',(-1.4,4.,-3.5));
#292=CARTESIAN_POINT('',(3.,4.,-5.2));
#293=CARTESIAN_POINT('',(3.,4.,-1.8));
#294=CARTESIAN_POINT('Origin',(3.,4.,-3.5));
#295=CARTESIAN_POINT('Origin',(3.,4.,-3.5));
#296=CARTESIAN_POINT('',(0.,4.,-1.8));
#297=CARTESIAN_POINT('',(-1.4,4.,-1.8));
#298=CARTESIAN_POINT('Origin',(0.,4.,-3.5));
#299=CARTESIAN_POINT('Origin',(-1.4,4.,-11.5));
#300=CARTESIAN_POINT('',(3.,4.,-13.2));
#301=CARTESIAN_POINT('',(3.,4.,-9.8));
#302=CARTESIAN_POINT('Origin',(3.,4.,-11.5));
#303=CARTESIAN_POINT('Origin',(3.,4.,-11.5));
#304=CARTESIAN_POINT('',(0.,4.,-9.8));
#305=CARTESIAN_POINT('',(-1.4,4.,-9.8));
#306=CARTESIAN_POINT('Origin',(0.,4.,-11.5));
#307=CARTESIAN_POINT('Origin',(0.,2.75545529808154E-15,-15.));
#308=CARTESIAN_POINT('',(0.,2.75545529808154E-15,-15.));
#309=CARTESIAN_POINT('',(0.,36.,-15.));
#310=CARTESIAN_POINT('',(0.,4.44089209850063E-15,-15.));
#311=CARTESIAN_POINT('',(3.,36.,-15.));
#312=CARTESIAN_POINT('',(0.,36.,-15.));
#313=CARTESIAN_POINT('',(3.,4.44089209850063E-15,-15.));
#314=CARTESIAN_POINT('',(3.,4.44089209850063E-15,-15.));
#315=CARTESIAN_POINT('',(0.,2.75545529808154E-15,-15.));
#316=CARTESIAN_POINT('Origin',(0.,0.,0.));
#317=CARTESIAN_POINT('',(0.,0.,0.));
#318=CARTESIAN_POINT('',(0.,0.,0.));
#319=CARTESIAN_POINT('',(3.,0.,0.));
#320=CARTESIAN_POINT('',(3.,0.,0.));
#321=CARTESIAN_POINT('',(0.,0.,0.));
#322=CARTESIAN_POINT('Origin',(0.,36.,-3.51550251516366E-32));
#323=CARTESIAN_POINT('',(0.,36.,-3.51550251516366E-32));
#324=CARTESIAN_POINT('',(0.,36.,-3.51550251516366E-32));
#325=CARTESIAN_POINT('',(3.,36.,0.));
#326=CARTESIAN_POINT('',(3.,36.,-3.51550251516366E-32));
#327=CARTESIAN_POINT('',(0.,36.,-3.51550251516366E-32));
#328=CARTESIAN_POINT('Origin',(0.,36.,-15.));
#329=CARTESIAN_POINT('',(0.,36.,-15.));
#330=CARTESIAN_POINT('',(3.,36.,-15.));
#331=CARTESIAN_POINT('Origin',(3.,18.,-7.5));
#332=CARTESIAN_POINT('Origin',(0.,18.,-7.5));
#333=UNCERTAINTY_MEASURE_WITH_UNIT(LENGTH_MEASURE(0.01),#337,
'DISTANCE_ACCURACY_VALUE',
'Maximum model space distance between geometric entities at asserted c
onnectivities');
#334=UNCERTAINTY_MEASURE_WITH_UNIT(LENGTH_MEASURE(0.01),#337,
'DISTANCE_ACCURACY_VALUE',
'Maximum model space distance between geometric entities at asserted c
onnectivities');
#335=(
GEOMETRIC_REPRESENTATION_CONTEXT(3)
GLOBAL_UNCERTAINTY_ASSIGNED_CONTEXT((#333))
GLOBAL_UNIT_ASSIGNED_CONTEXT((#337,#339,#340))
REPRESENTATION_CONTEXT('','3D')
);
#336=(
GEOMETRIC_REPRESENTATION_CONTEXT(3)
GLOBAL_UNCERTAINTY_ASSIGNED_CONTEXT((#334))
GLOBAL_UNIT_ASSIGNED_CONTEXT((#337,#339,#340))
REPRESENTATION_CONTEXT('','3D')
);
#337=(
LENGTH_UNIT()
NAMED_UNIT(*)
SI_UNIT(.MILLI.,.METRE.)
);
#338=(
LENGTH_UNIT()
NAMED_UNIT(*)
SI_UNIT(.CENTI.,.METRE.)
);
#339=(
NAMED_UNIT(*)
PLANE_ANGLE_UNIT()
SI_UNIT($,.RADIAN.)
);
#340=(
NAMED_UNIT(*)
SI_UNIT($,.STERADIAN.)
SOLID_ANGLE_UNIT()
);
#341=SHAPE_DEFINITION_REPRESENTATION(#342,#343);
#342=PRODUCT_DEFINITION_SHAPE('',$,#345);
#343=SHAPE_REPRESENTATION('',(#210),#335);
#344=PRODUCT_DEFINITION_CONTEXT('part definition',#349,'design');
#345=PRODUCT_DEFINITION('GSE-1201-047-001-A',
'GSE-1201-047-001-A (Screw plate)',#346,#344);
#346=PRODUCT_DEFINITION_FORMATION('A',$,#351);
#347=PRODUCT_RELATED_PRODUCT_CATEGORY(
'GSE-1201-047-001-A (Screw plate)','GSE-1201-047-001-A (Screw plate)',(#351));
#348=APPLICATION_PROTOCOL_DEFINITION('international standard',
'automotive_design',2009,#349);
#349=APPLICATION_CONTEXT(
'Core Data for Automotive Mechanical Design Process');
#350=PRODUCT_CONTEXT('part definition',#349,'mechanical');
#351=PRODUCT('GSE-1201-047-001-A','GSE-1201-047-001-A (Screw plate)',$,
(#350));
#352=PRESENTATION_STYLE_ASSIGNMENT((#353));
#353=SURFACE_STYLE_USAGE(.BOTH.,#356);
#354=SURFACE_STYLE_RENDERING_WITH_PROPERTIES($,#360,(#355));
#355=SURFACE_STYLE_TRANSPARENT(0.);
#356=SURFACE_SIDE_STYLE('',(#357,#354));
#357=SURFACE_STYLE_FILL_AREA(#358);
#358=FILL_AREA_STYLE('',(#359));
#359=FILL_AREA_STYLE_COLOUR('',#360);
#360=COLOUR_RGB('',0.745098039215686,0.737254901960784,0.729411764705882);
ENDSEC;
END-ISO-10303-21;
