ISO-10303-21;
HEADER;
/* Generated by software containing ST-Developer
 * from STEP Tools, Inc. (www.steptools.com) 
 */

FILE_DESCRIPTION(
/* description */ (''),
/* implementation_level */ '2;1');

FILE_NAME(
/* name */ 'C:\\Users\\u226184\\Desktop\\ProjetAlex\\Chambre3.stp',
/* time_stamp */ '2019-11-15T08:42:54+01:00',
/* author */ ('u226184'),
/* organization */ (''),
/* preprocessor_version */ 'ST-DEVELOPER v17',
/* originating_system */ 'Autodesk Inventor 2018',
/* authorisation */ '');

FILE_SCHEMA (('AUTOMOTIVE_DESIGN { 1 0 10303 214 3 1 1 }'));
ENDSEC;

DATA;
#10=MECHANICAL_DESIGN_GEOMETRIC_PRESENTATION_REPRESENTATION('',(#13),#322);
#11=SHAPE_REPRESENTATION_RELATIONSHIP('SRR','None',#329,#12);
#12=ADVANCED_BREP_SHAPE_REPRESENTATION('',(#14),#321);
#13=STYLED_ITEM('',(#338),#14);
#14=MANIFOLD_SOLID_BREP('Solide1',#170);
#15=CYLINDRICAL_SURFACE('',#196,25.);
#16=CYLINDRICAL_SURFACE('',#202,26.);
#17=CYLINDRICAL_SURFACE('',#207,26.);
#18=CYLINDRICAL_SURFACE('',#210,27.5);
#19=FACE_BOUND('',#44,.T.);
#20=FACE_BOUND('',#53,.T.);
#21=FACE_BOUND('',#56,.T.);
#22=FACE_BOUND('',#58,.T.);
#23=PLANE('',#193);
#24=PLANE('',#195);
#25=PLANE('',#199);
#26=PLANE('',#209);
#27=PLANE('',#213);
#28=PLANE('',#214);
#29=FACE_OUTER_BOUND('',#42,.T.);
#30=FACE_OUTER_BOUND('',#43,.T.);
#31=FACE_OUTER_BOUND('',#45,.T.);
#32=FACE_OUTER_BOUND('',#46,.T.);
#33=FACE_OUTER_BOUND('',#47,.T.);
#34=FACE_OUTER_BOUND('',#48,.T.);
#35=FACE_OUTER_BOUND('',#49,.T.);
#36=FACE_OUTER_BOUND('',#50,.T.);
#37=FACE_OUTER_BOUND('',#51,.T.);
#38=FACE_OUTER_BOUND('',#52,.T.);
#39=FACE_OUTER_BOUND('',#54,.T.);
#40=FACE_OUTER_BOUND('',#55,.T.);
#41=FACE_OUTER_BOUND('',#57,.T.);
#42=EDGE_LOOP('',(#116,#117,#118,#119));
#43=EDGE_LOOP('',(#120));
#44=EDGE_LOOP('',(#121));
#45=EDGE_LOOP('',(#122));
#46=EDGE_LOOP('',(#123,#124,#125,#126));
#47=EDGE_LOOP('',(#127));
#48=EDGE_LOOP('',(#128,#129,#130,#131));
#49=EDGE_LOOP('',(#132,#133,#134,#135));
#50=EDGE_LOOP('',(#136,#137,#138,#139));
#51=EDGE_LOOP('',(#140,#141,#142,#143));
#52=EDGE_LOOP('',(#144));
#53=EDGE_LOOP('',(#145));
#54=EDGE_LOOP('',(#146,#147,#148,#149));
#55=EDGE_LOOP('',(#150));
#56=EDGE_LOOP('',(#151));
#57=EDGE_LOOP('',(#152));
#58=EDGE_LOOP('',(#153));
#59=LINE('',#279,#66);
#60=LINE('',#289,#67);
#61=LINE('',#294,#68);
#62=LINE('',#298,#69);
#63=LINE('',#304,#70);
#64=LINE('',#308,#71);
#65=LINE('',#315,#72);
#66=VECTOR('',#221,24.5);
#67=VECTOR('',#234,25.);
#68=VECTOR('',#241,25.75);
#69=VECTOR('',#246,26.);
#70=VECTOR('',#253,25.75);
#71=VECTOR('',#258,26.);
#72=VECTOR('',#267,27.5);
#73=CIRCLE('',#191,25.);
#74=CIRCLE('',#192,24.);
#75=CIRCLE('',#194,25.5);
#76=CIRCLE('',#197,25.);
#77=CIRCLE('',#198,25.);
#78=CIRCLE('',#201,26.);
#79=CIRCLE('',#203,26.);
#80=CIRCLE('',#205,25.5);
#81=CIRCLE('',#206,26.);
#82=CIRCLE('',#208,26.);
#83=CIRCLE('',#211,27.5);
#84=CIRCLE('',#212,27.5);
#85=VERTEX_POINT('',#276);
#86=VERTEX_POINT('',#278);
#87=VERTEX_POINT('',#282);
#88=VERTEX_POINT('',#286);
#89=VERTEX_POINT('',#288);
#90=VERTEX_POINT('',#293);
#91=VERTEX_POINT('',#297);
#92=VERTEX_POINT('',#301);
#93=VERTEX_POINT('',#303);
#94=VERTEX_POINT('',#307);
#95=VERTEX_POINT('',#312);
#96=VERTEX_POINT('',#314);
#97=EDGE_CURVE('',#85,#85,#73,.T.);
#98=EDGE_CURVE('',#85,#86,#59,.T.);
#99=EDGE_CURVE('',#86,#86,#74,.T.);
#100=EDGE_CURVE('',#87,#87,#75,.T.);
#101=EDGE_CURVE('',#88,#88,#76,.T.);
#102=EDGE_CURVE('',#88,#89,#60,.T.);
#103=EDGE_CURVE('',#89,#89,#77,.T.);
#104=EDGE_CURVE('',#87,#90,#61,.T.);
#105=EDGE_CURVE('',#90,#90,#78,.T.);
#106=EDGE_CURVE('',#90,#91,#62,.T.);
#107=EDGE_CURVE('',#91,#91,#79,.T.);
#108=EDGE_CURVE('',#92,#92,#80,.T.);
#109=EDGE_CURVE('',#92,#93,#63,.T.);
#110=EDGE_CURVE('',#93,#93,#81,.T.);
#111=EDGE_CURVE('',#93,#94,#64,.T.);
#112=EDGE_CURVE('',#94,#94,#82,.T.);
#113=EDGE_CURVE('',#95,#95,#83,.T.);
#114=EDGE_CURVE('',#95,#96,#65,.T.);
#115=EDGE_CURVE('',#96,#96,#84,.T.);
#116=ORIENTED_EDGE('',*,*,#97,.T.);
#117=ORIENTED_EDGE('',*,*,#98,.T.);
#118=ORIENTED_EDGE('',*,*,#99,.T.);
#119=ORIENTED_EDGE('',*,*,#98,.F.);
#120=ORIENTED_EDGE('',*,*,#100,.F.);
#121=ORIENTED_EDGE('',*,*,#97,.F.);
#122=ORIENTED_EDGE('',*,*,#99,.F.);
#123=ORIENTED_EDGE('',*,*,#101,.F.);
#124=ORIENTED_EDGE('',*,*,#102,.T.);
#125=ORIENTED_EDGE('',*,*,#103,.T.);
#126=ORIENTED_EDGE('',*,*,#102,.F.);
#127=ORIENTED_EDGE('',*,*,#103,.F.);
#128=ORIENTED_EDGE('',*,*,#100,.T.);
#129=ORIENTED_EDGE('',*,*,#104,.T.);
#130=ORIENTED_EDGE('',*,*,#105,.T.);
#131=ORIENTED_EDGE('',*,*,#104,.F.);
#132=ORIENTED_EDGE('',*,*,#105,.F.);
#133=ORIENTED_EDGE('',*,*,#106,.T.);
#134=ORIENTED_EDGE('',*,*,#107,.F.);
#135=ORIENTED_EDGE('',*,*,#106,.F.);
#136=ORIENTED_EDGE('',*,*,#108,.T.);
#137=ORIENTED_EDGE('',*,*,#109,.T.);
#138=ORIENTED_EDGE('',*,*,#110,.T.);
#139=ORIENTED_EDGE('',*,*,#109,.F.);
#140=ORIENTED_EDGE('',*,*,#110,.F.);
#141=ORIENTED_EDGE('',*,*,#111,.T.);
#142=ORIENTED_EDGE('',*,*,#112,.F.);
#143=ORIENTED_EDGE('',*,*,#111,.F.);
#144=ORIENTED_EDGE('',*,*,#108,.F.);
#145=ORIENTED_EDGE('',*,*,#101,.T.);
#146=ORIENTED_EDGE('',*,*,#113,.F.);
#147=ORIENTED_EDGE('',*,*,#114,.T.);
#148=ORIENTED_EDGE('',*,*,#115,.F.);
#149=ORIENTED_EDGE('',*,*,#114,.F.);
#150=ORIENTED_EDGE('',*,*,#115,.T.);
#151=ORIENTED_EDGE('',*,*,#107,.T.);
#152=ORIENTED_EDGE('',*,*,#113,.T.);
#153=ORIENTED_EDGE('',*,*,#112,.T.);
#154=CONICAL_SURFACE('',#190,24.5,0.785398163397449);
#155=CONICAL_SURFACE('',#200,25.75,0.785398163397447);
#156=CONICAL_SURFACE('',#204,25.75,0.785398163397445);
#157=ADVANCED_FACE('',(#29),#154,.F.);
#158=ADVANCED_FACE('',(#30,#19),#23,.F.);
#159=ADVANCED_FACE('',(#31),#24,.F.);
#160=ADVANCED_FACE('',(#32),#15,.F.);
#161=ADVANCED_FACE('',(#33),#25,.T.);
#162=ADVANCED_FACE('',(#34),#155,.T.);
#163=ADVANCED_FACE('',(#35),#16,.T.);
#164=ADVANCED_FACE('',(#36),#156,.T.);
#165=ADVANCED_FACE('',(#37),#17,.T.);
#166=ADVANCED_FACE('',(#38,#20),#26,.T.);
#167=ADVANCED_FACE('',(#39),#18,.T.);
#168=ADVANCED_FACE('',(#40,#21),#27,.F.);
#169=ADVANCED_FACE('',(#41,#22),#28,.T.);
#170=CLOSED_SHELL('',(#157,#158,#159,#160,#161,#162,#163,#164,#165,#166,
#167,#168,#169));
#171=DERIVED_UNIT_ELEMENT(#173,1.);
#172=DERIVED_UNIT_ELEMENT(#324,3.);
#173=(
MASS_UNIT()
NAMED_UNIT(*)
SI_UNIT($,.GRAM.)
);
#174=DERIVED_UNIT((#171,#172));
#175=MEASURE_REPRESENTATION_ITEM('density measure',
POSITIVE_RATIO_MEASURE(1.),#174);
#176=PROPERTY_DEFINITION_REPRESENTATION(#181,#178);
#177=PROPERTY_DEFINITION_REPRESENTATION(#182,#179);
#178=REPRESENTATION('material name',(#180),#321);
#179=REPRESENTATION('density',(#175),#321);
#180=DESCRIPTIVE_REPRESENTATION_ITEM('G\X\E9n\X\E9rique','G\X\E9n\X\E9
rique');
#181=PROPERTY_DEFINITION('material property','material name',#331);
#182=PROPERTY_DEFINITION('material property','density of part',#331);
#183=DATE_TIME_ROLE('creation_date');
#184=APPLIED_DATE_AND_TIME_ASSIGNMENT(#185,#183,(#331));
#185=DATE_AND_TIME(#186,#187);
#186=CALENDAR_DATE(2019,11,11);
#187=LOCAL_TIME(16,36,51.,#188);
#188=COORDINATED_UNIVERSAL_TIME_OFFSET(0,0,.BEHIND.);
#189=AXIS2_PLACEMENT_3D('placement',#274,#215,#216);
#190=AXIS2_PLACEMENT_3D('',#275,#217,#218);
#191=AXIS2_PLACEMENT_3D('',#277,#219,#220);
#192=AXIS2_PLACEMENT_3D('',#280,#222,#223);
#193=AXIS2_PLACEMENT_3D('',#281,#224,#225);
#194=AXIS2_PLACEMENT_3D('',#283,#226,#227);
#195=AXIS2_PLACEMENT_3D('',#284,#228,#229);
#196=AXIS2_PLACEMENT_3D('',#285,#230,#231);
#197=AXIS2_PLACEMENT_3D('',#287,#232,#233);
#198=AXIS2_PLACEMENT_3D('',#290,#235,#236);
#199=AXIS2_PLACEMENT_3D('',#291,#237,#238);
#200=AXIS2_PLACEMENT_3D('',#292,#239,#240);
#201=AXIS2_PLACEMENT_3D('',#295,#242,#243);
#202=AXIS2_PLACEMENT_3D('',#296,#244,#245);
#203=AXIS2_PLACEMENT_3D('',#299,#247,#248);
#204=AXIS2_PLACEMENT_3D('',#300,#249,#250);
#205=AXIS2_PLACEMENT_3D('',#302,#251,#252);
#206=AXIS2_PLACEMENT_3D('',#305,#254,#255);
#207=AXIS2_PLACEMENT_3D('',#306,#256,#257);
#208=AXIS2_PLACEMENT_3D('',#309,#259,#260);
#209=AXIS2_PLACEMENT_3D('',#310,#261,#262);
#210=AXIS2_PLACEMENT_3D('',#311,#263,#264);
#211=AXIS2_PLACEMENT_3D('',#313,#265,#266);
#212=AXIS2_PLACEMENT_3D('',#316,#268,#269);
#213=AXIS2_PLACEMENT_3D('',#317,#270,#271);
#214=AXIS2_PLACEMENT_3D('',#318,#272,#273);
#215=DIRECTION('axis',(0.,0.,1.));
#216=DIRECTION('refdir',(1.,0.,0.));
#217=DIRECTION('center_axis',(0.,-1.,0.));
#218=DIRECTION('ref_axis',(-1.,0.,0.));
#219=DIRECTION('center_axis',(0.,-1.,0.));
#220=DIRECTION('ref_axis',(-1.,0.,0.));
#221=DIRECTION('',(-0.707106781186548,0.707106781186547,-8.65956056235494E-17));
#222=DIRECTION('center_axis',(0.,1.,0.));
#223=DIRECTION('ref_axis',(-1.,0.,0.));
#224=DIRECTION('center_axis',(0.,1.,0.));
#225=DIRECTION('ref_axis',(0.,0.,1.));
#226=DIRECTION('center_axis',(0.,1.,0.));
#227=DIRECTION('ref_axis',(-1.,0.,0.));
#228=DIRECTION('center_axis',(0.,1.,0.));
#229=DIRECTION('ref_axis',(0.,0.,1.));
#230=DIRECTION('center_axis',(0.,-1.,0.));
#231=DIRECTION('ref_axis',(-1.,0.,0.));
#232=DIRECTION('center_axis',(0.,-1.,0.));
#233=DIRECTION('ref_axis',(-1.,0.,0.));
#234=DIRECTION('',(0.,-1.,0.));
#235=DIRECTION('center_axis',(0.,-1.,0.));
#236=DIRECTION('ref_axis',(-1.,0.,0.));
#237=DIRECTION('center_axis',(0.,1.,0.));
#238=DIRECTION('ref_axis',(0.,0.,1.));
#239=DIRECTION('center_axis',(0.,1.,0.));
#240=DIRECTION('ref_axis',(-1.,0.,0.));
#241=DIRECTION('',(0.707106781186546,0.707106781186549,8.65956056235492E-17));
#242=DIRECTION('center_axis',(0.,-1.,0.));
#243=DIRECTION('ref_axis',(-1.,0.,0.));
#244=DIRECTION('center_axis',(0.,-1.,0.));
#245=DIRECTION('ref_axis',(-1.,0.,0.));
#246=DIRECTION('',(0.,1.,0.));
#247=DIRECTION('center_axis',(0.,1.,0.));
#248=DIRECTION('ref_axis',(-1.,0.,0.));
#249=DIRECTION('center_axis',(0.,-1.,0.));
#250=DIRECTION('ref_axis',(-1.,0.,0.));
#251=DIRECTION('center_axis',(0.,-1.,0.));
#252=DIRECTION('ref_axis',(-1.,0.,0.));
#253=DIRECTION('',(0.707106781186545,-0.70710678118655,-8.6595605623549E-17));
#254=DIRECTION('center_axis',(0.,1.,0.));
#255=DIRECTION('ref_axis',(-1.,0.,0.));
#256=DIRECTION('center_axis',(0.,1.,0.));
#257=DIRECTION('ref_axis',(-1.,0.,0.));
#258=DIRECTION('',(0.,-1.,0.));
#259=DIRECTION('center_axis',(0.,-1.,0.));
#260=DIRECTION('ref_axis',(-1.,0.,0.));
#261=DIRECTION('center_axis',(0.,1.,0.));
#262=DIRECTION('ref_axis',(0.,0.,1.));
#263=DIRECTION('center_axis',(0.,1.,0.));
#264=DIRECTION('ref_axis',(1.,0.,0.));
#265=DIRECTION('center_axis',(0.,1.,0.));
#266=DIRECTION('ref_axis',(1.,0.,0.));
#267=DIRECTION('',(0.,-1.,0.));
#268=DIRECTION('center_axis',(0.,-1.,0.));
#269=DIRECTION('ref_axis',(1.,0.,0.));
#270=DIRECTION('center_axis',(0.,1.,0.));
#271=DIRECTION('ref_axis',(0.,0.,1.));
#272=DIRECTION('center_axis',(0.,1.,0.));
#273=DIRECTION('ref_axis',(0.,0.,1.));
#274=CARTESIAN_POINT('',(0.,0.,0.));
#275=CARTESIAN_POINT('Origin',(0.,-3.5,0.));
#276=CARTESIAN_POINT('',(25.,-4.,3.06161699786838E-15));
#277=CARTESIAN_POINT('Origin',(0.,-4.,0.));
#278=CARTESIAN_POINT('',(24.,-3.,2.93915231795365E-15));
#279=CARTESIAN_POINT('',(24.5,-3.5,3.00038465791102E-15));
#280=CARTESIAN_POINT('Origin',(0.,-3.,0.));
#281=CARTESIAN_POINT('Origin',(-1.40403042148209E-15,-4.,0.));
#282=CARTESIAN_POINT('',(25.5,-4.,-3.12284933782575E-15));
#283=CARTESIAN_POINT('Origin',(0.,-4.,0.));
#284=CARTESIAN_POINT('Origin',(-2.71209163677426E-15,-3.,6.16790569236198E-16));
#285=CARTESIAN_POINT('Origin',(0.,9.,0.));
#286=CARTESIAN_POINT('',(25.,9.,-3.06161699786838E-15));
#287=CARTESIAN_POINT('Origin',(0.,9.,0.));
#288=CARTESIAN_POINT('',(25.,-0.999999999999999,-3.06161699786838E-15));
#289=CARTESIAN_POINT('',(25.,9.,3.06161699786838E-15));
#290=CARTESIAN_POINT('Origin',(0.,-0.999999999999999,0.));
#291=CARTESIAN_POINT('Origin',(-1.43937264275587E-15,-0.999999999999996,
0.));
#292=CARTESIAN_POINT('Origin',(0.,-3.75,0.));
#293=CARTESIAN_POINT('',(26.,-3.5,3.18408167778312E-15));
#294=CARTESIAN_POINT('',(25.75,-3.75,3.15346550780444E-15));
#295=CARTESIAN_POINT('Origin',(0.,-3.5,0.));
#296=CARTESIAN_POINT('Origin',(0.,0.,0.));
#297=CARTESIAN_POINT('',(26.,0.,3.18408167778312E-15));
#298=CARTESIAN_POINT('',(26.,0.,3.18408167778312E-15));
#299=CARTESIAN_POINT('Origin',(0.,0.,0.));
#300=CARTESIAN_POINT('Origin',(0.,8.75,0.));
#301=CARTESIAN_POINT('',(25.5,9.,3.12284933782575E-15));
#302=CARTESIAN_POINT('Origin',(0.,9.,0.));
#303=CARTESIAN_POINT('',(26.,8.5,-3.18408167778312E-15));
#304=CARTESIAN_POINT('',(25.75,8.75,-3.15346550780443E-15));
#305=CARTESIAN_POINT('Origin',(0.,8.5,0.));
#306=CARTESIAN_POINT('Origin',(0.,4.,0.));
#307=CARTESIAN_POINT('',(26.,4.,-3.18408167778312E-15));
#308=CARTESIAN_POINT('',(26.,4.,-3.18408167778312E-15));
#309=CARTESIAN_POINT('Origin',(0.,4.,0.));
#310=CARTESIAN_POINT('Origin',(-2.6534013981526E-16,9.,0.));
#311=CARTESIAN_POINT('Origin',(0.,0.,0.));
#312=CARTESIAN_POINT('',(-27.5,4.,3.36777869765522E-15));
#313=CARTESIAN_POINT('Origin',(0.,4.,0.));
#314=CARTESIAN_POINT('',(-27.5,0.,3.36777869765522E-15));
#315=CARTESIAN_POINT('',(-27.5,0.,3.36777869765522E-15));
#316=CARTESIAN_POINT('Origin',(0.,0.,0.));
#317=CARTESIAN_POINT('Origin',(2.43380803013824E-15,0.,0.));
#318=CARTESIAN_POINT('Origin',(2.43380803013824E-15,4.,0.));
#319=UNCERTAINTY_MEASURE_WITH_UNIT(LENGTH_MEASURE(0.01),#323,
'DISTANCE_ACCURACY_VALUE',
'Maximum model space distance between geometric entities at asserted c
onnectivities');
#320=UNCERTAINTY_MEASURE_WITH_UNIT(LENGTH_MEASURE(0.01),#323,
'DISTANCE_ACCURACY_VALUE',
'Maximum model space distance between geometric entities at asserted c
onnectivities');
#321=(
GEOMETRIC_REPRESENTATION_CONTEXT(3)
GLOBAL_UNCERTAINTY_ASSIGNED_CONTEXT((#319))
GLOBAL_UNIT_ASSIGNED_CONTEXT((#323,#326,#325))
REPRESENTATION_CONTEXT('','3D')
);
#322=(
GEOMETRIC_REPRESENTATION_CONTEXT(3)
GLOBAL_UNCERTAINTY_ASSIGNED_CONTEXT((#320))
GLOBAL_UNIT_ASSIGNED_CONTEXT((#323,#326,#325))
REPRESENTATION_CONTEXT('','3D')
);
#323=(
LENGTH_UNIT()
NAMED_UNIT(*)
SI_UNIT(.MILLI.,.METRE.)
);
#324=(
LENGTH_UNIT()
NAMED_UNIT(*)
SI_UNIT(.CENTI.,.METRE.)
);
#325=(
NAMED_UNIT(*)
SI_UNIT($,.STERADIAN.)
SOLID_ANGLE_UNIT()
);
#326=(
NAMED_UNIT(*)
PLANE_ANGLE_UNIT()
SI_UNIT($,.RADIAN.)
);
#327=SHAPE_DEFINITION_REPRESENTATION(#328,#329);
#328=PRODUCT_DEFINITION_SHAPE('',$,#331);
#329=SHAPE_REPRESENTATION('',(#189),#321);
#330=PRODUCT_DEFINITION_CONTEXT('part definition',#335,'design');
#331=PRODUCT_DEFINITION('Chambre3','Chambre3',#332,#330);
#332=PRODUCT_DEFINITION_FORMATION('',$,#337);
#333=PRODUCT_RELATED_PRODUCT_CATEGORY('Chambre3','Chambre3',(#337));
#334=APPLICATION_PROTOCOL_DEFINITION('international standard',
'automotive_design',2009,#335);
#335=APPLICATION_CONTEXT(
'Core Data for Automotive Mechanical Design Process');
#336=PRODUCT_CONTEXT('part definition',#335,'mechanical');
#337=PRODUCT('Chambre3','Chambre3',$,(#336));
#338=PRESENTATION_STYLE_ASSIGNMENT((#339));
#339=SURFACE_STYLE_USAGE(.BOTH.,#340);
#340=SURFACE_SIDE_STYLE('',(#341));
#341=SURFACE_STYLE_FILL_AREA(#342);
#342=FILL_AREA_STYLE('',(#343));
#343=FILL_AREA_STYLE_COLOUR('',#344);
#344=COLOUR_RGB('',0.898039215686275,0.898039215686275,0.898039215686275);
ENDSEC;
END-ISO-10303-21;
