ISO-10303-21;
HEADER;
/* Generated by software containing ST-Developer
 * from STEP Tools, Inc. (www.steptools.com) 
 */

FILE_DESCRIPTION(
/* description */ (''),
/* implementation_level */ '2;1');

FILE_NAME(
/* name */ 
'C:\\Users\\louis.petitjean\\Desktop\\GSE-1201-000-000-A Thruster Bala
nce\\Measurement subsystem\\GSE-1201-022-001-A (Support capteur M6).st
p',
/* time_stamp */ '2019-10-24T16:06:44+02:00',
/* author */ ('louis.petitjean'),
/* organization */ (''),
/* preprocessor_version */ 'ST-DEVELOPER v18',
/* originating_system */ 'Autodesk Inventor 2020',
/* authorisation */ '');

FILE_SCHEMA (('AUTOMOTIVE_DESIGN { 1 0 10303 214 3 1 1 }'));
ENDSEC;

DATA;
#10=MECHANICAL_DESIGN_GEOMETRIC_PRESENTATION_REPRESENTATION('',(#13),#378);
#11=SHAPE_REPRESENTATION_RELATIONSHIP('SRR','None',#385,#12);
#12=ADVANCED_BREP_SHAPE_REPRESENTATION('',(#14),#377);
#13=STYLED_ITEM('',(#394),#14);
#14=MANIFOLD_SOLID_BREP('Solide1',#219);
#15=FACE_BOUND('',#48,.T.);
#16=FACE_BOUND('',#49,.T.);
#17=FACE_BOUND('',#51,.T.);
#18=FACE_BOUND('',#52,.T.);
#19=PLANE('',#243);
#20=PLANE('',#247);
#21=PLANE('',#251);
#22=PLANE('',#252);
#23=PLANE('',#253);
#24=PLANE('',#254);
#25=PLANE('',#255);
#26=PLANE('',#256);
#27=FACE_OUTER_BOUND('',#38,.T.);
#28=FACE_OUTER_BOUND('',#39,.T.);
#29=FACE_OUTER_BOUND('',#40,.T.);
#30=FACE_OUTER_BOUND('',#41,.T.);
#31=FACE_OUTER_BOUND('',#42,.T.);
#32=FACE_OUTER_BOUND('',#43,.T.);
#33=FACE_OUTER_BOUND('',#44,.T.);
#34=FACE_OUTER_BOUND('',#45,.T.);
#35=FACE_OUTER_BOUND('',#46,.T.);
#36=FACE_OUTER_BOUND('',#47,.T.);
#37=FACE_OUTER_BOUND('',#50,.T.);
#38=EDGE_LOOP('',(#149,#150,#151,#152,#153));
#39=EDGE_LOOP('',(#154,#155,#156,#157));
#40=EDGE_LOOP('',(#158,#159,#160,#161));
#41=EDGE_LOOP('',(#162,#163,#164,#165));
#42=EDGE_LOOP('',(#166,#167,#168,#169));
#43=EDGE_LOOP('',(#170,#171,#172,#173));
#44=EDGE_LOOP('',(#174,#175,#176,#177));
#45=EDGE_LOOP('',(#178,#179,#180,#181));
#46=EDGE_LOOP('',(#182,#183,#184,#185));
#47=EDGE_LOOP('',(#186,#187,#188,#189));
#48=EDGE_LOOP('',(#190));
#49=EDGE_LOOP('',(#191,#192,#193,#194));
#50=EDGE_LOOP('',(#195,#196,#197,#198));
#51=EDGE_LOOP('',(#199,#200));
#52=EDGE_LOOP('',(#201,#202,#203,#204));
#53=LINE('',#323,#74);
#54=LINE('',#328,#75);
#55=LINE('',#330,#76);
#56=LINE('',#332,#77);
#57=LINE('',#333,#78);
#58=LINE('',#339,#79);
#59=LINE('',#342,#80);
#60=LINE('',#344,#81);
#61=LINE('',#345,#82);
#62=LINE('',#352,#83);
#63=LINE('',#354,#84);
#64=LINE('',#356,#85);
#65=LINE('',#357,#86);
#66=LINE('',#360,#87);
#67=LINE('',#362,#88);
#68=LINE('',#363,#89);
#69=LINE('',#366,#90);
#70=LINE('',#368,#91);
#71=LINE('',#369,#92);
#72=LINE('',#371,#93);
#73=LINE('',#372,#94);
#74=VECTOR('',#265,5.053);
#75=VECTOR('',#270,10.);
#76=VECTOR('',#271,10.);
#77=VECTOR('',#272,10.);
#78=VECTOR('',#273,10.);
#79=VECTOR('',#280,10.);
#80=VECTOR('',#283,10.);
#81=VECTOR('',#284,10.);
#82=VECTOR('',#285,10.);
#83=VECTOR('',#294,10.);
#84=VECTOR('',#295,10.);
#85=VECTOR('',#296,10.);
#86=VECTOR('',#297,10.);
#87=VECTOR('',#300,10.);
#88=VECTOR('',#301,10.);
#89=VECTOR('',#302,10.);
#90=VECTOR('',#305,10.);
#91=VECTOR('',#306,10.);
#92=VECTOR('',#307,10.);
#93=VECTOR('',#310,10.);
#94=VECTOR('',#311,10.);
#95=CIRCLE('',#240,5.053);
#96=CIRCLE('',#241,5.053);
#97=CIRCLE('',#242,5.053);
#98=CIRCLE('',#245,3.2);
#99=CIRCLE('',#246,3.2);
#100=CIRCLE('',#249,3.2);
#101=CIRCLE('',#250,3.2);
#102=VERTEX_POINT('',#318);
#103=VERTEX_POINT('',#319);
#104=VERTEX_POINT('',#322);
#105=VERTEX_POINT('',#326);
#106=VERTEX_POINT('',#327);
#107=VERTEX_POINT('',#329);
#108=VERTEX_POINT('',#331);
#109=VERTEX_POINT('',#335);
#110=VERTEX_POINT('',#337);
#111=VERTEX_POINT('',#341);
#112=VERTEX_POINT('',#343);
#113=VERTEX_POINT('',#350);
#114=VERTEX_POINT('',#351);
#115=VERTEX_POINT('',#353);
#116=VERTEX_POINT('',#355);
#117=VERTEX_POINT('',#359);
#118=VERTEX_POINT('',#361);
#119=VERTEX_POINT('',#365);
#120=VERTEX_POINT('',#367);
#121=EDGE_CURVE('',#102,#103,#95,.T.);
#122=EDGE_CURVE('',#103,#102,#96,.T.);
#123=EDGE_CURVE('',#103,#104,#53,.T.);
#124=EDGE_CURVE('',#104,#104,#97,.T.);
#125=EDGE_CURVE('',#105,#106,#54,.T.);
#126=EDGE_CURVE('',#107,#105,#55,.T.);
#127=EDGE_CURVE('',#108,#107,#56,.T.);
#128=EDGE_CURVE('',#108,#106,#57,.T.);
#129=EDGE_CURVE('',#106,#109,#98,.T.);
#130=EDGE_CURVE('',#110,#108,#99,.T.);
#131=EDGE_CURVE('',#110,#109,#58,.T.);
#132=EDGE_CURVE('',#109,#111,#59,.T.);
#133=EDGE_CURVE('',#112,#110,#60,.T.);
#134=EDGE_CURVE('',#112,#111,#61,.T.);
#135=EDGE_CURVE('',#111,#105,#100,.T.);
#136=EDGE_CURVE('',#107,#112,#101,.T.);
#137=EDGE_CURVE('',#113,#114,#62,.T.);
#138=EDGE_CURVE('',#113,#115,#63,.T.);
#139=EDGE_CURVE('',#116,#115,#64,.T.);
#140=EDGE_CURVE('',#114,#116,#65,.T.);
#141=EDGE_CURVE('',#114,#117,#66,.T.);
#142=EDGE_CURVE('',#118,#116,#67,.T.);
#143=EDGE_CURVE('',#117,#118,#68,.T.);
#144=EDGE_CURVE('',#117,#119,#69,.T.);
#145=EDGE_CURVE('',#120,#118,#70,.T.);
#146=EDGE_CURVE('',#119,#120,#71,.T.);
#147=EDGE_CURVE('',#119,#113,#72,.T.);
#148=EDGE_CURVE('',#115,#120,#73,.T.);
#149=ORIENTED_EDGE('',*,*,#121,.F.);
#150=ORIENTED_EDGE('',*,*,#122,.F.);
#151=ORIENTED_EDGE('',*,*,#123,.T.);
#152=ORIENTED_EDGE('',*,*,#124,.F.);
#153=ORIENTED_EDGE('',*,*,#123,.F.);
#154=ORIENTED_EDGE('',*,*,#125,.F.);
#155=ORIENTED_EDGE('',*,*,#126,.F.);
#156=ORIENTED_EDGE('',*,*,#127,.F.);
#157=ORIENTED_EDGE('',*,*,#128,.T.);
#158=ORIENTED_EDGE('',*,*,#129,.F.);
#159=ORIENTED_EDGE('',*,*,#128,.F.);
#160=ORIENTED_EDGE('',*,*,#130,.F.);
#161=ORIENTED_EDGE('',*,*,#131,.T.);
#162=ORIENTED_EDGE('',*,*,#132,.F.);
#163=ORIENTED_EDGE('',*,*,#131,.F.);
#164=ORIENTED_EDGE('',*,*,#133,.F.);
#165=ORIENTED_EDGE('',*,*,#134,.T.);
#166=ORIENTED_EDGE('',*,*,#135,.F.);
#167=ORIENTED_EDGE('',*,*,#134,.F.);
#168=ORIENTED_EDGE('',*,*,#136,.F.);
#169=ORIENTED_EDGE('',*,*,#126,.T.);
#170=ORIENTED_EDGE('',*,*,#137,.F.);
#171=ORIENTED_EDGE('',*,*,#138,.T.);
#172=ORIENTED_EDGE('',*,*,#139,.F.);
#173=ORIENTED_EDGE('',*,*,#140,.F.);
#174=ORIENTED_EDGE('',*,*,#141,.F.);
#175=ORIENTED_EDGE('',*,*,#140,.T.);
#176=ORIENTED_EDGE('',*,*,#142,.F.);
#177=ORIENTED_EDGE('',*,*,#143,.F.);
#178=ORIENTED_EDGE('',*,*,#144,.F.);
#179=ORIENTED_EDGE('',*,*,#143,.T.);
#180=ORIENTED_EDGE('',*,*,#145,.F.);
#181=ORIENTED_EDGE('',*,*,#146,.F.);
#182=ORIENTED_EDGE('',*,*,#147,.F.);
#183=ORIENTED_EDGE('',*,*,#146,.T.);
#184=ORIENTED_EDGE('',*,*,#148,.F.);
#185=ORIENTED_EDGE('',*,*,#138,.F.);
#186=ORIENTED_EDGE('',*,*,#147,.T.);
#187=ORIENTED_EDGE('',*,*,#137,.T.);
#188=ORIENTED_EDGE('',*,*,#141,.T.);
#189=ORIENTED_EDGE('',*,*,#144,.T.);
#190=ORIENTED_EDGE('',*,*,#124,.T.);
#191=ORIENTED_EDGE('',*,*,#132,.T.);
#192=ORIENTED_EDGE('',*,*,#135,.T.);
#193=ORIENTED_EDGE('',*,*,#125,.T.);
#194=ORIENTED_EDGE('',*,*,#129,.T.);
#195=ORIENTED_EDGE('',*,*,#148,.T.);
#196=ORIENTED_EDGE('',*,*,#145,.T.);
#197=ORIENTED_EDGE('',*,*,#142,.T.);
#198=ORIENTED_EDGE('',*,*,#139,.T.);
#199=ORIENTED_EDGE('',*,*,#121,.T.);
#200=ORIENTED_EDGE('',*,*,#122,.T.);
#201=ORIENTED_EDGE('',*,*,#133,.T.);
#202=ORIENTED_EDGE('',*,*,#130,.T.);
#203=ORIENTED_EDGE('',*,*,#127,.T.);
#204=ORIENTED_EDGE('',*,*,#136,.T.);
#205=CYLINDRICAL_SURFACE('',#239,5.053);
#206=CYLINDRICAL_SURFACE('',#244,3.2);
#207=CYLINDRICAL_SURFACE('',#248,3.2);
#208=ADVANCED_FACE('',(#27),#205,.F.);
#209=ADVANCED_FACE('',(#28),#19,.F.);
#210=ADVANCED_FACE('',(#29),#206,.F.);
#211=ADVANCED_FACE('',(#30),#20,.F.);
#212=ADVANCED_FACE('',(#31),#207,.F.);
#213=ADVANCED_FACE('',(#32),#21,.T.);
#214=ADVANCED_FACE('',(#33),#22,.T.);
#215=ADVANCED_FACE('',(#34),#23,.T.);
#216=ADVANCED_FACE('',(#35),#24,.T.);
#217=ADVANCED_FACE('',(#36,#15,#16),#25,.F.);
#218=ADVANCED_FACE('',(#37,#17,#18),#26,.T.);
#219=CLOSED_SHELL('',(#208,#209,#210,#211,#212,#213,#214,#215,#216,#217,
#218));
#220=DERIVED_UNIT_ELEMENT(#222,1.);
#221=DERIVED_UNIT_ELEMENT(#380,3.);
#222=(
MASS_UNIT()
NAMED_UNIT(*)
SI_UNIT($,.GRAM.)
);
#223=DERIVED_UNIT((#220,#221));
#224=MEASURE_REPRESENTATION_ITEM('density measure',
POSITIVE_RATIO_MEASURE(2.7),#223);
#225=PROPERTY_DEFINITION_REPRESENTATION(#230,#227);
#226=PROPERTY_DEFINITION_REPRESENTATION(#231,#228);
#227=REPRESENTATION('material name',(#229),#377);
#228=REPRESENTATION('density',(#224),#377);
#229=DESCRIPTIVE_REPRESENTATION_ITEM('Aluminium 6061','Aluminium 6061');
#230=PROPERTY_DEFINITION('material property','material name',#387);
#231=PROPERTY_DEFINITION('material property','density of part',#387);
#232=DATE_TIME_ROLE('creation_date');
#233=APPLIED_DATE_AND_TIME_ASSIGNMENT(#234,#232,(#387));
#234=DATE_AND_TIME(#235,#236);
#235=CALENDAR_DATE(2019,14,10);
#236=LOCAL_TIME(22,0,0.,#237);
#237=COORDINATED_UNIVERSAL_TIME_OFFSET(0,0,.BEHIND.);
#238=AXIS2_PLACEMENT_3D('placement',#316,#257,#258);
#239=AXIS2_PLACEMENT_3D('',#317,#259,#260);
#240=AXIS2_PLACEMENT_3D('',#320,#261,#262);
#241=AXIS2_PLACEMENT_3D('',#321,#263,#264);
#242=AXIS2_PLACEMENT_3D('',#324,#266,#267);
#243=AXIS2_PLACEMENT_3D('',#325,#268,#269);
#244=AXIS2_PLACEMENT_3D('',#334,#274,#275);
#245=AXIS2_PLACEMENT_3D('',#336,#276,#277);
#246=AXIS2_PLACEMENT_3D('',#338,#278,#279);
#247=AXIS2_PLACEMENT_3D('',#340,#281,#282);
#248=AXIS2_PLACEMENT_3D('',#346,#286,#287);
#249=AXIS2_PLACEMENT_3D('',#347,#288,#289);
#250=AXIS2_PLACEMENT_3D('',#348,#290,#291);
#251=AXIS2_PLACEMENT_3D('',#349,#292,#293);
#252=AXIS2_PLACEMENT_3D('',#358,#298,#299);
#253=AXIS2_PLACEMENT_3D('',#364,#303,#304);
#254=AXIS2_PLACEMENT_3D('',#370,#308,#309);
#255=AXIS2_PLACEMENT_3D('',#373,#312,#313);
#256=AXIS2_PLACEMENT_3D('',#374,#314,#315);
#257=DIRECTION('axis',(0.,0.,1.));
#258=DIRECTION('refdir',(1.,0.,0.));
#259=DIRECTION('center_axis',(0.,0.,1.));
#260=DIRECTION('ref_axis',(1.,0.,0.));
#261=DIRECTION('center_axis',(0.,0.,-1.));
#262=DIRECTION('ref_axis',(1.,0.,0.));
#263=DIRECTION('center_axis',(0.,0.,-1.));
#264=DIRECTION('ref_axis',(1.,0.,0.));
#265=DIRECTION('',(0.,0.,-1.));
#266=DIRECTION('center_axis',(0.,0.,1.));
#267=DIRECTION('ref_axis',(1.,0.,0.));
#268=DIRECTION('center_axis',(0.,-1.,0.));
#269=DIRECTION('ref_axis',(-1.,0.,0.));
#270=DIRECTION('',(1.,0.,0.));
#271=DIRECTION('',(0.,0.,-1.));
#272=DIRECTION('',(-1.,0.,0.));
#273=DIRECTION('',(0.,0.,-1.));
#274=DIRECTION('center_axis',(0.,0.,-1.));
#275=DIRECTION('ref_axis',(0.,-1.,0.));
#276=DIRECTION('center_axis',(0.,0.,1.));
#277=DIRECTION('ref_axis',(0.,-1.,0.));
#278=DIRECTION('center_axis',(0.,0.,-1.));
#279=DIRECTION('ref_axis',(0.,-1.,0.));
#280=DIRECTION('',(0.,0.,-1.));
#281=DIRECTION('center_axis',(0.,1.,0.));
#282=DIRECTION('ref_axis',(1.,0.,0.));
#283=DIRECTION('',(-1.,0.,0.));
#284=DIRECTION('',(1.,0.,0.));
#285=DIRECTION('',(0.,0.,-1.));
#286=DIRECTION('center_axis',(0.,0.,-1.));
#287=DIRECTION('ref_axis',(-0.999999999999994,1.08583658769465E-7,0.));
#288=DIRECTION('center_axis',(0.,0.,1.));
#289=DIRECTION('ref_axis',(2.17167317462236E-7,0.999999999999976,0.));
#290=DIRECTION('center_axis',(0.,0.,-1.));
#291=DIRECTION('ref_axis',(2.17167317462236E-7,0.999999999999976,0.));
#292=DIRECTION('center_axis',(1.,0.,0.));
#293=DIRECTION('ref_axis',(0.,1.,0.));
#294=DIRECTION('',(0.,-1.,0.));
#295=DIRECTION('',(0.,0.,1.));
#296=DIRECTION('',(0.,1.,0.));
#297=DIRECTION('',(0.,0.,1.));
#298=DIRECTION('center_axis',(-1.59594559789866E-16,-1.,0.));
#299=DIRECTION('ref_axis',(1.,-1.59594559789866E-16,0.));
#300=DIRECTION('',(-1.,1.59594559789866E-16,0.));
#301=DIRECTION('',(1.,-1.59594559789866E-16,0.));
#302=DIRECTION('',(0.,0.,1.));
#303=DIRECTION('center_axis',(-1.,0.,0.));
#304=DIRECTION('ref_axis',(0.,-1.,0.));
#305=DIRECTION('',(0.,1.,0.));
#306=DIRECTION('',(0.,-1.,0.));
#307=DIRECTION('',(0.,0.,1.));
#308=DIRECTION('center_axis',(0.,1.,0.));
#309=DIRECTION('ref_axis',(-1.,0.,0.));
#310=DIRECTION('',(1.,0.,0.));
#311=DIRECTION('',(-1.,0.,0.));
#312=DIRECTION('center_axis',(0.,0.,1.));
#313=DIRECTION('ref_axis',(1.,0.,0.));
#314=DIRECTION('center_axis',(0.,0.,1.));
#315=DIRECTION('ref_axis',(1.,0.,0.));
#316=CARTESIAN_POINT('',(0.,0.,0.));
#317=CARTESIAN_POINT('Origin',(70.,-9.43689570931383E-15,-157.294761229248));
#318=CARTESIAN_POINT('',(75.053,-9.43689570931383E-15,4.));
#319=CARTESIAN_POINT('',(64.947,-1.0055709736923E-14,4.));
#320=CARTESIAN_POINT('Origin',(70.,-9.43689570931383E-15,4.));
#321=CARTESIAN_POINT('Origin',(70.,-9.43689570931383E-15,4.));
#322=CARTESIAN_POINT('',(64.947,-1.0055709736923E-14,0.));
#323=CARTESIAN_POINT('',(64.947,-1.0055709736923E-14,-157.294761229248));
#324=CARTESIAN_POINT('Origin',(70.,-9.43689570931383E-15,0.));
#325=CARTESIAN_POINT('Origin',(-10.,-3.19999999999999,4.));
#326=CARTESIAN_POINT('',(-70.,-3.19999999999999,0.));
#327=CARTESIAN_POINT('',(-10.,-3.19999999999999,0.));
#328=CARTESIAN_POINT('',(-5.,-3.19999999999999,0.));
#329=CARTESIAN_POINT('',(-70.,-3.19999999999999,4.));
#330=CARTESIAN_POINT('',(-70.,-3.19999999999999,4.));
#331=CARTESIAN_POINT('',(-10.,-3.19999999999999,4.));
#332=CARTESIAN_POINT('',(-5.,-3.19999999999999,4.));
#333=CARTESIAN_POINT('',(-10.,-3.19999999999999,4.));
#334=CARTESIAN_POINT('Origin',(-10.,1.11022302462516E-14,4.));
#335=CARTESIAN_POINT('',(-9.99999930506459,3.20000000000001,0.));
#336=CARTESIAN_POINT('Origin',(-10.,1.11022302462516E-14,0.));
#337=CARTESIAN_POINT('',(-9.99999930506459,3.20000000000001,4.));
#338=CARTESIAN_POINT('Origin',(-10.,1.11022302462516E-14,4.));
#339=CARTESIAN_POINT('',(-9.99999930506459,3.20000000000001,4.));
#340=CARTESIAN_POINT('Origin',(-69.9999993050646,3.20000000000001,4.));
#341=CARTESIAN_POINT('',(-69.9999993050646,3.20000000000001,0.));
#342=CARTESIAN_POINT('',(-34.9999996525323,3.20000000000001,0.));
#343=CARTESIAN_POINT('',(-69.9999993050646,3.20000000000001,4.));
#344=CARTESIAN_POINT('',(-34.9999996525323,3.20000000000001,4.));
#345=CARTESIAN_POINT('',(-69.9999993050646,3.20000000000001,4.));
#346=CARTESIAN_POINT('Origin',(-70.,1.11022302462516E-14,4.));
#347=CARTESIAN_POINT('Origin',(-70.,1.11022302462516E-14,0.));
#348=CARTESIAN_POINT('Origin',(-70.,1.11022302462516E-14,4.));
#349=CARTESIAN_POINT('Origin',(80.,-10.,0.));
#350=CARTESIAN_POINT('',(80.,10.,0.));
#351=CARTESIAN_POINT('',(80.,-10.,0.));
#352=CARTESIAN_POINT('',(80.,10.,0.));
#353=CARTESIAN_POINT('',(80.,10.,4.));
#354=CARTESIAN_POINT('',(80.,10.,0.));
#355=CARTESIAN_POINT('',(80.,-10.,4.));
#356=CARTESIAN_POINT('',(80.,10.,4.));
#357=CARTESIAN_POINT('',(80.,-10.,0.));
#358=CARTESIAN_POINT('Origin',(-80.,-9.99999999999999,0.));
#359=CARTESIAN_POINT('',(-80.,-9.99999999999999,0.));
#360=CARTESIAN_POINT('',(80.,-10.,0.));
#361=CARTESIAN_POINT('',(-80.,-9.99999999999998,4.));
#362=CARTESIAN_POINT('',(80.,-10.,4.));
#363=CARTESIAN_POINT('',(-80.,-9.99999999999999,0.));
#364=CARTESIAN_POINT('Origin',(-80.,10.,0.));
#365=CARTESIAN_POINT('',(-80.,10.,0.));
#366=CARTESIAN_POINT('',(-80.,-9.99999999999999,0.));
#367=CARTESIAN_POINT('',(-80.,10.,4.));
#368=CARTESIAN_POINT('',(-80.,-9.99999999999999,4.));
#369=CARTESIAN_POINT('',(-80.,10.,0.));
#370=CARTESIAN_POINT('Origin',(80.,10.,0.));
#371=CARTESIAN_POINT('',(-80.,10.,0.));
#372=CARTESIAN_POINT('',(-80.,10.,4.));
#373=CARTESIAN_POINT('Origin',(5.9211894646675E-15,6.56881956236551E-15,
0.));
#374=CARTESIAN_POINT('Origin',(0.,6.66133814775094E-15,4.));
#375=UNCERTAINTY_MEASURE_WITH_UNIT(LENGTH_MEASURE(0.01),#379,
'DISTANCE_ACCURACY_VALUE',
'Maximum model space distance between geometric entities at asserted c
onnectivities');
#376=UNCERTAINTY_MEASURE_WITH_UNIT(LENGTH_MEASURE(0.01),#379,
'DISTANCE_ACCURACY_VALUE',
'Maximum model space distance between geometric entities at asserted c
onnectivities');
#377=(
GEOMETRIC_REPRESENTATION_CONTEXT(3)
GLOBAL_UNCERTAINTY_ASSIGNED_CONTEXT((#375))
GLOBAL_UNIT_ASSIGNED_CONTEXT((#379,#381,#382))
REPRESENTATION_CONTEXT('','3D')
);
#378=(
GEOMETRIC_REPRESENTATION_CONTEXT(3)
GLOBAL_UNCERTAINTY_ASSIGNED_CONTEXT((#376))
GLOBAL_UNIT_ASSIGNED_CONTEXT((#379,#381,#382))
REPRESENTATION_CONTEXT('','3D')
);
#379=(
LENGTH_UNIT()
NAMED_UNIT(*)
SI_UNIT(.MILLI.,.METRE.)
);
#380=(
LENGTH_UNIT()
NAMED_UNIT(*)
SI_UNIT(.CENTI.,.METRE.)
);
#381=(
NAMED_UNIT(*)
PLANE_ANGLE_UNIT()
SI_UNIT($,.RADIAN.)
);
#382=(
NAMED_UNIT(*)
SI_UNIT($,.STERADIAN.)
SOLID_ANGLE_UNIT()
);
#383=SHAPE_DEFINITION_REPRESENTATION(#384,#385);
#384=PRODUCT_DEFINITION_SHAPE('',$,#387);
#385=SHAPE_REPRESENTATION('',(#238),#377);
#386=PRODUCT_DEFINITION_CONTEXT('part definition',#391,'design');
#387=PRODUCT_DEFINITION('GSE-1201-022-001-A',
'GSE-1201-022-001-A (Support capteur M6)',#388,#386);
#388=PRODUCT_DEFINITION_FORMATION('A',$,#393);
#389=PRODUCT_RELATED_PRODUCT_CATEGORY(
'GSE-1201-022-001-A (Support capteur M6)',
'GSE-1201-022-001-A (Support capteur M6)',(#393));
#390=APPLICATION_PROTOCOL_DEFINITION('international standard',
'automotive_design',2009,#391);
#391=APPLICATION_CONTEXT(
'Core Data for Automotive Mechanical Design Process');
#392=PRODUCT_CONTEXT('part definition',#391,'mechanical');
#393=PRODUCT('GSE-1201-022-001-A',
'GSE-1201-022-001-A (Support capteur M6)',$,(#392));
#394=PRESENTATION_STYLE_ASSIGNMENT((#395));
#395=SURFACE_STYLE_USAGE(.BOTH.,#398);
#396=SURFACE_STYLE_RENDERING_WITH_PROPERTIES($,#402,(#397));
#397=SURFACE_STYLE_TRANSPARENT(0.);
#398=SURFACE_SIDE_STYLE('',(#399,#396));
#399=SURFACE_STYLE_FILL_AREA(#400);
#400=FILL_AREA_STYLE('',(#401));
#401=FILL_AREA_STYLE_COLOUR('',#402);
#402=COLOUR_RGB('',0.996078431372549,0.996078431372549,1.);
ENDSEC;
END-ISO-10303-21;
