ISO-10303-21;
HEADER;
/* Generated by software containing ST-Developer
 * from STEP Tools, Inc. (www.steptools.com) 
 */

FILE_DESCRIPTION(
/* description */ (''),
/* implementation_level */ '2;1');

FILE_NAME(
/* name */ 
'C:\\Users\\louis.petitjean\\Desktop\\GSE-1201-000-000-A Thruster Bala
nce\\Calibration null balance subsystem\\GSE-1201-042-001-A (Attach fi
xation load cell).stp',
/* time_stamp */ '2019-11-19T11:05:28+01:00',
/* author */ ('louis.petitjean'),
/* organization */ ('EXOTRAIL'),
/* preprocessor_version */ 'ST-DEVELOPER v18',
/* originating_system */ 'Autodesk Inventor 2020',
/* authorisation */ '');

FILE_SCHEMA (('AUTOMOTIVE_DESIGN { 1 0 10303 214 3 1 1 }'));
ENDSEC;

DATA;
#10=MECHANICAL_DESIGN_GEOMETRIC_PRESENTATION_REPRESENTATION('',(#13),#483);
#11=SHAPE_REPRESENTATION_RELATIONSHIP('SRR','None',#490,#12);
#12=ADVANCED_BREP_SHAPE_REPRESENTATION('',(#14),#482);
#13=STYLED_ITEM('',(#499),#14);
#14=MANIFOLD_SOLID_BREP('Solide1',#275);
#15=FACE_BOUND('',#52,.T.);
#16=FACE_BOUND('',#53,.T.);
#17=FACE_BOUND('',#54,.T.);
#18=FACE_BOUND('',#55,.T.);
#19=FACE_BOUND('',#58,.T.);
#20=FACE_BOUND('',#59,.T.);
#21=FACE_BOUND('',#60,.T.);
#22=FACE_BOUND('',#61,.T.);
#23=FACE_BOUND('',#64,.T.);
#24=FACE_BOUND('',#65,.T.);
#25=FACE_BOUND('',#67,.T.);
#26=FACE_BOUND('',#68,.T.);
#27=PLANE('',#319);
#28=PLANE('',#320);
#29=PLANE('',#321);
#30=PLANE('',#322);
#31=PLANE('',#323);
#32=PLANE('',#324);
#33=FACE_OUTER_BOUND('',#45,.T.);
#34=FACE_OUTER_BOUND('',#46,.T.);
#35=FACE_OUTER_BOUND('',#47,.T.);
#36=FACE_OUTER_BOUND('',#48,.T.);
#37=FACE_OUTER_BOUND('',#49,.T.);
#38=FACE_OUTER_BOUND('',#50,.T.);
#39=FACE_OUTER_BOUND('',#51,.T.);
#40=FACE_OUTER_BOUND('',#56,.T.);
#41=FACE_OUTER_BOUND('',#57,.T.);
#42=FACE_OUTER_BOUND('',#62,.T.);
#43=FACE_OUTER_BOUND('',#63,.T.);
#44=FACE_OUTER_BOUND('',#66,.T.);
#45=EDGE_LOOP('',(#185,#186,#187,#188,#189));
#46=EDGE_LOOP('',(#190,#191,#192,#193,#194));
#47=EDGE_LOOP('',(#195,#196,#197,#198,#199));
#48=EDGE_LOOP('',(#200,#201,#202,#203,#204));
#49=EDGE_LOOP('',(#205,#206,#207,#208,#209));
#50=EDGE_LOOP('',(#210,#211,#212,#213,#214));
#51=EDGE_LOOP('',(#215,#216,#217,#218));
#52=EDGE_LOOP('',(#219));
#53=EDGE_LOOP('',(#220));
#54=EDGE_LOOP('',(#221));
#55=EDGE_LOOP('',(#222));
#56=EDGE_LOOP('',(#223,#224,#225,#226));
#57=EDGE_LOOP('',(#227,#228,#229,#230));
#58=EDGE_LOOP('',(#231,#232));
#59=EDGE_LOOP('',(#233,#234));
#60=EDGE_LOOP('',(#235,#236));
#61=EDGE_LOOP('',(#237,#238));
#62=EDGE_LOOP('',(#239,#240,#241,#242));
#63=EDGE_LOOP('',(#243,#244,#245,#246));
#64=EDGE_LOOP('',(#247,#248));
#65=EDGE_LOOP('',(#249,#250));
#66=EDGE_LOOP('',(#251,#252,#253,#254));
#67=EDGE_LOOP('',(#255));
#68=EDGE_LOOP('',(#256));
#69=LINE('',#412,#87);
#70=LINE('',#420,#88);
#71=LINE('',#428,#89);
#72=LINE('',#436,#90);
#73=LINE('',#444,#91);
#74=LINE('',#452,#92);
#75=LINE('',#457,#93);
#76=LINE('',#459,#94);
#77=LINE('',#461,#95);
#78=LINE('',#462,#96);
#79=LINE('',#465,#97);
#80=LINE('',#467,#98);
#81=LINE('',#468,#99);
#82=LINE('',#471,#100);
#83=LINE('',#473,#101);
#84=LINE('',#474,#102);
#85=LINE('',#476,#103);
#86=LINE('',#477,#104);
#87=VECTOR('',#333,2.9);
#88=VECTOR('',#342,2.9);
#89=VECTOR('',#351,2.9);
#90=VECTOR('',#360,2.9);
#91=VECTOR('',#369,2.067);
#92=VECTOR('',#378,2.067);
#93=VECTOR('',#383,10.);
#94=VECTOR('',#384,10.);
#95=VECTOR('',#385,10.);
#96=VECTOR('',#386,10.);
#97=VECTOR('',#389,10.);
#98=VECTOR('',#390,10.);
#99=VECTOR('',#391,10.);
#100=VECTOR('',#394,10.);
#101=VECTOR('',#395,10.);
#102=VECTOR('',#396,10.);
#103=VECTOR('',#399,10.);
#104=VECTOR('',#400,10.);
#105=CIRCLE('',#296,2.9);
#106=CIRCLE('',#297,2.9);
#107=CIRCLE('',#298,2.9);
#108=CIRCLE('',#300,2.9);
#109=CIRCLE('',#301,2.9);
#110=CIRCLE('',#302,2.9);
#111=CIRCLE('',#304,2.9);
#112=CIRCLE('',#305,2.9);
#113=CIRCLE('',#306,2.9);
#114=CIRCLE('',#308,2.9);
#115=CIRCLE('',#309,2.9);
#116=CIRCLE('',#310,2.9);
#117=CIRCLE('',#312,2.067);
#118=CIRCLE('',#313,2.067);
#119=CIRCLE('',#314,2.067);
#120=CIRCLE('',#316,2.067);
#121=CIRCLE('',#317,2.067);
#122=CIRCLE('',#318,2.067);
#123=VERTEX_POINT('',#407);
#124=VERTEX_POINT('',#408);
#125=VERTEX_POINT('',#411);
#126=VERTEX_POINT('',#415);
#127=VERTEX_POINT('',#416);
#128=VERTEX_POINT('',#419);
#129=VERTEX_POINT('',#423);
#130=VERTEX_POINT('',#424);
#131=VERTEX_POINT('',#427);
#132=VERTEX_POINT('',#431);
#133=VERTEX_POINT('',#432);
#134=VERTEX_POINT('',#435);
#135=VERTEX_POINT('',#439);
#136=VERTEX_POINT('',#440);
#137=VERTEX_POINT('',#443);
#138=VERTEX_POINT('',#447);
#139=VERTEX_POINT('',#448);
#140=VERTEX_POINT('',#451);
#141=VERTEX_POINT('',#455);
#142=VERTEX_POINT('',#456);
#143=VERTEX_POINT('',#458);
#144=VERTEX_POINT('',#460);
#145=VERTEX_POINT('',#464);
#146=VERTEX_POINT('',#466);
#147=VERTEX_POINT('',#470);
#148=VERTEX_POINT('',#472);
#149=EDGE_CURVE('',#123,#124,#105,.T.);
#150=EDGE_CURVE('',#124,#123,#106,.T.);
#151=EDGE_CURVE('',#124,#125,#69,.T.);
#152=EDGE_CURVE('',#125,#125,#107,.T.);
#153=EDGE_CURVE('',#126,#127,#108,.T.);
#154=EDGE_CURVE('',#127,#126,#109,.T.);
#155=EDGE_CURVE('',#127,#128,#70,.T.);
#156=EDGE_CURVE('',#128,#128,#110,.T.);
#157=EDGE_CURVE('',#129,#130,#111,.T.);
#158=EDGE_CURVE('',#130,#129,#112,.T.);
#159=EDGE_CURVE('',#130,#131,#71,.T.);
#160=EDGE_CURVE('',#131,#131,#113,.T.);
#161=EDGE_CURVE('',#132,#133,#114,.T.);
#162=EDGE_CURVE('',#133,#132,#115,.T.);
#163=EDGE_CURVE('',#133,#134,#72,.T.);
#164=EDGE_CURVE('',#134,#134,#116,.T.);
#165=EDGE_CURVE('',#135,#136,#117,.T.);
#166=EDGE_CURVE('',#136,#135,#118,.T.);
#167=EDGE_CURVE('',#136,#137,#73,.T.);
#168=EDGE_CURVE('',#137,#137,#119,.T.);
#169=EDGE_CURVE('',#138,#139,#120,.T.);
#170=EDGE_CURVE('',#139,#138,#121,.T.);
#171=EDGE_CURVE('',#139,#140,#74,.T.);
#172=EDGE_CURVE('',#140,#140,#122,.T.);
#173=EDGE_CURVE('',#141,#142,#75,.T.);
#174=EDGE_CURVE('',#142,#143,#76,.T.);
#175=EDGE_CURVE('',#144,#143,#77,.T.);
#176=EDGE_CURVE('',#141,#144,#78,.T.);
#177=EDGE_CURVE('',#145,#141,#79,.T.);
#178=EDGE_CURVE('',#146,#144,#80,.T.);
#179=EDGE_CURVE('',#145,#146,#81,.T.);
#180=EDGE_CURVE('',#147,#145,#82,.T.);
#181=EDGE_CURVE('',#148,#146,#83,.T.);
#182=EDGE_CURVE('',#147,#148,#84,.T.);
#183=EDGE_CURVE('',#142,#147,#85,.T.);
#184=EDGE_CURVE('',#143,#148,#86,.T.);
#185=ORIENTED_EDGE('',*,*,#149,.F.);
#186=ORIENTED_EDGE('',*,*,#150,.F.);
#187=ORIENTED_EDGE('',*,*,#151,.T.);
#188=ORIENTED_EDGE('',*,*,#152,.F.);
#189=ORIENTED_EDGE('',*,*,#151,.F.);
#190=ORIENTED_EDGE('',*,*,#153,.F.);
#191=ORIENTED_EDGE('',*,*,#154,.F.);
#192=ORIENTED_EDGE('',*,*,#155,.T.);
#193=ORIENTED_EDGE('',*,*,#156,.F.);
#194=ORIENTED_EDGE('',*,*,#155,.F.);
#195=ORIENTED_EDGE('',*,*,#157,.F.);
#196=ORIENTED_EDGE('',*,*,#158,.F.);
#197=ORIENTED_EDGE('',*,*,#159,.T.);
#198=ORIENTED_EDGE('',*,*,#160,.F.);
#199=ORIENTED_EDGE('',*,*,#159,.F.);
#200=ORIENTED_EDGE('',*,*,#161,.F.);
#201=ORIENTED_EDGE('',*,*,#162,.F.);
#202=ORIENTED_EDGE('',*,*,#163,.T.);
#203=ORIENTED_EDGE('',*,*,#164,.F.);
#204=ORIENTED_EDGE('',*,*,#163,.F.);
#205=ORIENTED_EDGE('',*,*,#165,.F.);
#206=ORIENTED_EDGE('',*,*,#166,.F.);
#207=ORIENTED_EDGE('',*,*,#167,.T.);
#208=ORIENTED_EDGE('',*,*,#168,.F.);
#209=ORIENTED_EDGE('',*,*,#167,.F.);
#210=ORIENTED_EDGE('',*,*,#169,.F.);
#211=ORIENTED_EDGE('',*,*,#170,.F.);
#212=ORIENTED_EDGE('',*,*,#171,.T.);
#213=ORIENTED_EDGE('',*,*,#172,.F.);
#214=ORIENTED_EDGE('',*,*,#171,.F.);
#215=ORIENTED_EDGE('',*,*,#173,.T.);
#216=ORIENTED_EDGE('',*,*,#174,.T.);
#217=ORIENTED_EDGE('',*,*,#175,.F.);
#218=ORIENTED_EDGE('',*,*,#176,.F.);
#219=ORIENTED_EDGE('',*,*,#152,.T.);
#220=ORIENTED_EDGE('',*,*,#156,.T.);
#221=ORIENTED_EDGE('',*,*,#160,.T.);
#222=ORIENTED_EDGE('',*,*,#164,.T.);
#223=ORIENTED_EDGE('',*,*,#177,.T.);
#224=ORIENTED_EDGE('',*,*,#176,.T.);
#225=ORIENTED_EDGE('',*,*,#178,.F.);
#226=ORIENTED_EDGE('',*,*,#179,.F.);
#227=ORIENTED_EDGE('',*,*,#180,.T.);
#228=ORIENTED_EDGE('',*,*,#179,.T.);
#229=ORIENTED_EDGE('',*,*,#181,.F.);
#230=ORIENTED_EDGE('',*,*,#182,.F.);
#231=ORIENTED_EDGE('',*,*,#149,.T.);
#232=ORIENTED_EDGE('',*,*,#150,.T.);
#233=ORIENTED_EDGE('',*,*,#153,.T.);
#234=ORIENTED_EDGE('',*,*,#154,.T.);
#235=ORIENTED_EDGE('',*,*,#157,.T.);
#236=ORIENTED_EDGE('',*,*,#158,.T.);
#237=ORIENTED_EDGE('',*,*,#161,.T.);
#238=ORIENTED_EDGE('',*,*,#162,.T.);
#239=ORIENTED_EDGE('',*,*,#183,.T.);
#240=ORIENTED_EDGE('',*,*,#182,.T.);
#241=ORIENTED_EDGE('',*,*,#184,.F.);
#242=ORIENTED_EDGE('',*,*,#174,.F.);
#243=ORIENTED_EDGE('',*,*,#184,.T.);
#244=ORIENTED_EDGE('',*,*,#181,.T.);
#245=ORIENTED_EDGE('',*,*,#178,.T.);
#246=ORIENTED_EDGE('',*,*,#175,.T.);
#247=ORIENTED_EDGE('',*,*,#165,.T.);
#248=ORIENTED_EDGE('',*,*,#166,.T.);
#249=ORIENTED_EDGE('',*,*,#169,.T.);
#250=ORIENTED_EDGE('',*,*,#170,.T.);
#251=ORIENTED_EDGE('',*,*,#183,.F.);
#252=ORIENTED_EDGE('',*,*,#173,.F.);
#253=ORIENTED_EDGE('',*,*,#177,.F.);
#254=ORIENTED_EDGE('',*,*,#180,.F.);
#255=ORIENTED_EDGE('',*,*,#168,.T.);
#256=ORIENTED_EDGE('',*,*,#172,.T.);
#257=CYLINDRICAL_SURFACE('',#295,2.9);
#258=CYLINDRICAL_SURFACE('',#299,2.9);
#259=CYLINDRICAL_SURFACE('',#303,2.9);
#260=CYLINDRICAL_SURFACE('',#307,2.9);
#261=CYLINDRICAL_SURFACE('',#311,2.067);
#262=CYLINDRICAL_SURFACE('',#315,2.067);
#263=ADVANCED_FACE('',(#33),#257,.F.);
#264=ADVANCED_FACE('',(#34),#258,.F.);
#265=ADVANCED_FACE('',(#35),#259,.F.);
#266=ADVANCED_FACE('',(#36),#260,.F.);
#267=ADVANCED_FACE('',(#37),#261,.F.);
#268=ADVANCED_FACE('',(#38),#262,.F.);
#269=ADVANCED_FACE('',(#39,#15,#16,#17,#18),#27,.T.);
#270=ADVANCED_FACE('',(#40),#28,.T.);
#271=ADVANCED_FACE('',(#41,#19,#20,#21,#22),#29,.T.);
#272=ADVANCED_FACE('',(#42),#30,.T.);
#273=ADVANCED_FACE('',(#43,#23,#24),#31,.T.);
#274=ADVANCED_FACE('',(#44,#25,#26),#32,.F.);
#275=CLOSED_SHELL('',(#263,#264,#265,#266,#267,#268,#269,#270,#271,#272,
#273,#274));
#276=DERIVED_UNIT_ELEMENT(#278,1.);
#277=DERIVED_UNIT_ELEMENT(#485,3.);
#278=(
MASS_UNIT()
NAMED_UNIT(*)
SI_UNIT($,.GRAM.)
);
#279=DERIVED_UNIT((#276,#277));
#280=MEASURE_REPRESENTATION_ITEM('density measure',
POSITIVE_RATIO_MEASURE(2.7),#279);
#281=PROPERTY_DEFINITION_REPRESENTATION(#286,#283);
#282=PROPERTY_DEFINITION_REPRESENTATION(#287,#284);
#283=REPRESENTATION('material name',(#285),#482);
#284=REPRESENTATION('density',(#280),#482);
#285=DESCRIPTIVE_REPRESENTATION_ITEM('Aluminium 6061','Aluminium 6061');
#286=PROPERTY_DEFINITION('material property','material name',#492);
#287=PROPERTY_DEFINITION('material property','density of part',#492);
#288=DATE_TIME_ROLE('creation_date');
#289=APPLIED_DATE_AND_TIME_ASSIGNMENT(#290,#288,(#492));
#290=DATE_AND_TIME(#291,#292);
#291=CALENDAR_DATE(2019,15,11);
#292=LOCAL_TIME(13,22,15.,#293);
#293=COORDINATED_UNIVERSAL_TIME_OFFSET(0,0,.BEHIND.);
#294=AXIS2_PLACEMENT_3D('placement',#405,#325,#326);
#295=AXIS2_PLACEMENT_3D('',#406,#327,#328);
#296=AXIS2_PLACEMENT_3D('',#409,#329,#330);
#297=AXIS2_PLACEMENT_3D('',#410,#331,#332);
#298=AXIS2_PLACEMENT_3D('',#413,#334,#335);
#299=AXIS2_PLACEMENT_3D('',#414,#336,#337);
#300=AXIS2_PLACEMENT_3D('',#417,#338,#339);
#301=AXIS2_PLACEMENT_3D('',#418,#340,#341);
#302=AXIS2_PLACEMENT_3D('',#421,#343,#344);
#303=AXIS2_PLACEMENT_3D('',#422,#345,#346);
#304=AXIS2_PLACEMENT_3D('',#425,#347,#348);
#305=AXIS2_PLACEMENT_3D('',#426,#349,#350);
#306=AXIS2_PLACEMENT_3D('',#429,#352,#353);
#307=AXIS2_PLACEMENT_3D('',#430,#354,#355);
#308=AXIS2_PLACEMENT_3D('',#433,#356,#357);
#309=AXIS2_PLACEMENT_3D('',#434,#358,#359);
#310=AXIS2_PLACEMENT_3D('',#437,#361,#362);
#311=AXIS2_PLACEMENT_3D('',#438,#363,#364);
#312=AXIS2_PLACEMENT_3D('',#441,#365,#366);
#313=AXIS2_PLACEMENT_3D('',#442,#367,#368);
#314=AXIS2_PLACEMENT_3D('',#445,#370,#371);
#315=AXIS2_PLACEMENT_3D('',#446,#372,#373);
#316=AXIS2_PLACEMENT_3D('',#449,#374,#375);
#317=AXIS2_PLACEMENT_3D('',#450,#376,#377);
#318=AXIS2_PLACEMENT_3D('',#453,#379,#380);
#319=AXIS2_PLACEMENT_3D('',#454,#381,#382);
#320=AXIS2_PLACEMENT_3D('',#463,#387,#388);
#321=AXIS2_PLACEMENT_3D('',#469,#392,#393);
#322=AXIS2_PLACEMENT_3D('',#475,#397,#398);
#323=AXIS2_PLACEMENT_3D('',#478,#401,#402);
#324=AXIS2_PLACEMENT_3D('',#479,#403,#404);
#325=DIRECTION('axis',(0.,0.,1.));
#326=DIRECTION('refdir',(1.,0.,0.));
#327=DIRECTION('center_axis',(0.,1.,5.55111512312578E-17));
#328=DIRECTION('ref_axis',(1.,0.,0.));
#329=DIRECTION('center_axis',(0.,-1.,-5.55111512312578E-17));
#330=DIRECTION('ref_axis',(1.,0.,0.));
#331=DIRECTION('center_axis',(0.,-1.,-5.55111512312578E-17));
#332=DIRECTION('ref_axis',(1.,0.,0.));
#333=DIRECTION('',(0.,-1.,-5.55111512312578E-17));
#334=DIRECTION('center_axis',(0.,1.,0.));
#335=DIRECTION('ref_axis',(1.,0.,0.));
#336=DIRECTION('center_axis',(0.,1.,5.55111512312578E-17));
#337=DIRECTION('ref_axis',(1.,0.,0.));
#338=DIRECTION('center_axis',(0.,-1.,-5.55111512312578E-17));
#339=DIRECTION('ref_axis',(1.,0.,0.));
#340=DIRECTION('center_axis',(0.,-1.,-5.55111512312578E-17));
#341=DIRECTION('ref_axis',(1.,0.,0.));
#342=DIRECTION('',(0.,-1.,-5.55111512312578E-17));
#343=DIRECTION('center_axis',(0.,1.,0.));
#344=DIRECTION('ref_axis',(1.,0.,0.));
#345=DIRECTION('center_axis',(0.,1.,5.55111512312578E-17));
#346=DIRECTION('ref_axis',(1.,0.,0.));
#347=DIRECTION('center_axis',(0.,-1.,-5.55111512312578E-17));
#348=DIRECTION('ref_axis',(1.,0.,0.));
#349=DIRECTION('center_axis',(0.,-1.,-5.55111512312578E-17));
#350=DIRECTION('ref_axis',(1.,0.,0.));
#351=DIRECTION('',(0.,-1.,-5.55111512312578E-17));
#352=DIRECTION('center_axis',(0.,1.,0.));
#353=DIRECTION('ref_axis',(1.,0.,0.));
#354=DIRECTION('center_axis',(0.,1.,5.55111512312578E-17));
#355=DIRECTION('ref_axis',(1.,0.,0.));
#356=DIRECTION('center_axis',(0.,-1.,-5.55111512312578E-17));
#357=DIRECTION('ref_axis',(1.,0.,0.));
#358=DIRECTION('center_axis',(0.,-1.,-5.55111512312578E-17));
#359=DIRECTION('ref_axis',(1.,0.,0.));
#360=DIRECTION('',(0.,-1.,-5.55111512312578E-17));
#361=DIRECTION('center_axis',(0.,1.,0.));
#362=DIRECTION('ref_axis',(1.,0.,0.));
#363=DIRECTION('center_axis',(1.,0.,0.));
#364=DIRECTION('ref_axis',(0.,0.,-1.));
#365=DIRECTION('center_axis',(-1.,0.,0.));
#366=DIRECTION('ref_axis',(0.,0.,-1.));
#367=DIRECTION('center_axis',(-1.,0.,0.));
#368=DIRECTION('ref_axis',(0.,0.,-1.));
#369=DIRECTION('',(-1.,0.,0.));
#370=DIRECTION('center_axis',(1.,0.,0.));
#371=DIRECTION('ref_axis',(0.,0.,-1.));
#372=DIRECTION('center_axis',(1.,0.,0.));
#373=DIRECTION('ref_axis',(0.,0.,-1.));
#374=DIRECTION('center_axis',(-1.,0.,0.));
#375=DIRECTION('ref_axis',(0.,0.,-1.));
#376=DIRECTION('center_axis',(-1.,0.,0.));
#377=DIRECTION('ref_axis',(0.,0.,-1.));
#378=DIRECTION('',(-1.,0.,0.));
#379=DIRECTION('center_axis',(1.,0.,0.));
#380=DIRECTION('ref_axis',(0.,0.,-1.));
#381=DIRECTION('center_axis',(0.,-1.,0.));
#382=DIRECTION('ref_axis',(0.,0.,-1.));
#383=DIRECTION('',(0.,0.,-1.));
#384=DIRECTION('',(1.,0.,0.));
#385=DIRECTION('',(0.,0.,-1.));
#386=DIRECTION('',(1.,0.,0.));
#387=DIRECTION('center_axis',(0.,1.23259516440783E-31,1.));
#388=DIRECTION('ref_axis',(0.,-1.,1.23259516440783E-31));
#389=DIRECTION('',(0.,-1.,1.23259516440783E-31));
#390=DIRECTION('',(0.,-1.,1.23259516440783E-31));
#391=DIRECTION('',(1.,0.,0.));
#392=DIRECTION('center_axis',(0.,1.,5.55111512312578E-17));
#393=DIRECTION('ref_axis',(0.,-5.55111512312578E-17,1.));
#394=DIRECTION('',(0.,-5.55111512312578E-17,1.));
#395=DIRECTION('',(0.,-5.55111512312578E-17,1.));
#396=DIRECTION('',(1.,0.,0.));
#397=DIRECTION('center_axis',(0.,4.44089209850062E-16,-1.));
#398=DIRECTION('ref_axis',(0.,1.,4.44089209850062E-16));
#399=DIRECTION('',(0.,1.,4.44089209850062E-16));
#400=DIRECTION('',(0.,1.,4.44089209850062E-16));
#401=DIRECTION('center_axis',(1.,0.,0.));
#402=DIRECTION('ref_axis',(0.,0.,-1.));
#403=DIRECTION('center_axis',(1.,0.,0.));
#404=DIRECTION('ref_axis',(0.,0.,-1.));
#405=CARTESIAN_POINT('',(0.,0.,0.));
#406=CARTESIAN_POINT('Origin',(15.,-81.9803902718557,-57.5));
#407=CARTESIAN_POINT('',(17.9,20.,-57.5));
#408=CARTESIAN_POINT('',(12.1,20.,-57.5));
#409=CARTESIAN_POINT('Origin',(15.,20.,-57.5));
#410=CARTESIAN_POINT('Origin',(15.,20.,-57.5));
#411=CARTESIAN_POINT('',(12.1,0.,-57.5));
#412=CARTESIAN_POINT('',(12.1,-81.9803902718557,-57.5));
#413=CARTESIAN_POINT('Origin',(15.,0.,-57.5));
#414=CARTESIAN_POINT('Origin',(45.,-81.9803902718557,-22.5));
#415=CARTESIAN_POINT('',(47.9,20.,-22.5));
#416=CARTESIAN_POINT('',(42.1,20.,-22.5));
#417=CARTESIAN_POINT('Origin',(45.,20.,-22.5));
#418=CARTESIAN_POINT('Origin',(45.,20.,-22.5));
#419=CARTESIAN_POINT('',(42.1,0.,-22.5));
#420=CARTESIAN_POINT('',(42.1,-81.9803902718557,-22.5));
#421=CARTESIAN_POINT('Origin',(45.,0.,-22.5));
#422=CARTESIAN_POINT('Origin',(15.,-81.9803902718557,-22.5));
#423=CARTESIAN_POINT('',(17.9,20.,-22.5));
#424=CARTESIAN_POINT('',(12.1,20.,-22.5));
#425=CARTESIAN_POINT('Origin',(15.,20.,-22.5));
#426=CARTESIAN_POINT('Origin',(15.,20.,-22.5));
#427=CARTESIAN_POINT('',(12.1,0.,-22.5));
#428=CARTESIAN_POINT('',(12.1,-81.9803902718557,-22.5));
#429=CARTESIAN_POINT('Origin',(15.,0.,-22.5));
#430=CARTESIAN_POINT('Origin',(45.,-81.9803902718557,-57.5));
#431=CARTESIAN_POINT('',(47.9,20.,-57.5));
#432=CARTESIAN_POINT('',(42.1,20.,-57.5));
#433=CARTESIAN_POINT('Origin',(45.,20.,-57.5));
#434=CARTESIAN_POINT('Origin',(45.,20.,-57.5));
#435=CARTESIAN_POINT('',(42.1,0.,-57.5));
#436=CARTESIAN_POINT('',(42.1,-81.9803902718557,-57.5));
#437=CARTESIAN_POINT('Origin',(45.,0.,-57.5));
#438=CARTESIAN_POINT('Origin',(-41.9803902718557,10.,-10.));
#439=CARTESIAN_POINT('',(60.,10.,-12.067));
#440=CARTESIAN_POINT('',(60.,10.,-7.933));
#441=CARTESIAN_POINT('Origin',(60.,10.,-10.));
#442=CARTESIAN_POINT('Origin',(60.,10.,-10.));
#443=CARTESIAN_POINT('',(0.,10.,-7.933));
#444=CARTESIAN_POINT('',(-41.9803902718557,10.,-7.933));
#445=CARTESIAN_POINT('Origin',(0.,10.,-10.));
#446=CARTESIAN_POINT('Origin',(-41.9803902718557,10.,-70.));
#447=CARTESIAN_POINT('',(60.,10.,-72.067));
#448=CARTESIAN_POINT('',(60.,10.,-67.933));
#449=CARTESIAN_POINT('Origin',(60.,10.,-70.));
#450=CARTESIAN_POINT('Origin',(60.,10.,-70.));
#451=CARTESIAN_POINT('',(0.,10.,-67.933));
#452=CARTESIAN_POINT('',(-41.9803902718557,10.,-67.933));
#453=CARTESIAN_POINT('Origin',(0.,10.,-70.));
#454=CARTESIAN_POINT('Origin',(0.,0.,0.));
#455=CARTESIAN_POINT('',(0.,0.,0.));
#456=CARTESIAN_POINT('',(0.,0.,-80.));
#457=CARTESIAN_POINT('',(0.,0.,0.));
#458=CARTESIAN_POINT('',(60.,0.,-80.));
#459=CARTESIAN_POINT('',(0.,0.,-80.));
#460=CARTESIAN_POINT('',(60.,0.,0.));
#461=CARTESIAN_POINT('',(60.,0.,0.));
#462=CARTESIAN_POINT('',(0.,0.,0.));
#463=CARTESIAN_POINT('Origin',(0.,20.,-2.46519032881566E-30));
#464=CARTESIAN_POINT('',(0.,20.,-2.46519032881566E-30));
#465=CARTESIAN_POINT('',(0.,20.,-2.46519032881566E-30));
#466=CARTESIAN_POINT('',(60.,20.,0.));
#467=CARTESIAN_POINT('',(60.,20.,-2.46519032881566E-30));
#468=CARTESIAN_POINT('',(0.,20.,-2.46519032881566E-30));
#469=CARTESIAN_POINT('Origin',(0.,20.,-80.));
#470=CARTESIAN_POINT('',(0.,20.,-80.));
#471=CARTESIAN_POINT('',(0.,20.,-80.));
#472=CARTESIAN_POINT('',(60.,20.,-80.));
#473=CARTESIAN_POINT('',(60.,20.,-80.));
#474=CARTESIAN_POINT('',(0.,20.,-80.));
#475=CARTESIAN_POINT('Origin',(0.,0.,-80.));
#476=CARTESIAN_POINT('',(0.,0.,-80.));
#477=CARTESIAN_POINT('',(60.,0.,-80.));
#478=CARTESIAN_POINT('Origin',(60.,10.,-40.));
#479=CARTESIAN_POINT('Origin',(0.,10.,-40.));
#480=UNCERTAINTY_MEASURE_WITH_UNIT(LENGTH_MEASURE(0.01),#484,
'DISTANCE_ACCURACY_VALUE',
'Maximum model space distance between geometric entities at asserted c
onnectivities');
#481=UNCERTAINTY_MEASURE_WITH_UNIT(LENGTH_MEASURE(0.01),#484,
'DISTANCE_ACCURACY_VALUE',
'Maximum model space distance between geometric entities at asserted c
onnectivities');
#482=(
GEOMETRIC_REPRESENTATION_CONTEXT(3)
GLOBAL_UNCERTAINTY_ASSIGNED_CONTEXT((#480))
GLOBAL_UNIT_ASSIGNED_CONTEXT((#484,#486,#487))
REPRESENTATION_CONTEXT('','3D')
);
#483=(
GEOMETRIC_REPRESENTATION_CONTEXT(3)
GLOBAL_UNCERTAINTY_ASSIGNED_CONTEXT((#481))
GLOBAL_UNIT_ASSIGNED_CONTEXT((#484,#486,#487))
REPRESENTATION_CONTEXT('','3D')
);
#484=(
LENGTH_UNIT()
NAMED_UNIT(*)
SI_UNIT(.MILLI.,.METRE.)
);
#485=(
LENGTH_UNIT()
NAMED_UNIT(*)
SI_UNIT(.CENTI.,.METRE.)
);
#486=(
NAMED_UNIT(*)
PLANE_ANGLE_UNIT()
SI_UNIT($,.RADIAN.)
);
#487=(
NAMED_UNIT(*)
SI_UNIT($,.STERADIAN.)
SOLID_ANGLE_UNIT()
);
#488=SHAPE_DEFINITION_REPRESENTATION(#489,#490);
#489=PRODUCT_DEFINITION_SHAPE('',$,#492);
#490=SHAPE_REPRESENTATION('',(#294),#482);
#491=PRODUCT_DEFINITION_CONTEXT('part definition',#496,'design');
#492=PRODUCT_DEFINITION('Attach fixation weight sensor',
'GSE-1201-042-001-A (Attach fixation load cell)',#493,#491);
#493=PRODUCT_DEFINITION_FORMATION('A',$,#498);
#494=PRODUCT_RELATED_PRODUCT_CATEGORY(
'GSE-1201-042-001-A (Attach fixation load cell)',
'GSE-1201-042-001-A (Attach fixation load cell)',(#498));
#495=APPLICATION_PROTOCOL_DEFINITION('international standard',
'automotive_design',2009,#496);
#496=APPLICATION_CONTEXT(
'Core Data for Automotive Mechanical Design Process');
#497=PRODUCT_CONTEXT('part definition',#496,'mechanical');
#498=PRODUCT('Attach fixation weight sensor',
'GSE-1201-042-001-A (Attach fixation load cell)',$,(#497));
#499=PRESENTATION_STYLE_ASSIGNMENT((#500));
#500=SURFACE_STYLE_USAGE(.BOTH.,#503);
#501=SURFACE_STYLE_RENDERING_WITH_PROPERTIES($,#507,(#502));
#502=SURFACE_STYLE_TRANSPARENT(0.);
#503=SURFACE_SIDE_STYLE('',(#504,#501));
#504=SURFACE_STYLE_FILL_AREA(#505);
#505=FILL_AREA_STYLE('',(#506));
#506=FILL_AREA_STYLE_COLOUR('',#507);
#507=COLOUR_RGB('',0.996078431372549,0.996078431372549,1.);
ENDSEC;
END-ISO-10303-21;
