ISO-10303-21;
HEADER;
FILE_DESCRIPTION(('CATIA V5 STEP Exchange'),'2;1');

FILE_NAME('C:\\Users\\Julien\\Documents\\CATIA\\Colonne XV\\03.11.19\\Axe direction.stp','2019-11-03T20:32:04+00:00',('none'),('none'),'CATIA Version 5 Release 20 GA (IN-10)','CATIA V5 STEP AP203','none');

FILE_SCHEMA(('CONFIG_CONTROL_DESIGN'));

ENDSEC;
/* file written by CATIA V5R20 */
DATA;
#5=PRODUCT('Axe direction','','',(#2)) ;
#1=APPLICATION_CONTEXT('configuration controlled 3D design of mechanical parts and assemblies') ;
#14=PRODUCT_DEFINITION('',' ',#6,#3) ;
#16=SECURITY_CLASSIFICATION(' ',' ',#15) ;
#15=SECURITY_CLASSIFICATION_LEVEL('unclassified') ;
#47=CARTESIAN_POINT(' ',(0.,0.,0.)) ;
#52=CARTESIAN_POINT('Axis2P3D Location',(3.15000000037,0.,0.)) ;
#57=CARTESIAN_POINT('Axis2P3D Location',(-125.7,0.,0.)) ;
#61=CARTESIAN_POINT('Vertex',(-125.7,8.11763869749,4.43468623209)) ;
#63=CARTESIAN_POINT('Vertex',(-125.7,-8.11763869749,-4.43468623209)) ;
#66=CARTESIAN_POINT('Line Origine',(3.15,8.11763869749,4.43468623209)) ;
#70=CARTESIAN_POINT('Vertex',(132.,8.11763869749,4.43468623209)) ;
#73=CARTESIAN_POINT('Axis2P3D Location',(132.,0.,0.)) ;
#77=CARTESIAN_POINT('Vertex',(132.,-8.11763869749,-4.43468623209)) ;
#80=CARTESIAN_POINT('Line Origine',(3.15,-8.11763869749,-4.43468623209)) ;
#92=CARTESIAN_POINT('Axis2P3D Location',(-125.7,0.,0.)) ;
#97=CARTESIAN_POINT('Axis2P3D Location',(132.,0.,0.)) ;
#109=CARTESIAN_POINT('Axis2P3D Location',(3.15000000037,0.,0.)) ;
#114=CARTESIAN_POINT('Axis2P3D Location',(132.,0.,0.)) ;
#118=CARTESIAN_POINT('Vertex',(132.,12.2861558665,6.71195754046)) ;
#120=CARTESIAN_POINT('Vertex',(132.,-12.2861558665,-6.71195754046)) ;
#123=CARTESIAN_POINT('Line Origine',(130.5,12.2861558665,6.71195754046)) ;
#127=CARTESIAN_POINT('Vertex',(129.,12.2861558665,6.71195754046)) ;
#130=CARTESIAN_POINT('Axis2P3D Location',(129.,0.,0.)) ;
#134=CARTESIAN_POINT('Vertex',(129.,-12.2861558665,-6.71195754046)) ;
#137=CARTESIAN_POINT('Line Origine',(130.5,-12.2861558665,-6.71195754046)) ;
#149=CARTESIAN_POINT('Axis2P3D Location',(132.,0.,0.)) ;
#154=CARTESIAN_POINT('Axis2P3D Location',(129.,0.,0.)) ;
#166=CARTESIAN_POINT('Axis2P3D Location',(3.15000000037,0.,0.)) ;
#171=CARTESIAN_POINT('Axis2P3D Location',(129.,0.,0.)) ;
#175=CARTESIAN_POINT('Vertex',(129.,11.4085733046,6.23253200185)) ;
#177=CARTESIAN_POINT('Vertex',(129.,-11.4085733046,-6.23253200185)) ;
#180=CARTESIAN_POINT('Line Origine',(113.25,11.4085733046,6.23253200185)) ;
#184=CARTESIAN_POINT('Vertex',(97.5,11.4085733046,6.23253200185)) ;
#187=CARTESIAN_POINT('Axis2P3D Location',(97.5,0.,0.)) ;
#191=CARTESIAN_POINT('Vertex',(97.5,-11.4085733046,-6.23253200185)) ;
#194=CARTESIAN_POINT('Line Origine',(113.25,-11.4085733046,-6.23253200185)) ;
#206=CARTESIAN_POINT('Axis2P3D Location',(129.,0.,0.)) ;
#211=CARTESIAN_POINT('Axis2P3D Location',(97.5,0.,0.)) ;
#223=CARTESIAN_POINT('Axis2P3D Location',(3.15000000037,0.,0.)) ;
#228=CARTESIAN_POINT('Axis2P3D Location',(97.5,0.,0.)) ;
#232=CARTESIAN_POINT('Vertex',(97.5,10.9478424596,5.98083359409)) ;
#234=CARTESIAN_POINT('Vertex',(97.5,-10.9478424596,-5.98083359409)) ;
#237=CARTESIAN_POINT('Line Origine',(-8.1,10.9478424596,5.98083359409)) ;
#241=CARTESIAN_POINT('Vertex',(70.2,10.9478424596,5.98083359409)) ;
#244=CARTESIAN_POINT('Axis2P3D Location',(70.2,0.,0.)) ;
#248=CARTESIAN_POINT('Vertex',(70.2,-10.9478424596,-5.98083359409)) ;
#251=CARTESIAN_POINT('Line Origine',(-8.1,-10.9478424596,-5.98083359409)) ;
#263=CARTESIAN_POINT('Axis2P3D Location',(97.5,0.,0.)) ;
#268=CARTESIAN_POINT('Axis2P3D Location',(70.2,0.,0.)) ;
#280=CARTESIAN_POINT('Axis2P3D Location',(53.3406728534,0.,0.)) ;
#285=CARTESIAN_POINT('Line Origine',(61.7703364267,10.3006253202,5.62725725937)) ;
#289=CARTESIAN_POINT('Vertex',(53.3406728534,9.65340818079,5.27368092465)) ;
#292=CARTESIAN_POINT('Axis2P3D Location',(53.3406728534,0.,0.)) ;
#296=CARTESIAN_POINT('Vertex',(53.3406728534,-9.65340818079,-5.27368092465)) ;
#299=CARTESIAN_POINT('Line Origine',(61.7703364267,-10.3006253202,-5.62725725937)) ;
#311=CARTESIAN_POINT('Axis2P3D Location',(53.3406728534,0.,0.)) ;
#323=CARTESIAN_POINT('Axis2P3D Location',(3.15000000037,0.,0.)) ;
#328=CARTESIAN_POINT('Line Origine',(-6.,9.65340818079,5.27368092465)) ;
#332=CARTESIAN_POINT('Vertex',(-65.3406728534,9.65340818079,5.27368092465)) ;
#335=CARTESIAN_POINT('Axis2P3D Location',(-65.3406728534,0.,0.)) ;
#339=CARTESIAN_POINT('Vertex',(-65.3406728534,-9.65340818079,-5.27368092465)) ;
#342=CARTESIAN_POINT('Line Origine',(-6.,-9.65340818079,-5.27368092465)) ;
#354=CARTESIAN_POINT('Axis2P3D Location',(-65.3406728534,0.,0.)) ;
#366=CARTESIAN_POINT('Axis2P3D Location',(-65.3406728534,0.,0.)) ;
#371=CARTESIAN_POINT('Line Origine',(-73.7703364267,10.3006253202,5.62725725937)) ;
#375=CARTESIAN_POINT('Vertex',(-82.2,10.9478424596,5.98083359409)) ;
#378=CARTESIAN_POINT('Axis2P3D Location',(-82.2,0.,0.)) ;
#382=CARTESIAN_POINT('Vertex',(-82.2,-10.9478424596,-5.98083359409)) ;
#385=CARTESIAN_POINT('Line Origine',(-73.7703364267,-10.3006253202,-5.62725725937)) ;
#397=CARTESIAN_POINT('Axis2P3D Location',(-82.2,0.,0.)) ;
#409=CARTESIAN_POINT('Line Origine',(-8.1,10.9478424596,5.98083359409)) ;
#413=CARTESIAN_POINT('Vertex',(-113.7,10.9478424596,5.98083359409)) ;
#416=CARTESIAN_POINT('Axis2P3D Location',(-113.7,0.,0.)) ;
#420=CARTESIAN_POINT('Vertex',(-113.7,-10.9478424596,-5.98083359409)) ;
#423=CARTESIAN_POINT('Line Origine',(-8.1,-10.9478424596,-5.98083359409)) ;
#435=CARTESIAN_POINT('Axis2P3D Location',(-113.7,0.,0.)) ;
#447=CARTESIAN_POINT('Axis2P3D Location',(3.15000000037,0.,0.)) ;
#452=CARTESIAN_POINT('Axis2P3D Location',(-113.7,0.,0.)) ;
#456=CARTESIAN_POINT('Vertex',(-113.7,10.5309907427,5.75310646325)) ;
#458=CARTESIAN_POINT('Vertex',(-113.7,-10.5309907427,-5.75310646325)) ;
#461=CARTESIAN_POINT('Line Origine',(-119.7,10.5309907427,5.75310646325)) ;
#465=CARTESIAN_POINT('Vertex',(-125.7,10.5309907427,5.75310646325)) ;
#468=CARTESIAN_POINT('Axis2P3D Location',(-125.7,0.,0.)) ;
#472=CARTESIAN_POINT('Vertex',(-125.7,-10.5309907427,-5.75310646325)) ;
#475=CARTESIAN_POINT('Line Origine',(-119.7,-10.5309907427,-5.75310646325)) ;
#487=CARTESIAN_POINT('Axis2P3D Location',(-113.7,0.,0.)) ;
#492=CARTESIAN_POINT('Axis2P3D Location',(-125.7,0.,0.)) ;
#504=CARTESIAN_POINT('Axis2P3D Location',(132.,14.,0.)) ;
#518=CARTESIAN_POINT('Axis2P3D Location',(129.,13.,0.)) ;
#532=CARTESIAN_POINT('Axis2P3D Location',(97.5,12.475,0.)) ;
#546=CARTESIAN_POINT('Axis2P3D Location',(-113.7,12.475,0.)) ;
#560=CARTESIAN_POINT('Axis2P3D Location',(-125.7,9.25,0.)) ;
#53=DIRECTION('Axis2P3D Direction',(1.,0.,0.)) ;
#54=DIRECTION('Axis2P3D XDirection',(0.,0.87758256189,0.479425538604)) ;
#58=DIRECTION('Axis2P3D Direction',(1.,0.,0.)) ;
#67=DIRECTION('Vector Direction',(1.,0.,0.)) ;
#74=DIRECTION('Axis2P3D Direction',(1.,0.,0.)) ;
#81=DIRECTION('Vector Direction',(1.,0.,0.)) ;
#93=DIRECTION('Axis2P3D Direction',(1.,0.,0.)) ;
#98=DIRECTION('Axis2P3D Direction',(1.,0.,0.)) ;
#110=DIRECTION('Axis2P3D Direction',(1.,0.,0.)) ;
#111=DIRECTION('Axis2P3D XDirection',(0.,0.87758256189,0.479425538604)) ;
#115=DIRECTION('Axis2P3D Direction',(1.,0.,0.)) ;
#124=DIRECTION('Vector Direction',(1.,0.,0.)) ;
#131=DIRECTION('Axis2P3D Direction',(1.,0.,0.)) ;
#138=DIRECTION('Vector Direction',(1.,0.,0.)) ;
#150=DIRECTION('Axis2P3D Direction',(1.,0.,0.)) ;
#155=DIRECTION('Axis2P3D Direction',(1.,0.,0.)) ;
#167=DIRECTION('Axis2P3D Direction',(1.,0.,0.)) ;
#168=DIRECTION('Axis2P3D XDirection',(0.,0.87758256189,0.479425538604)) ;
#172=DIRECTION('Axis2P3D Direction',(1.,0.,0.)) ;
#181=DIRECTION('Vector Direction',(1.,0.,0.)) ;
#188=DIRECTION('Axis2P3D Direction',(1.,0.,0.)) ;
#195=DIRECTION('Vector Direction',(1.,0.,0.)) ;
#207=DIRECTION('Axis2P3D Direction',(1.,0.,0.)) ;
#212=DIRECTION('Axis2P3D Direction',(1.,0.,0.)) ;
#224=DIRECTION('Axis2P3D Direction',(1.,0.,0.)) ;
#225=DIRECTION('Axis2P3D XDirection',(0.,0.87758256189,0.479425538604)) ;
#229=DIRECTION('Axis2P3D Direction',(1.,0.,0.)) ;
#238=DIRECTION('Vector Direction',(1.,0.,0.)) ;
#245=DIRECTION('Axis2P3D Direction',(1.,0.,0.)) ;
#252=DIRECTION('Vector Direction',(1.,0.,0.)) ;
#264=DIRECTION('Axis2P3D Direction',(1.,0.,0.)) ;
#269=DIRECTION('Axis2P3D Direction',(1.,0.,0.)) ;
#281=DIRECTION('Axis2P3D Direction',(1.,0.,0.)) ;
#282=DIRECTION('Axis2P3D XDirection',(0.,0.87758256189,0.479425538604)) ;
#286=DIRECTION('Vector Direction',(0.996194698092,0.0764863600039,0.0417846889092)) ;
#293=DIRECTION('Axis2P3D Direction',(1.,0.,0.)) ;
#300=DIRECTION('Vector Direction',(0.996194698092,-0.0764863600039,-0.0417846889092)) ;
#312=DIRECTION('Axis2P3D Direction',(1.,0.,0.)) ;
#324=DIRECTION('Axis2P3D Direction',(1.,0.,0.)) ;
#325=DIRECTION('Axis2P3D XDirection',(0.,0.87758256189,0.479425538604)) ;
#329=DIRECTION('Vector Direction',(1.,0.,0.)) ;
#336=DIRECTION('Axis2P3D Direction',(1.,0.,0.)) ;
#343=DIRECTION('Vector Direction',(1.,0.,0.)) ;
#355=DIRECTION('Axis2P3D Direction',(1.,0.,0.)) ;
#367=DIRECTION('Axis2P3D Direction',(-1.,-0.,-0.)) ;
#368=DIRECTION('Axis2P3D XDirection',(0.,0.87758256189,0.479425538604)) ;
#372=DIRECTION('Vector Direction',(-0.996194698092,0.0764863600039,0.0417846889092)) ;
#379=DIRECTION('Axis2P3D Direction',(-1.,0.,0.)) ;
#386=DIRECTION('Vector Direction',(-0.996194698092,-0.0764863600039,-0.0417846889092)) ;
#398=DIRECTION('Axis2P3D Direction',(-1.,0.,0.)) ;
#410=DIRECTION('Vector Direction',(1.,0.,0.)) ;
#417=DIRECTION('Axis2P3D Direction',(1.,0.,0.)) ;
#424=DIRECTION('Vector Direction',(1.,0.,0.)) ;
#436=DIRECTION('Axis2P3D Direction',(1.,0.,0.)) ;
#448=DIRECTION('Axis2P3D Direction',(1.,0.,0.)) ;
#449=DIRECTION('Axis2P3D XDirection',(0.,0.87758256189,0.479425538604)) ;
#453=DIRECTION('Axis2P3D Direction',(1.,0.,0.)) ;
#462=DIRECTION('Vector Direction',(1.,0.,0.)) ;
#469=DIRECTION('Axis2P3D Direction',(1.,0.,0.)) ;
#476=DIRECTION('Vector Direction',(1.,0.,0.)) ;
#488=DIRECTION('Axis2P3D Direction',(1.,0.,0.)) ;
#493=DIRECTION('Axis2P3D Direction',(1.,0.,0.)) ;
#505=DIRECTION('Axis2P3D Direction',(1.,0.,0.)) ;
#506=DIRECTION('Axis2P3D XDirection',(0.,1.,0.)) ;
#519=DIRECTION('Axis2P3D Direction',(1.,0.,0.)) ;
#520=DIRECTION('Axis2P3D XDirection',(0.,1.,0.)) ;
#533=DIRECTION('Axis2P3D Direction',(1.,0.,0.)) ;
#534=DIRECTION('Axis2P3D XDirection',(0.,1.,0.)) ;
#547=DIRECTION('Axis2P3D Direction',(1.,0.,0.)) ;
#548=DIRECTION('Axis2P3D XDirection',(0.,1.,0.)) ;
#561=DIRECTION('Axis2P3D Direction',(1.,0.,0.)) ;
#562=DIRECTION('Axis2P3D XDirection',(0.,1.,0.)) ;
#48=AXIS2_PLACEMENT_3D(' ',#47,$,$) ;
#55=AXIS2_PLACEMENT_3D('Cylinder Axis2P3D',#52,#53,#54) ;
#59=AXIS2_PLACEMENT_3D('Circle Axis2P3D',#57,#58,$) ;
#75=AXIS2_PLACEMENT_3D('Circle Axis2P3D',#73,#74,$) ;
#94=AXIS2_PLACEMENT_3D('Circle Axis2P3D',#92,#93,$) ;
#99=AXIS2_PLACEMENT_3D('Circle Axis2P3D',#97,#98,$) ;
#112=AXIS2_PLACEMENT_3D('Cylinder Axis2P3D',#109,#110,#111) ;
#116=AXIS2_PLACEMENT_3D('Circle Axis2P3D',#114,#115,$) ;
#132=AXIS2_PLACEMENT_3D('Circle Axis2P3D',#130,#131,$) ;
#151=AXIS2_PLACEMENT_3D('Circle Axis2P3D',#149,#150,$) ;
#156=AXIS2_PLACEMENT_3D('Circle Axis2P3D',#154,#155,$) ;
#169=AXIS2_PLACEMENT_3D('Cylinder Axis2P3D',#166,#167,#168) ;
#173=AXIS2_PLACEMENT_3D('Circle Axis2P3D',#171,#172,$) ;
#189=AXIS2_PLACEMENT_3D('Circle Axis2P3D',#187,#188,$) ;
#208=AXIS2_PLACEMENT_3D('Circle Axis2P3D',#206,#207,$) ;
#213=AXIS2_PLACEMENT_3D('Circle Axis2P3D',#211,#212,$) ;
#226=AXIS2_PLACEMENT_3D('Cylinder Axis2P3D',#223,#224,#225) ;
#230=AXIS2_PLACEMENT_3D('Circle Axis2P3D',#228,#229,$) ;
#246=AXIS2_PLACEMENT_3D('Circle Axis2P3D',#244,#245,$) ;
#265=AXIS2_PLACEMENT_3D('Circle Axis2P3D',#263,#264,$) ;
#270=AXIS2_PLACEMENT_3D('Circle Axis2P3D',#268,#269,$) ;
#283=AXIS2_PLACEMENT_3D('Cone Axis2P3D',#280,#281,#282) ;
#294=AXIS2_PLACEMENT_3D('Circle Axis2P3D',#292,#293,$) ;
#313=AXIS2_PLACEMENT_3D('Circle Axis2P3D',#311,#312,$) ;
#326=AXIS2_PLACEMENT_3D('Cylinder Axis2P3D',#323,#324,#325) ;
#337=AXIS2_PLACEMENT_3D('Circle Axis2P3D',#335,#336,$) ;
#356=AXIS2_PLACEMENT_3D('Circle Axis2P3D',#354,#355,$) ;
#369=AXIS2_PLACEMENT_3D('Cone Axis2P3D',#366,#367,#368) ;
#380=AXIS2_PLACEMENT_3D('Circle Axis2P3D',#378,#379,$) ;
#399=AXIS2_PLACEMENT_3D('Circle Axis2P3D',#397,#398,$) ;
#418=AXIS2_PLACEMENT_3D('Circle Axis2P3D',#416,#417,$) ;
#437=AXIS2_PLACEMENT_3D('Circle Axis2P3D',#435,#436,$) ;
#450=AXIS2_PLACEMENT_3D('Cylinder Axis2P3D',#447,#448,#449) ;
#454=AXIS2_PLACEMENT_3D('Circle Axis2P3D',#452,#453,$) ;
#470=AXIS2_PLACEMENT_3D('Circle Axis2P3D',#468,#469,$) ;
#489=AXIS2_PLACEMENT_3D('Circle Axis2P3D',#487,#488,$) ;
#494=AXIS2_PLACEMENT_3D('Circle Axis2P3D',#492,#493,$) ;
#507=AXIS2_PLACEMENT_3D('Plane Axis2P3D',#504,#505,#506) ;
#521=AXIS2_PLACEMENT_3D('Plane Axis2P3D',#518,#519,#520) ;
#535=AXIS2_PLACEMENT_3D('Plane Axis2P3D',#532,#533,#534) ;
#549=AXIS2_PLACEMENT_3D('Plane Axis2P3D',#546,#547,#548) ;
#563=AXIS2_PLACEMENT_3D('Plane Axis2P3D',#560,#561,#562) ;
#40=PRODUCT_DEFINITION_SHAPE(' ',' ',#14) ;
#31=APPROVAL_PERSON_ORGANIZATION(#25,#21,#19) ;
#25=PERSON_AND_ORGANIZATION(#22,#23) ;
#22=PERSON(' ',' ',' ',$,$,$) ;
#23=ORGANIZATION(' ',' ',' ') ;
#21=APPROVAL(#20,' ') ;
#20=APPROVAL_STATUS('not_yet_approved') ;
#19=APPROVAL_ROLE('APPROVER') ;
#13=DATE_AND_TIME(#11,#12) ;
#12=LOCAL_TIME(21,32,4.,#10) ;
#10=COORDINATED_UNIVERSAL_TIME_OFFSET(0,0,.AHEAD.) ;
#86=ORIENTED_EDGE('',*,*,#65,.F.) ;
#87=ORIENTED_EDGE('',*,*,#72,.T.) ;
#88=ORIENTED_EDGE('',*,*,#79,.T.) ;
#89=ORIENTED_EDGE('',*,*,#84,.F.) ;
#103=ORIENTED_EDGE('',*,*,#96,.F.) ;
#104=ORIENTED_EDGE('',*,*,#84,.T.) ;
#105=ORIENTED_EDGE('',*,*,#101,.T.) ;
#106=ORIENTED_EDGE('',*,*,#72,.F.) ;
#143=ORIENTED_EDGE('',*,*,#122,.F.) ;
#144=ORIENTED_EDGE('',*,*,#129,.T.) ;
#145=ORIENTED_EDGE('',*,*,#136,.T.) ;
#146=ORIENTED_EDGE('',*,*,#141,.F.) ;
#160=ORIENTED_EDGE('',*,*,#153,.F.) ;
#161=ORIENTED_EDGE('',*,*,#141,.T.) ;
#162=ORIENTED_EDGE('',*,*,#158,.T.) ;
#163=ORIENTED_EDGE('',*,*,#129,.F.) ;
#200=ORIENTED_EDGE('',*,*,#179,.F.) ;
#201=ORIENTED_EDGE('',*,*,#186,.T.) ;
#202=ORIENTED_EDGE('',*,*,#193,.T.) ;
#203=ORIENTED_EDGE('',*,*,#198,.F.) ;
#217=ORIENTED_EDGE('',*,*,#210,.F.) ;
#218=ORIENTED_EDGE('',*,*,#198,.T.) ;
#219=ORIENTED_EDGE('',*,*,#215,.T.) ;
#220=ORIENTED_EDGE('',*,*,#186,.F.) ;
#257=ORIENTED_EDGE('',*,*,#236,.F.) ;
#258=ORIENTED_EDGE('',*,*,#243,.T.) ;
#259=ORIENTED_EDGE('',*,*,#250,.T.) ;
#260=ORIENTED_EDGE('',*,*,#255,.F.) ;
#274=ORIENTED_EDGE('',*,*,#267,.F.) ;
#275=ORIENTED_EDGE('',*,*,#255,.T.) ;
#276=ORIENTED_EDGE('',*,*,#272,.T.) ;
#277=ORIENTED_EDGE('',*,*,#243,.F.) ;
#305=ORIENTED_EDGE('',*,*,#250,.F.) ;
#306=ORIENTED_EDGE('',*,*,#291,.T.) ;
#307=ORIENTED_EDGE('',*,*,#298,.T.) ;
#308=ORIENTED_EDGE('',*,*,#303,.F.) ;
#317=ORIENTED_EDGE('',*,*,#272,.F.) ;
#318=ORIENTED_EDGE('',*,*,#303,.T.) ;
#319=ORIENTED_EDGE('',*,*,#315,.T.) ;
#320=ORIENTED_EDGE('',*,*,#291,.F.) ;
#348=ORIENTED_EDGE('',*,*,#298,.F.) ;
#349=ORIENTED_EDGE('',*,*,#334,.T.) ;
#350=ORIENTED_EDGE('',*,*,#341,.T.) ;
#351=ORIENTED_EDGE('',*,*,#346,.F.) ;
#360=ORIENTED_EDGE('',*,*,#315,.F.) ;
#361=ORIENTED_EDGE('',*,*,#346,.T.) ;
#362=ORIENTED_EDGE('',*,*,#358,.T.) ;
#363=ORIENTED_EDGE('',*,*,#334,.F.) ;
#391=ORIENTED_EDGE('',*,*,#341,.F.) ;
#392=ORIENTED_EDGE('',*,*,#377,.T.) ;
#393=ORIENTED_EDGE('',*,*,#384,.T.) ;
#394=ORIENTED_EDGE('',*,*,#389,.F.) ;
#403=ORIENTED_EDGE('',*,*,#358,.F.) ;
#404=ORIENTED_EDGE('',*,*,#389,.T.) ;
#405=ORIENTED_EDGE('',*,*,#401,.T.) ;
#406=ORIENTED_EDGE('',*,*,#377,.F.) ;
#429=ORIENTED_EDGE('',*,*,#384,.F.) ;
#430=ORIENTED_EDGE('',*,*,#415,.T.) ;
#431=ORIENTED_EDGE('',*,*,#422,.T.) ;
#432=ORIENTED_EDGE('',*,*,#427,.F.) ;
#441=ORIENTED_EDGE('',*,*,#401,.F.) ;
#442=ORIENTED_EDGE('',*,*,#427,.T.) ;
#443=ORIENTED_EDGE('',*,*,#439,.T.) ;
#444=ORIENTED_EDGE('',*,*,#415,.F.) ;
#481=ORIENTED_EDGE('',*,*,#460,.F.) ;
#482=ORIENTED_EDGE('',*,*,#467,.T.) ;
#483=ORIENTED_EDGE('',*,*,#474,.T.) ;
#484=ORIENTED_EDGE('',*,*,#479,.F.) ;
#498=ORIENTED_EDGE('',*,*,#491,.F.) ;
#499=ORIENTED_EDGE('',*,*,#479,.T.) ;
#500=ORIENTED_EDGE('',*,*,#496,.T.) ;
#501=ORIENTED_EDGE('',*,*,#467,.F.) ;
#510=ORIENTED_EDGE('',*,*,#153,.T.) ;
#511=ORIENTED_EDGE('',*,*,#122,.T.) ;
#514=ORIENTED_EDGE('',*,*,#79,.F.) ;
#515=ORIENTED_EDGE('',*,*,#101,.F.) ;
#524=ORIENTED_EDGE('',*,*,#136,.F.) ;
#525=ORIENTED_EDGE('',*,*,#158,.F.) ;
#528=ORIENTED_EDGE('',*,*,#210,.T.) ;
#529=ORIENTED_EDGE('',*,*,#179,.T.) ;
#538=ORIENTED_EDGE('',*,*,#193,.F.) ;
#539=ORIENTED_EDGE('',*,*,#215,.F.) ;
#542=ORIENTED_EDGE('',*,*,#267,.T.) ;
#543=ORIENTED_EDGE('',*,*,#236,.T.) ;
#552=ORIENTED_EDGE('',*,*,#422,.F.) ;
#553=ORIENTED_EDGE('',*,*,#439,.F.) ;
#556=ORIENTED_EDGE('',*,*,#491,.T.) ;
#557=ORIENTED_EDGE('',*,*,#460,.T.) ;
#566=ORIENTED_EDGE('',*,*,#474,.F.) ;
#567=ORIENTED_EDGE('',*,*,#496,.F.) ;
#570=ORIENTED_EDGE('',*,*,#96,.T.) ;
#571=ORIENTED_EDGE('',*,*,#65,.T.) ;
#516=FACE_BOUND('',#513,.T.) ;
#530=FACE_BOUND('',#527,.T.) ;
#544=FACE_BOUND('',#541,.T.) ;
#558=FACE_BOUND('',#555,.T.) ;
#572=FACE_BOUND('',#569,.T.) ;
#51=CLOSED_SHELL('Closed Shell',(#91,#108,#148,#165,#205,#222,#262,#279,#310,#322,#353,#365,#396,#408,#434,#446,#486,#503,#517,#531,#545,#559,#573)) ;
#68=VECTOR('Line Direction',#67,1.) ;
#82=VECTOR('Line Direction',#81,1.) ;
#125=VECTOR('Line Direction',#124,1.) ;
#139=VECTOR('Line Direction',#138,1.) ;
#182=VECTOR('Line Direction',#181,1.) ;
#196=VECTOR('Line Direction',#195,1.) ;
#239=VECTOR('Line Direction',#238,1.) ;
#253=VECTOR('Line Direction',#252,1.) ;
#287=VECTOR('Line Direction',#286,1.) ;
#301=VECTOR('Line Direction',#300,1.) ;
#330=VECTOR('Line Direction',#329,1.) ;
#344=VECTOR('Line Direction',#343,1.) ;
#373=VECTOR('Line Direction',#372,1.) ;
#387=VECTOR('Line Direction',#386,1.) ;
#411=VECTOR('Line Direction',#410,1.) ;
#425=VECTOR('Line Direction',#424,1.) ;
#463=VECTOR('Line Direction',#462,1.) ;
#477=VECTOR('Line Direction',#476,1.) ;
#575=ADVANCED_BREP_SHAPE_REPRESENTATION('NONE',(#574),#46) ;
#49=SHAPE_REPRESENTATION(' ',(#48),#46) ;
#91=ADVANCED_FACE('Corps principal',(#90),#56,.F.) ;
#108=ADVANCED_FACE('Corps principal',(#107),#56,.F.) ;
#148=ADVANCED_FACE('Corps principal',(#147),#113,.T.) ;
#165=ADVANCED_FACE('Corps principal',(#164),#113,.T.) ;
#205=ADVANCED_FACE('Corps principal',(#204),#170,.T.) ;
#222=ADVANCED_FACE('Corps principal',(#221),#170,.T.) ;
#262=ADVANCED_FACE('Corps principal',(#261),#227,.T.) ;
#279=ADVANCED_FACE('Corps principal',(#278),#227,.T.) ;
#310=ADVANCED_FACE('Corps principal',(#309),#284,.T.) ;
#322=ADVANCED_FACE('Corps principal',(#321),#284,.T.) ;
#353=ADVANCED_FACE('Corps principal',(#352),#327,.T.) ;
#365=ADVANCED_FACE('Corps principal',(#364),#327,.T.) ;
#396=ADVANCED_FACE('Corps principal',(#395),#370,.T.) ;
#408=ADVANCED_FACE('Corps principal',(#407),#370,.T.) ;
#434=ADVANCED_FACE('Corps principal',(#433),#227,.T.) ;
#446=ADVANCED_FACE('Corps principal',(#445),#227,.T.) ;
#486=ADVANCED_FACE('Corps principal',(#485),#451,.T.) ;
#503=ADVANCED_FACE('Corps principal',(#502),#451,.T.) ;
#517=ADVANCED_FACE('Corps principal',(#512,#516),#508,.T.) ;
#531=ADVANCED_FACE('Corps principal',(#526,#530),#522,.F.) ;
#545=ADVANCED_FACE('Corps principal',(#540,#544),#536,.F.) ;
#559=ADVANCED_FACE('Corps principal',(#554,#558),#550,.F.) ;
#573=ADVANCED_FACE('Corps principal',(#568,#572),#564,.F.) ;
#4=APPLICATION_PROTOCOL_DEFINITION('international standard','config_control_design',1994,#1) ;
#32=APPROVAL_DATE_TIME(#13,#21) ;
#574=MANIFOLD_SOLID_BREP('Corps principal',#51) ;
#11=CALENDAR_DATE(2019,3,11) ;
#30=CC_DESIGN_APPROVAL(#21,(#16,#6,#14)) ;
#18=CC_DESIGN_DATE_AND_TIME_ASSIGNMENT(#13,#17,(#16)) ;
#29=CC_DESIGN_DATE_AND_TIME_ASSIGNMENT(#13,#28,(#14)) ;
#17=DATE_TIME_ROLE('classification_date') ;
#28=DATE_TIME_ROLE('creation_date') ;
#27=CC_DESIGN_PERSON_AND_ORGANIZATION_ASSIGNMENT(#25,#26,(#16)) ;
#33=CC_DESIGN_PERSON_AND_ORGANIZATION_ASSIGNMENT(#25,#34,(#6)) ;
#35=CC_DESIGN_PERSON_AND_ORGANIZATION_ASSIGNMENT(#25,#36,(#6,#14)) ;
#37=CC_DESIGN_PERSON_AND_ORGANIZATION_ASSIGNMENT(#25,#38,(#5)) ;
#26=PERSON_AND_ORGANIZATION_ROLE('classification_officer') ;
#34=PERSON_AND_ORGANIZATION_ROLE('design_supplier') ;
#36=PERSON_AND_ORGANIZATION_ROLE('creator') ;
#38=PERSON_AND_ORGANIZATION_ROLE('design_owner') ;
#39=CC_DESIGN_SECURITY_CLASSIFICATION(#16,(#6)) ;
#60=CIRCLE('generated circle',#59,9.25) ;
#76=CIRCLE('generated circle',#75,9.25) ;
#95=CIRCLE('generated circle',#94,9.25) ;
#100=CIRCLE('generated circle',#99,9.25) ;
#117=CIRCLE('generated circle',#116,14.) ;
#133=CIRCLE('generated circle',#132,14.) ;
#152=CIRCLE('generated circle',#151,14.) ;
#157=CIRCLE('generated circle',#156,14.) ;
#174=CIRCLE('generated circle',#173,13.) ;
#190=CIRCLE('generated circle',#189,13.) ;
#209=CIRCLE('generated circle',#208,13.) ;
#214=CIRCLE('generated circle',#213,13.) ;
#231=CIRCLE('generated circle',#230,12.475) ;
#247=CIRCLE('generated circle',#246,12.475) ;
#266=CIRCLE('generated circle',#265,12.475) ;
#271=CIRCLE('generated circle',#270,12.475) ;
#295=CIRCLE('generated circle',#294,11.) ;
#314=CIRCLE('generated circle',#313,11.) ;
#338=CIRCLE('generated circle',#337,11.) ;
#357=CIRCLE('generated circle',#356,11.) ;
#381=CIRCLE('generated circle',#380,12.475) ;
#400=CIRCLE('generated circle',#399,12.475) ;
#419=CIRCLE('generated circle',#418,12.475) ;
#438=CIRCLE('generated circle',#437,12.475) ;
#455=CIRCLE('generated circle',#454,12.) ;
#471=CIRCLE('generated circle',#470,12.) ;
#490=CIRCLE('generated circle',#489,12.) ;
#495=CIRCLE('generated circle',#494,12.) ;
#284=CONICAL_SURFACE('Cone',#283,11.,0.0872664625997) ;
#370=CONICAL_SURFACE('Cone',#369,11.,0.0872664625997) ;
#576=SHAPE_REPRESENTATION_RELATIONSHIP(' ',' ',#49,#575) ;
#56=CYLINDRICAL_SURFACE('generated cylinder',#55,9.25) ;
#113=CYLINDRICAL_SURFACE('generated cylinder',#112,14.) ;
#170=CYLINDRICAL_SURFACE('generated cylinder',#169,13.) ;
#227=CYLINDRICAL_SURFACE('generated cylinder',#226,12.475) ;
#327=CYLINDRICAL_SURFACE('generated cylinder',#326,11.) ;
#451=CYLINDRICAL_SURFACE('generated cylinder',#450,12.) ;
#3=DESIGN_CONTEXT(' ',#1,'design') ;
#65=EDGE_CURVE('',#62,#64,#60,.T.) ;
#72=EDGE_CURVE('',#62,#71,#69,.T.) ;
#79=EDGE_CURVE('',#71,#78,#76,.T.) ;
#84=EDGE_CURVE('',#64,#78,#83,.T.) ;
#96=EDGE_CURVE('',#64,#62,#95,.T.) ;
#101=EDGE_CURVE('',#78,#71,#100,.T.) ;
#122=EDGE_CURVE('',#119,#121,#117,.T.) ;
#129=EDGE_CURVE('',#119,#128,#126,.F.) ;
#136=EDGE_CURVE('',#128,#135,#133,.T.) ;
#141=EDGE_CURVE('',#121,#135,#140,.F.) ;
#153=EDGE_CURVE('',#121,#119,#152,.T.) ;
#158=EDGE_CURVE('',#135,#128,#157,.T.) ;
#179=EDGE_CURVE('',#176,#178,#174,.T.) ;
#186=EDGE_CURVE('',#176,#185,#183,.F.) ;
#193=EDGE_CURVE('',#185,#192,#190,.T.) ;
#198=EDGE_CURVE('',#178,#192,#197,.F.) ;
#210=EDGE_CURVE('',#178,#176,#209,.T.) ;
#215=EDGE_CURVE('',#192,#185,#214,.T.) ;
#236=EDGE_CURVE('',#233,#235,#231,.T.) ;
#243=EDGE_CURVE('',#233,#242,#240,.F.) ;
#250=EDGE_CURVE('',#242,#249,#247,.T.) ;
#255=EDGE_CURVE('',#235,#249,#254,.F.) ;
#267=EDGE_CURVE('',#235,#233,#266,.T.) ;
#272=EDGE_CURVE('',#249,#242,#271,.T.) ;
#291=EDGE_CURVE('',#242,#290,#288,.F.) ;
#298=EDGE_CURVE('',#290,#297,#295,.T.) ;
#303=EDGE_CURVE('',#249,#297,#302,.F.) ;
#315=EDGE_CURVE('',#297,#290,#314,.T.) ;
#334=EDGE_CURVE('',#290,#333,#331,.F.) ;
#341=EDGE_CURVE('',#333,#340,#338,.T.) ;
#346=EDGE_CURVE('',#297,#340,#345,.F.) ;
#358=EDGE_CURVE('',#340,#333,#357,.T.) ;
#377=EDGE_CURVE('',#333,#376,#374,.T.) ;
#384=EDGE_CURVE('',#376,#383,#381,.F.) ;
#389=EDGE_CURVE('',#340,#383,#388,.T.) ;
#401=EDGE_CURVE('',#383,#376,#400,.F.) ;
#415=EDGE_CURVE('',#376,#414,#412,.F.) ;
#422=EDGE_CURVE('',#414,#421,#419,.T.) ;
#427=EDGE_CURVE('',#383,#421,#426,.F.) ;
#439=EDGE_CURVE('',#421,#414,#438,.T.) ;
#460=EDGE_CURVE('',#457,#459,#455,.T.) ;
#467=EDGE_CURVE('',#457,#466,#464,.F.) ;
#474=EDGE_CURVE('',#466,#473,#471,.T.) ;
#479=EDGE_CURVE('',#459,#473,#478,.F.) ;
#491=EDGE_CURVE('',#459,#457,#490,.T.) ;
#496=EDGE_CURVE('',#473,#466,#495,.T.) ;
#85=EDGE_LOOP('',(#86,#87,#88,#89)) ;
#102=EDGE_LOOP('',(#103,#104,#105,#106)) ;
#142=EDGE_LOOP('',(#143,#144,#145,#146)) ;
#159=EDGE_LOOP('',(#160,#161,#162,#163)) ;
#199=EDGE_LOOP('',(#200,#201,#202,#203)) ;
#216=EDGE_LOOP('',(#217,#218,#219,#220)) ;
#256=EDGE_LOOP('',(#257,#258,#259,#260)) ;
#273=EDGE_LOOP('',(#274,#275,#276,#277)) ;
#304=EDGE_LOOP('',(#305,#306,#307,#308)) ;
#316=EDGE_LOOP('',(#317,#318,#319,#320)) ;
#347=EDGE_LOOP('',(#348,#349,#350,#351)) ;
#359=EDGE_LOOP('',(#360,#361,#362,#363)) ;
#390=EDGE_LOOP('',(#391,#392,#393,#394)) ;
#402=EDGE_LOOP('',(#403,#404,#405,#406)) ;
#428=EDGE_LOOP('',(#429,#430,#431,#432)) ;
#440=EDGE_LOOP('',(#441,#442,#443,#444)) ;
#480=EDGE_LOOP('',(#481,#482,#483,#484)) ;
#497=EDGE_LOOP('',(#498,#499,#500,#501)) ;
#509=EDGE_LOOP('',(#510,#511)) ;
#513=EDGE_LOOP('',(#514,#515)) ;
#523=EDGE_LOOP('',(#524,#525)) ;
#527=EDGE_LOOP('',(#528,#529)) ;
#537=EDGE_LOOP('',(#538,#539)) ;
#541=EDGE_LOOP('',(#542,#543)) ;
#551=EDGE_LOOP('',(#552,#553)) ;
#555=EDGE_LOOP('',(#556,#557)) ;
#565=EDGE_LOOP('',(#566,#567)) ;
#569=EDGE_LOOP('',(#570,#571)) ;
#90=FACE_OUTER_BOUND('',#85,.T.) ;
#107=FACE_OUTER_BOUND('',#102,.T.) ;
#147=FACE_OUTER_BOUND('',#142,.T.) ;
#164=FACE_OUTER_BOUND('',#159,.T.) ;
#204=FACE_OUTER_BOUND('',#199,.T.) ;
#221=FACE_OUTER_BOUND('',#216,.T.) ;
#261=FACE_OUTER_BOUND('',#256,.T.) ;
#278=FACE_OUTER_BOUND('',#273,.T.) ;
#309=FACE_OUTER_BOUND('',#304,.T.) ;
#321=FACE_OUTER_BOUND('',#316,.T.) ;
#352=FACE_OUTER_BOUND('',#347,.T.) ;
#364=FACE_OUTER_BOUND('',#359,.T.) ;
#395=FACE_OUTER_BOUND('',#390,.T.) ;
#407=FACE_OUTER_BOUND('',#402,.T.) ;
#433=FACE_OUTER_BOUND('',#428,.T.) ;
#445=FACE_OUTER_BOUND('',#440,.T.) ;
#485=FACE_OUTER_BOUND('',#480,.T.) ;
#502=FACE_OUTER_BOUND('',#497,.T.) ;
#512=FACE_OUTER_BOUND('',#509,.T.) ;
#526=FACE_OUTER_BOUND('',#523,.T.) ;
#540=FACE_OUTER_BOUND('',#537,.T.) ;
#554=FACE_OUTER_BOUND('',#551,.T.) ;
#568=FACE_OUTER_BOUND('',#565,.T.) ;
#45=UNCERTAINTY_MEASURE_WITH_UNIT(LENGTH_MEASURE(0.005),#41,'distance_accuracy_value','CONFUSED CURVE UNCERTAINTY') ;
#69=LINE('Line',#66,#68) ;
#83=LINE('Line',#80,#82) ;
#126=LINE('Line',#123,#125) ;
#140=LINE('Line',#137,#139) ;
#183=LINE('Line',#180,#182) ;
#197=LINE('Line',#194,#196) ;
#240=LINE('Line',#237,#239) ;
#254=LINE('Line',#251,#253) ;
#288=LINE('Line',#285,#287) ;
#302=LINE('Line',#299,#301) ;
#331=LINE('Line',#328,#330) ;
#345=LINE('Line',#342,#344) ;
#374=LINE('Line',#371,#373) ;
#388=LINE('Line',#385,#387) ;
#412=LINE('Line',#409,#411) ;
#426=LINE('Line',#423,#425) ;
#464=LINE('Line',#461,#463) ;
#478=LINE('Line',#475,#477) ;
#2=MECHANICAL_CONTEXT(' ',#1,'mechanical') ;
#24=PERSONAL_ADDRESS(' ',' ',' ',' ',' ',' ',' ',' ',' ',' ',' ',' ',(#22),' ') ;
#508=PLANE('Plane',#507) ;
#522=PLANE('Plane',#521) ;
#536=PLANE('Plane',#535) ;
#550=PLANE('Plane',#549) ;
#564=PLANE('Plane',#563) ;
#43=PLANE_ANGLE_MEASURE_WITH_UNIT(PLANE_ANGLE_MEASURE(0.0174532925199),#42) ;
#7=PRODUCT_CATEGORY('part',$) ;
#9=PRODUCT_CATEGORY_RELATIONSHIP(' ',' ',#7,#8) ;
#6=PRODUCT_DEFINITION_FORMATION_WITH_SPECIFIED_SOURCE('',' ',#5,.NOT_KNOWN.) ;
#8=PRODUCT_RELATED_PRODUCT_CATEGORY('detail',$,(#5)) ;
#50=SHAPE_DEFINITION_REPRESENTATION(#40,#49) ;
#62=VERTEX_POINT('',#61) ;
#64=VERTEX_POINT('',#63) ;
#71=VERTEX_POINT('',#70) ;
#78=VERTEX_POINT('',#77) ;
#119=VERTEX_POINT('',#118) ;
#121=VERTEX_POINT('',#120) ;
#128=VERTEX_POINT('',#127) ;
#135=VERTEX_POINT('',#134) ;
#176=VERTEX_POINT('',#175) ;
#178=VERTEX_POINT('',#177) ;
#185=VERTEX_POINT('',#184) ;
#192=VERTEX_POINT('',#191) ;
#233=VERTEX_POINT('',#232) ;
#235=VERTEX_POINT('',#234) ;
#242=VERTEX_POINT('',#241) ;
#249=VERTEX_POINT('',#248) ;
#290=VERTEX_POINT('',#289) ;
#297=VERTEX_POINT('',#296) ;
#333=VERTEX_POINT('',#332) ;
#340=VERTEX_POINT('',#339) ;
#376=VERTEX_POINT('',#375) ;
#383=VERTEX_POINT('',#382) ;
#414=VERTEX_POINT('',#413) ;
#421=VERTEX_POINT('',#420) ;
#457=VERTEX_POINT('',#456) ;
#459=VERTEX_POINT('',#458) ;
#466=VERTEX_POINT('',#465) ;
#473=VERTEX_POINT('',#472) ;
#41=(LENGTH_UNIT()NAMED_UNIT(*)SI_UNIT(.MILLI.,.METRE.)) ;
#42=(NAMED_UNIT(*)PLANE_ANGLE_UNIT()SI_UNIT($,.RADIAN.)) ;
#44=(NAMED_UNIT(*)SI_UNIT($,.STERADIAN.)SOLID_ANGLE_UNIT()) ;
#46=(GEOMETRIC_REPRESENTATION_CONTEXT(3)GLOBAL_UNCERTAINTY_ASSIGNED_CONTEXT((#45))GLOBAL_UNIT_ASSIGNED_CONTEXT((#41,#42,#44))REPRESENTATION_CONTEXT(' ',' ')) ;
ENDSEC;
END-ISO-10303-21;
