ISO-10303-21;
HEADER;
/* Generated by software containing ST-Developer
 * from STEP Tools, Inc. (www.steptools.com) 
 */

FILE_DESCRIPTION(
/* description */ (''),
/* implementation_level */ '2;1');

FILE_NAME(
/* name */ 'C:\\Users\\u226184\\Desktop\\ProjetAlex\\Socle.stp',
/* time_stamp */ '2019-11-15T08:42:20+01:00',
/* author */ ('u226184'),
/* organization */ (''),
/* preprocessor_version */ 'ST-DEVELOPER v17',
/* originating_system */ 'Autodesk Inventor 2018',
/* authorisation */ '');

FILE_SCHEMA (('AUTOMOTIVE_DESIGN { 1 0 10303 214 3 1 1 }'));
ENDSEC;

DATA;
#10=MECHANICAL_DESIGN_GEOMETRIC_PRESENTATION_REPRESENTATION('',(#13),#379);
#11=SHAPE_REPRESENTATION_RELATIONSHIP('SRR','None',#386,#12);
#12=ADVANCED_BREP_SHAPE_REPRESENTATION('',(#14),#378);
#13=STYLED_ITEM('',(#395),#14);
#14=MANIFOLD_SOLID_BREP('Solide1',#197);
#15=FACE_BOUND('',#50,.T.);
#16=TOROIDAL_SURFACE('',#224,27.8,0.5);
#17=TOROIDAL_SURFACE('',#230,27.8,0.5);
#18=PLANE('',#223);
#19=PLANE('',#244);
#20=PLANE('',#246);
#21=CYLINDRICAL_SURFACE('',#220,27.5);
#22=CYLINDRICAL_SURFACE('',#234,27.5);
#23=CYLINDRICAL_SURFACE('',#238,26.);
#24=CYLINDRICAL_SURFACE('',#240,26.5);
#25=CYLINDRICAL_SURFACE('',#247,27.5);
#26=FACE_OUTER_BOUND('',#39,.T.);
#27=FACE_OUTER_BOUND('',#40,.T.);
#28=FACE_OUTER_BOUND('',#41,.T.);
#29=FACE_OUTER_BOUND('',#42,.T.);
#30=FACE_OUTER_BOUND('',#43,.T.);
#31=FACE_OUTER_BOUND('',#44,.T.);
#32=FACE_OUTER_BOUND('',#45,.T.);
#33=FACE_OUTER_BOUND('',#46,.T.);
#34=FACE_OUTER_BOUND('',#47,.T.);
#35=FACE_OUTER_BOUND('',#48,.T.);
#36=FACE_OUTER_BOUND('',#49,.T.);
#37=FACE_OUTER_BOUND('',#51,.T.);
#38=FACE_OUTER_BOUND('',#52,.T.);
#39=EDGE_LOOP('',(#129,#130,#131,#132));
#40=EDGE_LOOP('',(#133,#134,#135,#136,#137));
#41=EDGE_LOOP('',(#138));
#42=EDGE_LOOP('',(#139,#140,#141,#142,#143,#144));
#43=EDGE_LOOP('',(#145,#146,#147,#148,#149,#150));
#44=EDGE_LOOP('',(#151,#152,#153,#154,#155,#156));
#45=EDGE_LOOP('',(#157,#158,#159,#160));
#46=EDGE_LOOP('',(#161,#162,#163,#164));
#47=EDGE_LOOP('',(#165,#166,#167,#168));
#48=EDGE_LOOP('',(#169,#170,#171,#172));
#49=EDGE_LOOP('',(#173));
#50=EDGE_LOOP('',(#174));
#51=EDGE_LOOP('',(#175));
#52=EDGE_LOOP('',(#176,#177,#178,#179,#180));
#53=LINE('',#325,#61);
#54=LINE('',#332,#62);
#55=LINE('',#351,#63);
#56=LINE('',#356,#64);
#57=LINE('',#361,#65);
#58=LINE('',#364,#66);
#59=LINE('',#369,#67);
#60=LINE('',#375,#68);
#61=VECTOR('',#254,27.);
#62=VECTOR('',#263,27.5);
#63=VECTOR('',#288,27.5);
#64=VECTOR('',#293,26.25);
#65=VECTOR('',#300,26.);
#66=VECTOR('',#303,26.5);
#67=VECTOR('',#310,26.25);
#68=VECTOR('',#319,27.5);
#69=CIRCLE('',#218,26.5);
#70=CIRCLE('',#219,27.5);
#71=CIRCLE('',#221,27.5);
#72=CIRCLE('',#222,27.5);
#73=CIRCLE('',#225,27.5);
#74=CIRCLE('',#226,27.5);
#75=CIRCLE('',#227,0.5);
#76=CIRCLE('',#228,27.5);
#77=CIRCLE('',#229,27.5);
#78=CIRCLE('',#231,0.5);
#79=CIRCLE('',#232,27.5);
#80=CIRCLE('',#233,27.5);
#81=CIRCLE('',#236,26.);
#82=CIRCLE('',#237,26.5);
#83=CIRCLE('',#239,26.);
#84=CIRCLE('',#241,26.5);
#85=CIRCLE('',#243,26.5);
#86=CIRCLE('',#245,27.5);
#87=VERTEX_POINT('',#322);
#88=VERTEX_POINT('',#324);
#89=VERTEX_POINT('',#328);
#90=VERTEX_POINT('',#329);
#91=VERTEX_POINT('',#335);
#92=VERTEX_POINT('',#336);
#93=VERTEX_POINT('',#339);
#94=VERTEX_POINT('',#341);
#95=VERTEX_POINT('',#345);
#96=VERTEX_POINT('',#347);
#97=VERTEX_POINT('',#353);
#98=VERTEX_POINT('',#355);
#99=VERTEX_POINT('',#359);
#100=VERTEX_POINT('',#363);
#101=VERTEX_POINT('',#367);
#102=VERTEX_POINT('',#371);
#103=EDGE_CURVE('',#87,#87,#69,.T.);
#104=EDGE_CURVE('',#87,#88,#53,.T.);
#105=EDGE_CURVE('',#88,#88,#70,.T.);
#106=EDGE_CURVE('',#89,#90,#71,.T.);
#107=EDGE_CURVE('',#90,#89,#72,.T.);
#108=EDGE_CURVE('',#89,#88,#54,.T.);
#109=EDGE_CURVE('',#91,#92,#73,.T.);
#110=EDGE_CURVE('',#92,#91,#74,.T.);
#111=EDGE_CURVE('',#92,#93,#75,.T.);
#112=EDGE_CURVE('',#94,#93,#76,.T.);
#113=EDGE_CURVE('',#93,#94,#77,.T.);
#114=EDGE_CURVE('',#90,#95,#78,.T.);
#115=EDGE_CURVE('',#96,#95,#79,.T.);
#116=EDGE_CURVE('',#95,#96,#80,.T.);
#117=EDGE_CURVE('',#91,#96,#55,.T.);
#118=EDGE_CURVE('',#97,#97,#81,.T.);
#119=EDGE_CURVE('',#97,#98,#56,.T.);
#120=EDGE_CURVE('',#98,#98,#82,.T.);
#121=EDGE_CURVE('',#99,#99,#83,.T.);
#122=EDGE_CURVE('',#99,#97,#57,.T.);
#123=EDGE_CURVE('',#98,#100,#58,.T.);
#124=EDGE_CURVE('',#100,#100,#84,.T.);
#125=EDGE_CURVE('',#101,#101,#85,.T.);
#126=EDGE_CURVE('',#101,#99,#59,.T.);
#127=EDGE_CURVE('',#102,#102,#86,.T.);
#128=EDGE_CURVE('',#102,#94,#60,.T.);
#129=ORIENTED_EDGE('',*,*,#103,.T.);
#130=ORIENTED_EDGE('',*,*,#104,.T.);
#131=ORIENTED_EDGE('',*,*,#105,.T.);
#132=ORIENTED_EDGE('',*,*,#104,.F.);
#133=ORIENTED_EDGE('',*,*,#106,.T.);
#134=ORIENTED_EDGE('',*,*,#107,.T.);
#135=ORIENTED_EDGE('',*,*,#108,.T.);
#136=ORIENTED_EDGE('',*,*,#105,.F.);
#137=ORIENTED_EDGE('',*,*,#108,.F.);
#138=ORIENTED_EDGE('',*,*,#103,.F.);
#139=ORIENTED_EDGE('',*,*,#109,.F.);
#140=ORIENTED_EDGE('',*,*,#110,.F.);
#141=ORIENTED_EDGE('',*,*,#111,.T.);
#142=ORIENTED_EDGE('',*,*,#112,.F.);
#143=ORIENTED_EDGE('',*,*,#113,.F.);
#144=ORIENTED_EDGE('',*,*,#111,.F.);
#145=ORIENTED_EDGE('',*,*,#106,.F.);
#146=ORIENTED_EDGE('',*,*,#107,.F.);
#147=ORIENTED_EDGE('',*,*,#114,.T.);
#148=ORIENTED_EDGE('',*,*,#115,.F.);
#149=ORIENTED_EDGE('',*,*,#116,.F.);
#150=ORIENTED_EDGE('',*,*,#114,.F.);
#151=ORIENTED_EDGE('',*,*,#109,.T.);
#152=ORIENTED_EDGE('',*,*,#110,.T.);
#153=ORIENTED_EDGE('',*,*,#117,.T.);
#154=ORIENTED_EDGE('',*,*,#115,.T.);
#155=ORIENTED_EDGE('',*,*,#116,.T.);
#156=ORIENTED_EDGE('',*,*,#117,.F.);
#157=ORIENTED_EDGE('',*,*,#118,.T.);
#158=ORIENTED_EDGE('',*,*,#119,.T.);
#159=ORIENTED_EDGE('',*,*,#120,.T.);
#160=ORIENTED_EDGE('',*,*,#119,.F.);
#161=ORIENTED_EDGE('',*,*,#121,.F.);
#162=ORIENTED_EDGE('',*,*,#122,.T.);
#163=ORIENTED_EDGE('',*,*,#118,.F.);
#164=ORIENTED_EDGE('',*,*,#122,.F.);
#165=ORIENTED_EDGE('',*,*,#120,.F.);
#166=ORIENTED_EDGE('',*,*,#123,.T.);
#167=ORIENTED_EDGE('',*,*,#124,.T.);
#168=ORIENTED_EDGE('',*,*,#123,.F.);
#169=ORIENTED_EDGE('',*,*,#125,.T.);
#170=ORIENTED_EDGE('',*,*,#126,.T.);
#171=ORIENTED_EDGE('',*,*,#121,.T.);
#172=ORIENTED_EDGE('',*,*,#126,.F.);
#173=ORIENTED_EDGE('',*,*,#127,.T.);
#174=ORIENTED_EDGE('',*,*,#125,.F.);
#175=ORIENTED_EDGE('',*,*,#124,.F.);
#176=ORIENTED_EDGE('',*,*,#127,.F.);
#177=ORIENTED_EDGE('',*,*,#128,.T.);
#178=ORIENTED_EDGE('',*,*,#112,.T.);
#179=ORIENTED_EDGE('',*,*,#113,.T.);
#180=ORIENTED_EDGE('',*,*,#128,.F.);
#181=CONICAL_SURFACE('',#217,27.,0.785398163397449);
#182=CONICAL_SURFACE('',#235,26.25,0.785398163397446);
#183=CONICAL_SURFACE('',#242,26.25,0.785398163397446);
#184=ADVANCED_FACE('',(#26),#181,.T.);
#185=ADVANCED_FACE('',(#27),#21,.T.);
#186=ADVANCED_FACE('',(#28),#18,.F.);
#187=ADVANCED_FACE('',(#29),#16,.F.);
#188=ADVANCED_FACE('',(#30),#17,.F.);
#189=ADVANCED_FACE('',(#31),#22,.T.);
#190=ADVANCED_FACE('',(#32),#182,.F.);
#191=ADVANCED_FACE('',(#33),#23,.F.);
#192=ADVANCED_FACE('',(#34),#24,.F.);
#193=ADVANCED_FACE('',(#35),#183,.F.);
#194=ADVANCED_FACE('',(#36,#15),#19,.T.);
#195=ADVANCED_FACE('',(#37),#20,.T.);
#196=ADVANCED_FACE('',(#38),#25,.T.);
#197=CLOSED_SHELL('',(#184,#185,#186,#187,#188,#189,#190,#191,#192,#193,
#194,#195,#196));
#198=DERIVED_UNIT_ELEMENT(#200,1.);
#199=DERIVED_UNIT_ELEMENT(#381,3.);
#200=(
MASS_UNIT()
NAMED_UNIT(*)
SI_UNIT($,.GRAM.)
);
#201=DERIVED_UNIT((#198,#199));
#202=MEASURE_REPRESENTATION_ITEM('density measure',
POSITIVE_RATIO_MEASURE(1.),#201);
#203=PROPERTY_DEFINITION_REPRESENTATION(#208,#205);
#204=PROPERTY_DEFINITION_REPRESENTATION(#209,#206);
#205=REPRESENTATION('material name',(#207),#378);
#206=REPRESENTATION('density',(#202),#378);
#207=DESCRIPTIVE_REPRESENTATION_ITEM('G\X\E9n\X\E9rique','G\X\E9n\X\E9
rique');
#208=PROPERTY_DEFINITION('material property','material name',#388);
#209=PROPERTY_DEFINITION('material property','density of part',#388);
#210=DATE_TIME_ROLE('creation_date');
#211=APPLIED_DATE_AND_TIME_ASSIGNMENT(#212,#210,(#388));
#212=DATE_AND_TIME(#213,#214);
#213=CALENDAR_DATE(2019,11,11);
#214=LOCAL_TIME(16,41,43.,#215);
#215=COORDINATED_UNIVERSAL_TIME_OFFSET(0,0,.BEHIND.);
#216=AXIS2_PLACEMENT_3D('placement',#320,#248,#249);
#217=AXIS2_PLACEMENT_3D('',#321,#250,#251);
#218=AXIS2_PLACEMENT_3D('',#323,#252,#253);
#219=AXIS2_PLACEMENT_3D('',#326,#255,#256);
#220=AXIS2_PLACEMENT_3D('',#327,#257,#258);
#221=AXIS2_PLACEMENT_3D('',#330,#259,#260);
#222=AXIS2_PLACEMENT_3D('',#331,#261,#262);
#223=AXIS2_PLACEMENT_3D('',#333,#264,#265);
#224=AXIS2_PLACEMENT_3D('',#334,#266,#267);
#225=AXIS2_PLACEMENT_3D('',#337,#268,#269);
#226=AXIS2_PLACEMENT_3D('',#338,#270,#271);
#227=AXIS2_PLACEMENT_3D('',#340,#272,#273);
#228=AXIS2_PLACEMENT_3D('',#342,#274,#275);
#229=AXIS2_PLACEMENT_3D('',#343,#276,#277);
#230=AXIS2_PLACEMENT_3D('',#344,#278,#279);
#231=AXIS2_PLACEMENT_3D('',#346,#280,#281);
#232=AXIS2_PLACEMENT_3D('',#348,#282,#283);
#233=AXIS2_PLACEMENT_3D('',#349,#284,#285);
#234=AXIS2_PLACEMENT_3D('',#350,#286,#287);
#235=AXIS2_PLACEMENT_3D('',#352,#289,#290);
#236=AXIS2_PLACEMENT_3D('',#354,#291,#292);
#237=AXIS2_PLACEMENT_3D('',#357,#294,#295);
#238=AXIS2_PLACEMENT_3D('',#358,#296,#297);
#239=AXIS2_PLACEMENT_3D('',#360,#298,#299);
#240=AXIS2_PLACEMENT_3D('',#362,#301,#302);
#241=AXIS2_PLACEMENT_3D('',#365,#304,#305);
#242=AXIS2_PLACEMENT_3D('',#366,#306,#307);
#243=AXIS2_PLACEMENT_3D('',#368,#308,#309);
#244=AXIS2_PLACEMENT_3D('',#370,#311,#312);
#245=AXIS2_PLACEMENT_3D('',#372,#313,#314);
#246=AXIS2_PLACEMENT_3D('',#373,#315,#316);
#247=AXIS2_PLACEMENT_3D('',#374,#317,#318);
#248=DIRECTION('axis',(0.,0.,1.));
#249=DIRECTION('refdir',(1.,0.,0.));
#250=DIRECTION('center_axis',(0.,1.,0.));
#251=DIRECTION('ref_axis',(1.,0.,0.));
#252=DIRECTION('center_axis',(0.,1.,0.));
#253=DIRECTION('ref_axis',(1.,0.,0.));
#254=DIRECTION('',(-0.707106781186548,0.707106781186547,-8.65956056235494E-17));
#255=DIRECTION('center_axis',(0.,-1.,0.));
#256=DIRECTION('ref_axis',(1.,0.,0.));
#257=DIRECTION('center_axis',(0.,1.,0.));
#258=DIRECTION('ref_axis',(1.,0.,0.));
#259=DIRECTION('center_axis',(0.,-1.,0.));
#260=DIRECTION('ref_axis',(1.,0.,0.));
#261=DIRECTION('center_axis',(0.,-1.,0.));
#262=DIRECTION('ref_axis',(1.,0.,0.));
#263=DIRECTION('',(0.,-1.,0.));
#264=DIRECTION('center_axis',(0.,1.,0.));
#265=DIRECTION('ref_axis',(0.,0.,1.));
#266=DIRECTION('center_axis',(0.,-1.,0.));
#267=DIRECTION('ref_axis',(0.,0.,-1.));
#268=DIRECTION('center_axis',(0.,-1.,0.));
#269=DIRECTION('ref_axis',(1.,0.,0.));
#270=DIRECTION('center_axis',(0.,-1.,0.));
#271=DIRECTION('ref_axis',(1.,0.,0.));
#272=DIRECTION('center_axis',(1.,0.,1.22464679914735E-16));
#273=DIRECTION('ref_axis',(-1.22464679914735E-16,0.,1.));
#274=DIRECTION('center_axis',(0.,1.,0.));
#275=DIRECTION('ref_axis',(1.,0.,0.));
#276=DIRECTION('center_axis',(0.,1.,0.));
#277=DIRECTION('ref_axis',(1.,0.,0.));
#278=DIRECTION('center_axis',(0.,-1.,0.));
#279=DIRECTION('ref_axis',(0.,0.,-1.));
#280=DIRECTION('center_axis',(1.,0.,1.22464679914735E-16));
#281=DIRECTION('ref_axis',(-1.22464679914735E-16,0.,1.));
#282=DIRECTION('center_axis',(0.,1.,0.));
#283=DIRECTION('ref_axis',(1.,0.,0.));
#284=DIRECTION('center_axis',(0.,1.,0.));
#285=DIRECTION('ref_axis',(1.,0.,0.));
#286=DIRECTION('center_axis',(0.,1.,0.));
#287=DIRECTION('ref_axis',(1.,0.,0.));
#288=DIRECTION('',(0.,-1.,0.));
#289=DIRECTION('center_axis',(0.,-1.,0.));
#290=DIRECTION('ref_axis',(-1.,0.,0.));
#291=DIRECTION('center_axis',(0.,1.,0.));
#292=DIRECTION('ref_axis',(-1.,0.,0.));
#293=DIRECTION('',(0.707106781186546,-0.707106781186549,-8.65956056235492E-17));
#294=DIRECTION('center_axis',(0.,-1.,0.));
#295=DIRECTION('ref_axis',(-1.,0.,0.));
#296=DIRECTION('center_axis',(0.,-1.,0.));
#297=DIRECTION('ref_axis',(-1.,0.,0.));
#298=DIRECTION('center_axis',(0.,-1.,0.));
#299=DIRECTION('ref_axis',(-1.,0.,0.));
#300=DIRECTION('',(0.,-1.,0.));
#301=DIRECTION('center_axis',(0.,-1.,0.));
#302=DIRECTION('ref_axis',(-1.,0.,0.));
#303=DIRECTION('',(0.,-1.,0.));
#304=DIRECTION('center_axis',(0.,-1.,0.));
#305=DIRECTION('ref_axis',(-1.,0.,0.));
#306=DIRECTION('center_axis',(0.,1.,0.));
#307=DIRECTION('ref_axis',(-1.,0.,0.));
#308=DIRECTION('center_axis',(0.,1.,0.));
#309=DIRECTION('ref_axis',(-1.,0.,0.));
#310=DIRECTION('',(-0.707106781186546,-0.707106781186549,8.65956056235492E-17));
#311=DIRECTION('center_axis',(0.,1.,0.));
#312=DIRECTION('ref_axis',(0.,0.,1.));
#313=DIRECTION('center_axis',(0.,1.,0.));
#314=DIRECTION('ref_axis',(1.,0.,0.));
#315=DIRECTION('center_axis',(0.,1.,0.));
#316=DIRECTION('ref_axis',(0.,0.,1.));
#317=DIRECTION('center_axis',(0.,1.,0.));
#318=DIRECTION('ref_axis',(1.,0.,0.));
#319=DIRECTION('',(0.,-1.,0.));
#320=CARTESIAN_POINT('',(0.,0.,0.));
#321=CARTESIAN_POINT('Origin',(0.,0.5,0.));
#322=CARTESIAN_POINT('',(-26.5,0.,3.24531401774049E-15));
#323=CARTESIAN_POINT('Origin',(0.,0.,0.));
#324=CARTESIAN_POINT('',(-27.5,1.,-3.36777869765522E-15));
#325=CARTESIAN_POINT('',(-27.,0.5,-3.30654635769785E-15));
#326=CARTESIAN_POINT('Origin',(0.,1.,0.));
#327=CARTESIAN_POINT('Origin',(0.,0.,0.));
#328=CARTESIAN_POINT('',(-27.5,7.6,-3.36777869765522E-15));
#329=CARTESIAN_POINT('',(-3.36777869765522E-15,7.6,27.5));
#330=CARTESIAN_POINT('Origin',(0.,7.6,0.));
#331=CARTESIAN_POINT('Origin',(0.,7.6,0.));
#332=CARTESIAN_POINT('',(-27.5,0.,3.36777869765522E-15));
#333=CARTESIAN_POINT('Origin',(1.35722812747142E-15,0.,0.));
#334=CARTESIAN_POINT('Origin',(0.,13.,0.));
#335=CARTESIAN_POINT('',(-27.5,12.6,-3.36777869765522E-15));
#336=CARTESIAN_POINT('',(-3.36777869765522E-15,12.6,27.5));
#337=CARTESIAN_POINT('Origin',(0.,12.6,0.));
#338=CARTESIAN_POINT('Origin',(0.,12.6,0.));
#339=CARTESIAN_POINT('',(-3.36777869765522E-15,13.4,27.5));
#340=CARTESIAN_POINT('Origin',(-3.40451810162964E-15,13.,27.8));
#341=CARTESIAN_POINT('',(-27.5,13.4,3.36777869765522E-15));
#342=CARTESIAN_POINT('Origin',(0.,13.4,0.));
#343=CARTESIAN_POINT('Origin',(0.,13.4,0.));
#344=CARTESIAN_POINT('Origin',(0.,8.,0.));
#345=CARTESIAN_POINT('',(-3.36777869765522E-15,8.4,27.5));
#346=CARTESIAN_POINT('Origin',(-3.40451810162964E-15,8.,27.8));
#347=CARTESIAN_POINT('',(-27.5,8.4,3.36777869765522E-15));
#348=CARTESIAN_POINT('Origin',(0.,8.4,0.));
#349=CARTESIAN_POINT('Origin',(0.,8.4,0.));
#350=CARTESIAN_POINT('Origin',(0.,0.,0.));
#351=CARTESIAN_POINT('',(-27.5,0.,3.36777869765522E-15));
#352=CARTESIAN_POINT('Origin',(0.,10.25,0.));
#353=CARTESIAN_POINT('',(26.,10.5,-3.18408167778312E-15));
#354=CARTESIAN_POINT('Origin',(0.,10.5,0.));
#355=CARTESIAN_POINT('',(26.5,10.,-3.24531401774049E-15));
#356=CARTESIAN_POINT('',(26.25,10.25,-3.2146978477618E-15));
#357=CARTESIAN_POINT('Origin',(0.,10.,0.));
#358=CARTESIAN_POINT('Origin',(0.,15.,0.));
#359=CARTESIAN_POINT('',(26.,14.5,3.18408167778312E-15));
#360=CARTESIAN_POINT('Origin',(0.,14.5,0.));
#361=CARTESIAN_POINT('',(26.,15.,3.18408167778312E-15));
#362=CARTESIAN_POINT('Origin',(0.,10.,0.));
#363=CARTESIAN_POINT('',(26.5,2.,-3.24531401774049E-15));
#364=CARTESIAN_POINT('',(26.5,10.,3.24531401774049E-15));
#365=CARTESIAN_POINT('Origin',(0.,2.,0.));
#366=CARTESIAN_POINT('Origin',(0.,14.75,0.));
#367=CARTESIAN_POINT('',(26.5,15.,-3.24531401774049E-15));
#368=CARTESIAN_POINT('Origin',(0.,15.,0.));
#369=CARTESIAN_POINT('',(26.25,14.75,-3.2146978477618E-15));
#370=CARTESIAN_POINT('Origin',(1.35722812747142E-15,15.,0.));
#371=CARTESIAN_POINT('',(-27.5,15.,3.36777869765522E-15));
#372=CARTESIAN_POINT('Origin',(0.,15.,0.));
#373=CARTESIAN_POINT('Origin',(-2.6534013981526E-16,2.,0.));
#374=CARTESIAN_POINT('Origin',(0.,0.,0.));
#375=CARTESIAN_POINT('',(-27.5,0.,3.36777869765522E-15));
#376=UNCERTAINTY_MEASURE_WITH_UNIT(LENGTH_MEASURE(0.01),#380,
'DISTANCE_ACCURACY_VALUE',
'Maximum model space distance between geometric entities at asserted c
onnectivities');
#377=UNCERTAINTY_MEASURE_WITH_UNIT(LENGTH_MEASURE(0.01),#380,
'DISTANCE_ACCURACY_VALUE',
'Maximum model space distance between geometric entities at asserted c
onnectivities');
#378=(
GEOMETRIC_REPRESENTATION_CONTEXT(3)
GLOBAL_UNCERTAINTY_ASSIGNED_CONTEXT((#376))
GLOBAL_UNIT_ASSIGNED_CONTEXT((#380,#383,#382))
REPRESENTATION_CONTEXT('','3D')
);
#379=(
GEOMETRIC_REPRESENTATION_CONTEXT(3)
GLOBAL_UNCERTAINTY_ASSIGNED_CONTEXT((#377))
GLOBAL_UNIT_ASSIGNED_CONTEXT((#380,#383,#382))
REPRESENTATION_CONTEXT('','3D')
);
#380=(
LENGTH_UNIT()
NAMED_UNIT(*)
SI_UNIT(.MILLI.,.METRE.)
);
#381=(
LENGTH_UNIT()
NAMED_UNIT(*)
SI_UNIT(.CENTI.,.METRE.)
);
#382=(
NAMED_UNIT(*)
SI_UNIT($,.STERADIAN.)
SOLID_ANGLE_UNIT()
);
#383=(
NAMED_UNIT(*)
PLANE_ANGLE_UNIT()
SI_UNIT($,.RADIAN.)
);
#384=SHAPE_DEFINITION_REPRESENTATION(#385,#386);
#385=PRODUCT_DEFINITION_SHAPE('',$,#388);
#386=SHAPE_REPRESENTATION('',(#216),#378);
#387=PRODUCT_DEFINITION_CONTEXT('part definition',#392,'design');
#388=PRODUCT_DEFINITION('Socle','Socle',#389,#387);
#389=PRODUCT_DEFINITION_FORMATION('',$,#394);
#390=PRODUCT_RELATED_PRODUCT_CATEGORY('Socle','Socle',(#394));
#391=APPLICATION_PROTOCOL_DEFINITION('international standard',
'automotive_design',2009,#392);
#392=APPLICATION_CONTEXT(
'Core Data for Automotive Mechanical Design Process');
#393=PRODUCT_CONTEXT('part definition',#392,'mechanical');
#394=PRODUCT('Socle','Socle',$,(#393));
#395=PRESENTATION_STYLE_ASSIGNMENT((#396));
#396=SURFACE_STYLE_USAGE(.BOTH.,#397);
#397=SURFACE_SIDE_STYLE('',(#398));
#398=SURFACE_STYLE_FILL_AREA(#399);
#399=FILL_AREA_STYLE('',(#400));
#400=FILL_AREA_STYLE_COLOUR('',#401);
#401=COLOUR_RGB('',0.898039215686275,0.898039215686275,0.898039215686275);
ENDSEC;
END-ISO-10303-21;
