ISO-10303-21;
HEADER;
/* Generated by software containing ST-Developer
 * from STEP Tools, Inc. (www.steptools.com) 
 */

FILE_DESCRIPTION(
/* description */ (''),
/* implementation_level */ '2;1');

FILE_NAME(
/* name */ 
'C:\\Users\\BAILLEUX\\Desktop\\Sym\X\E9trieTT EAUX-RESER EAUX DE LAVAG
E-VAPEUR D''''UTILITE.stp',
/* time_stamp */ '2019-05-29T14:00:30+01:00',
/* author */ ('BAILLEUX'),
/* organization */ (''),
/* preprocessor_version */ 'ST-DEVELOPER v16.13',
/* originating_system */ 'Autodesk Inventor 2018',
/* authorisation */ '');

FILE_SCHEMA (('AUTOMOTIVE_DESIGN { 1 0 10303 214 3 1 1 }'));
ENDSEC;

DATA;
#10=MECHANICAL_DESIGN_GEOMETRIC_PRESENTATION_REPRESENTATION('',(#13),#201);
#11=SHAPE_REPRESENTATION_RELATIONSHIP('SRR','None',#208,#12);
#12=ADVANCED_BREP_SHAPE_REPRESENTATION('',(#14),#200);
#13=STYLED_ITEM('',(#217),#14);
#14=MANIFOLD_SOLID_BREP('Solide1',#103);
#15=PLANE('',#135);
#16=PLANE('',#136);
#17=PLANE('',#137);
#18=PLANE('',#138);
#19=FACE_BOUND('',#36,.T.);
#20=FACE_BOUND('',#38,.T.);
#21=FACE_BOUND('',#40,.T.);
#22=FACE_BOUND('',#42,.T.);
#23=FACE_BOUND('',#44,.T.);
#24=FACE_BOUND('',#46,.T.);
#25=FACE_BOUND('',#48,.T.);
#26=FACE_BOUND('',#50,.T.);
#27=FACE_OUTER_BOUND('',#35,.T.);
#28=FACE_OUTER_BOUND('',#37,.T.);
#29=FACE_OUTER_BOUND('',#39,.T.);
#30=FACE_OUTER_BOUND('',#41,.T.);
#31=FACE_OUTER_BOUND('',#43,.T.);
#32=FACE_OUTER_BOUND('',#45,.T.);
#33=FACE_OUTER_BOUND('',#47,.T.);
#34=FACE_OUTER_BOUND('',#49,.T.);
#35=EDGE_LOOP('',(#75));
#36=EDGE_LOOP('',(#76));
#37=EDGE_LOOP('',(#77));
#38=EDGE_LOOP('',(#78));
#39=EDGE_LOOP('',(#79));
#40=EDGE_LOOP('',(#80));
#41=EDGE_LOOP('',(#81));
#42=EDGE_LOOP('',(#82));
#43=EDGE_LOOP('',(#83));
#44=EDGE_LOOP('',(#84));
#45=EDGE_LOOP('',(#85));
#46=EDGE_LOOP('',(#86));
#47=EDGE_LOOP('',(#87));
#48=EDGE_LOOP('',(#88));
#49=EDGE_LOOP('',(#89));
#50=EDGE_LOOP('',(#90));
#51=CIRCLE('',#124,9.00000000000001);
#52=CIRCLE('',#125,9.00000000000001);
#53=CIRCLE('',#127,12.);
#54=CIRCLE('',#128,12.);
#55=CIRCLE('',#130,15.5);
#56=CIRCLE('',#131,15.5);
#57=CIRCLE('',#133,12.);
#58=CIRCLE('',#134,12.);
#59=VERTEX_POINT('',#175);
#60=VERTEX_POINT('',#177);
#61=VERTEX_POINT('',#180);
#62=VERTEX_POINT('',#182);
#63=VERTEX_POINT('',#185);
#64=VERTEX_POINT('',#187);
#65=VERTEX_POINT('',#190);
#66=VERTEX_POINT('',#192);
#67=EDGE_CURVE('',#59,#59,#51,.T.);
#68=EDGE_CURVE('',#60,#60,#52,.T.);
#69=EDGE_CURVE('',#61,#61,#53,.T.);
#70=EDGE_CURVE('',#62,#62,#54,.T.);
#71=EDGE_CURVE('',#63,#63,#55,.T.);
#72=EDGE_CURVE('',#64,#64,#56,.T.);
#73=EDGE_CURVE('',#65,#65,#57,.T.);
#74=EDGE_CURVE('',#66,#66,#58,.T.);
#75=ORIENTED_EDGE('',*,*,#67,.T.);
#76=ORIENTED_EDGE('',*,*,#68,.F.);
#77=ORIENTED_EDGE('',*,*,#69,.T.);
#78=ORIENTED_EDGE('',*,*,#70,.F.);
#79=ORIENTED_EDGE('',*,*,#71,.F.);
#80=ORIENTED_EDGE('',*,*,#72,.T.);
#81=ORIENTED_EDGE('',*,*,#73,.T.);
#82=ORIENTED_EDGE('',*,*,#74,.F.);
#83=ORIENTED_EDGE('',*,*,#72,.F.);
#84=ORIENTED_EDGE('',*,*,#74,.T.);
#85=ORIENTED_EDGE('',*,*,#71,.T.);
#86=ORIENTED_EDGE('',*,*,#69,.F.);
#87=ORIENTED_EDGE('',*,*,#70,.T.);
#88=ORIENTED_EDGE('',*,*,#67,.F.);
#89=ORIENTED_EDGE('',*,*,#73,.F.);
#90=ORIENTED_EDGE('',*,*,#68,.T.);
#91=CYLINDRICAL_SURFACE('',#123,9.00000000000001);
#92=CYLINDRICAL_SURFACE('',#126,12.);
#93=CYLINDRICAL_SURFACE('',#129,15.5);
#94=CYLINDRICAL_SURFACE('',#132,12.);
#95=ADVANCED_FACE('',(#27,#19),#91,.F.);
#96=ADVANCED_FACE('',(#28,#20),#92,.F.);
#97=ADVANCED_FACE('',(#29,#21),#93,.T.);
#98=ADVANCED_FACE('',(#30,#22),#94,.F.);
#99=ADVANCED_FACE('',(#31,#23),#15,.T.);
#100=ADVANCED_FACE('',(#32,#24),#16,.T.);
#101=ADVANCED_FACE('',(#33,#25),#17,.T.);
#102=ADVANCED_FACE('',(#34,#26),#18,.T.);
#103=CLOSED_SHELL('',(#95,#96,#97,#98,#99,#100,#101,#102));
#104=DERIVED_UNIT_ELEMENT(#106,0.);
#105=DERIVED_UNIT_ELEMENT(#203,0.);
#106=(
MASS_UNIT()
NAMED_UNIT(*)
SI_UNIT($,.GRAM.)
);
#107=DERIVED_UNIT((#104,#105));
#108=MEASURE_REPRESENTATION_ITEM('density measure',
POSITIVE_RATIO_MEASURE(8.),#107);
#109=PROPERTY_DEFINITION_REPRESENTATION(#114,#111);
#110=PROPERTY_DEFINITION_REPRESENTATION(#115,#112);
#111=REPRESENTATION('material name',(#113),#200);
#112=REPRESENTATION('density',(#108),#200);
#113=DESCRIPTIVE_REPRESENTATION_ITEM('Acier inoxydable',
'Acier inoxydable');
#114=PROPERTY_DEFINITION('material property','material name',#210);
#115=PROPERTY_DEFINITION('material property','density of part',#210);
#116=DATE_TIME_ROLE('creation_date');
#117=APPLIED_DATE_AND_TIME_ASSIGNMENT(#118,#116,(#210));
#118=DATE_AND_TIME(#119,#120);
#119=CALENDAR_DATE(2016,14,11);
#120=LOCAL_TIME(0,43,21.,#121);
#121=COORDINATED_UNIVERSAL_TIME_OFFSET(0,0,.BEHIND.);
#122=AXIS2_PLACEMENT_3D('placement',#173,#139,#140);
#123=AXIS2_PLACEMENT_3D('',#174,#141,#142);
#124=AXIS2_PLACEMENT_3D('',#176,#143,#144);
#125=AXIS2_PLACEMENT_3D('',#178,#145,#146);
#126=AXIS2_PLACEMENT_3D('',#179,#147,#148);
#127=AXIS2_PLACEMENT_3D('',#181,#149,#150);
#128=AXIS2_PLACEMENT_3D('',#183,#151,#152);
#129=AXIS2_PLACEMENT_3D('',#184,#153,#154);
#130=AXIS2_PLACEMENT_3D('',#186,#155,#156);
#131=AXIS2_PLACEMENT_3D('',#188,#157,#158);
#132=AXIS2_PLACEMENT_3D('',#189,#159,#160);
#133=AXIS2_PLACEMENT_3D('',#191,#161,#162);
#134=AXIS2_PLACEMENT_3D('',#193,#163,#164);
#135=AXIS2_PLACEMENT_3D('',#194,#165,#166);
#136=AXIS2_PLACEMENT_3D('',#195,#167,#168);
#137=AXIS2_PLACEMENT_3D('',#196,#169,#170);
#138=AXIS2_PLACEMENT_3D('',#197,#171,#172);
#139=DIRECTION('axis',(0.,0.,1.));
#140=DIRECTION('refdir',(1.,0.,0.));
#141=DIRECTION('center_axis',(-1.,0.,-1.73194791841524E-14));
#142=DIRECTION('ref_axis',(1.73194791841524E-14,1.3877787807815E-16,-1.));
#143=DIRECTION('center_axis',(1.,0.,1.73194791841524E-14));
#144=DIRECTION('ref_axis',(1.73194791841524E-14,1.38777878078144E-16,-1.));
#145=DIRECTION('center_axis',(1.,0.,1.73194791841524E-14));
#146=DIRECTION('ref_axis',(1.73194791841524E-14,1.38777878078144E-16,-1.));
#147=DIRECTION('center_axis',(-1.,0.,-1.73194791841524E-14));
#148=DIRECTION('ref_axis',(1.73194791841524E-14,1.38777878078141E-16,-1.));
#149=DIRECTION('center_axis',(1.,0.,1.73194791841524E-14));
#150=DIRECTION('ref_axis',(1.73194791841524E-14,1.38777878078141E-16,-1.));
#151=DIRECTION('center_axis',(1.,0.,1.73194791841524E-14));
#152=DIRECTION('ref_axis',(1.73194791841524E-14,1.38777878078146E-16,-1.));
#153=DIRECTION('center_axis',(-1.,0.,-1.73194791841524E-14));
#154=DIRECTION('ref_axis',(1.73194791841524E-14,1.38777878078145E-16,-1.));
#155=DIRECTION('center_axis',(1.,0.,1.73194791841524E-14));
#156=DIRECTION('ref_axis',(1.73194791841524E-14,1.38777878078145E-16,-1.));
#157=DIRECTION('center_axis',(1.,0.,1.73194791841524E-14));
#158=DIRECTION('ref_axis',(1.73194791841524E-14,1.38777878078145E-16,-1.));
#159=DIRECTION('center_axis',(-1.,0.,-1.73194791841524E-14));
#160=DIRECTION('ref_axis',(1.73194791841524E-14,1.38777878078141E-16,-1.));
#161=DIRECTION('center_axis',(1.,0.,1.73194791841524E-14));
#162=DIRECTION('ref_axis',(1.73194791841524E-14,1.38777878078146E-16,-1.));
#163=DIRECTION('center_axis',(1.,0.,1.73194791841524E-14));
#164=DIRECTION('ref_axis',(1.73194791841524E-14,1.38777878078146E-16,-1.));
#165=DIRECTION('center_axis',(-1.,-2.31111593326489E-32,-1.71529457304587E-14));
#166=DIRECTION('ref_axis',(1.71529457304587E-14,1.38777878078144E-16,-1.));
#167=DIRECTION('center_axis',(1.,2.31111593326489E-32,1.71529457304587E-14));
#168=DIRECTION('ref_axis',(-1.71529457304587E-14,-1.38777878078144E-16,
1.));
#169=DIRECTION('center_axis',(1.,2.31111593326489E-32,1.71529457304587E-14));
#170=DIRECTION('ref_axis',(-1.71529457304587E-14,-1.38777878078144E-16,
1.));
#171=DIRECTION('center_axis',(-1.,-2.31111593326489E-32,-1.71529457304587E-14));
#172=DIRECTION('ref_axis',(1.71529457304587E-14,1.38777878078144E-16,-1.));
#173=CARTESIAN_POINT('',(0.,0.,0.));
#174=CARTESIAN_POINT('Origin',(430.35922306997,4.44089209850063E-13,430.359223069978));
#175=CARTESIAN_POINT('',(439.85922306997,2.23293605827735E-13,421.359223069978));
#176=CARTESIAN_POINT('Origin',(439.85922306997,2.22044604925031E-13,430.359223069978));
#177=CARTESIAN_POINT('',(420.85922306997,2.23293605827735E-13,421.359223069978));
#178=CARTESIAN_POINT('Origin',(420.85922306997,2.22044604925031E-13,430.359223069978));
#179=CARTESIAN_POINT('Origin',(430.35922306997,4.44089209850063E-13,430.359223069978));
#180=CARTESIAN_POINT('',(449.85922306997,4.45754544387E-13,418.359223069978));
#181=CARTESIAN_POINT('Origin',(449.85922306997,4.44089209850063E-13,430.359223069978));
#182=CARTESIAN_POINT('',(439.85922306997,2.23709939461969E-13,418.359223069978));
#183=CARTESIAN_POINT('Origin',(439.85922306997,2.22044604925031E-13,430.359223069978));
#184=CARTESIAN_POINT('Origin',(430.35922306997,4.44089209850063E-13,430.359223069978));
#185=CARTESIAN_POINT('',(449.85922306997,4.46240266960274E-13,414.859223069978));
#186=CARTESIAN_POINT('Origin',(449.85922306997,4.44089209850063E-13,430.359223069978));
#187=CARTESIAN_POINT('',(410.85922306997,2.24195662035243E-13,414.859223069977));
#188=CARTESIAN_POINT('Origin',(410.85922306997,2.22044604925031E-13,430.359223069977));
#189=CARTESIAN_POINT('Origin',(430.35922306997,4.44089209850063E-13,430.359223069978));
#190=CARTESIAN_POINT('',(420.85922306997,2.23709939461969E-13,418.359223069978));
#191=CARTESIAN_POINT('Origin',(420.85922306997,2.22044604925031E-13,430.359223069978));
#192=CARTESIAN_POINT('',(410.85922306997,2.23709939461969E-13,418.359223069977));
#193=CARTESIAN_POINT('Origin',(410.85922306997,2.22044604925031E-13,430.359223069977));
#194=CARTESIAN_POINT('Origin',(410.85922306997,4.44089209850063E-13,418.359223069977));
#195=CARTESIAN_POINT('Origin',(449.85922306997,4.44089209850063E-13,418.359223069978));
#196=CARTESIAN_POINT('Origin',(439.85922306997,4.44089209850063E-13,421.359223069978));
#197=CARTESIAN_POINT('Origin',(420.85922306997,2.22044604925031E-13,421.359223069978));
#198=UNCERTAINTY_MEASURE_WITH_UNIT(LENGTH_MEASURE(0.01),#202,
'DISTANCE_ACCURACY_VALUE',
'Maximum model space distance between geometric entities at asserted c
onnectivities');
#199=UNCERTAINTY_MEASURE_WITH_UNIT(LENGTH_MEASURE(0.01),#202,
'DISTANCE_ACCURACY_VALUE',
'Maximum model space distance between geometric entities at asserted c
onnectivities');
#200=(
GEOMETRIC_REPRESENTATION_CONTEXT(3)
GLOBAL_UNCERTAINTY_ASSIGNED_CONTEXT((#198))
GLOBAL_UNIT_ASSIGNED_CONTEXT((#202,#205,#204))
REPRESENTATION_CONTEXT('','3D')
);
#201=(
GEOMETRIC_REPRESENTATION_CONTEXT(3)
GLOBAL_UNCERTAINTY_ASSIGNED_CONTEXT((#199))
GLOBAL_UNIT_ASSIGNED_CONTEXT((#202,#205,#204))
REPRESENTATION_CONTEXT('','3D')
);
#202=(
LENGTH_UNIT()
NAMED_UNIT(*)
SI_UNIT(.MILLI.,.METRE.)
);
#203=(
LENGTH_UNIT()
NAMED_UNIT(*)
SI_UNIT(.CENTI.,.METRE.)
);
#204=(
NAMED_UNIT(*)
SI_UNIT($,.STERADIAN.)
SOLID_ANGLE_UNIT()
);
#205=(
NAMED_UNIT(*)
PLANE_ANGLE_UNIT()
SI_UNIT($,.RADIAN.)
);
#206=SHAPE_DEFINITION_REPRESENTATION(#207,#208);
#207=PRODUCT_DEFINITION_SHAPE('',$,#210);
#208=SHAPE_REPRESENTATION('',(#122),#200);
#209=PRODUCT_DEFINITION_CONTEXT('part definition',#214,'design');
#210=PRODUCT_DEFINITION(
'Sym\X\E9trieTT EAUX-RESER EAUX DE LAVAGE-VAPEUR D''''UTILITE',
'Sym\X\E9trieTT EAUX-RESER EAUX DE LAVAGE-VAPEUR D''''UTILITE',#211,#209);
#211=PRODUCT_DEFINITION_FORMATION('ANY',$,#216);
#212=PRODUCT_RELATED_PRODUCT_CATEGORY(
'Sym\X\E9trieTT EAUX-RESER EAUX DE LAVAGE-VAPEUR D''''UTILITE',
'Sym\X\E9trieTT EAUX-RESER EAUX DE LAVAGE-VAPEUR D''''UTILITE',(#216));
#213=APPLICATION_PROTOCOL_DEFINITION('international standard',
'automotive_design',2009,#214);
#214=APPLICATION_CONTEXT(
'Core Data for Automotive Mechanical Design Process');
#215=PRODUCT_CONTEXT('part definition',#214,'mechanical');
#216=PRODUCT('Sym\X\E9trieTT EAUX-RESER EAUX DE LAVAGE-VAPEUR D''''UTI
LITE','Sym\X\E9trieTT EAUX-RESER EAUX DE LAVAGE-VAPEUR D''''UTILITE',$,
(#215));
#217=PRESENTATION_STYLE_ASSIGNMENT((#218));
#218=SURFACE_STYLE_USAGE(.BOTH.,#219);
#219=SURFACE_SIDE_STYLE('',(#220));
#220=SURFACE_STYLE_FILL_AREA(#221);
#221=FILL_AREA_STYLE('',(#222));
#222=FILL_AREA_STYLE_COLOUR('',#223);
#223=COLOUR_RGB('',0.745098039215686,0.737254901960784,0.729411764705882);
ENDSEC;
END-ISO-10303-21;
