ISO-10303-21;
HEADER;
FILE_DESCRIPTION (( 'STEP AP214' ),
    '1' );
FILE_NAME ('tube diam 199.5 ep 2.STEP',
    '2019-04-30T08:38:58',
    ( '' ),
    ( '' ),
    'SwSTEP 2.0',
    'SolidWorks 2016',
    '' );
FILE_SCHEMA (( 'AUTOMOTIVE_DESIGN' ));
ENDSEC;

DATA;
#1 = PRESENTATION_STYLE_ASSIGNMENT (( #168 ) ) ;
#2 = SURFACE_SIDE_STYLE ('',( #69 ) ) ;
#3 = CYLINDRICAL_SURFACE ( 'NONE', #27, 97.74999999999998600 ) ;
#4 = AXIS2_PLACEMENT_3D ( 'NONE', #137, #33, #123 ) ;
#5 = ORIENTED_EDGE ( 'NONE', *, *, #132, .T. ) ;
#6 = UNCERTAINTY_MEASURE_WITH_UNIT (LENGTH_MEASURE( 1.000000000000000100E-005 ), #58, 'distance_accuracy_value', 'NONE');
#7 = LINE ( 'NONE', #74, #79 ) ;
#8 = AXIS2_PLACEMENT_3D ( 'NONE', #188, #72, #169 ) ;
#9 = PRODUCT_DEFINITION_SHAPE ( 'NONE', 'NONE',  #46 ) ;
#10 = LINE ( 'NONE', #45, #54 ) ;
#11 = DIRECTION ( 'NONE',  ( 1.000000000000000000, 0.0000000000000000000, 0.0000000000000000000 ) ) ;
#12 = VERTEX_POINT ( 'NONE', #165 ) ;
#13 = APPLICATION_PROTOCOL_DEFINITION ( 'draft international standard', 'automotive_design', 1998, #209 ) ;
#14 = CARTESIAN_POINT ( 'NONE',  ( 97.74999999999998600, 1.197092246166537800E-014, -2.530209723738174400E-029 ) ) ;
#15 = DIRECTION ( 'NONE',  ( 2.588449845256445000E-031, -9.860761315262647600E-032, 1.000000000000000000 ) ) ;
#16 = AXIS2_PLACEMENT_3D ( 'NONE', #138, #34, #124 ) ;
#17 = CARTESIAN_POINT ( 'NONE',  ( -97.74999999999998600, 2.372585365103882300E-030, 2.530209723738174400E-029 ) ) ;
#18 = DIRECTION ( 'NONE',  ( -2.465190328815661900E-031, -9.860761315262647600E-032, 1.000000000000000000 ) ) ;
#19 = CARTESIAN_POINT ( 'NONE',  ( 0.0000000000000000000, 0.0000000000000000000, 0.0000000000000000000 ) ) ;
#20 = DIRECTION ( 'NONE',  ( 2.588449845256445000E-031, -9.860761315262647600E-032, 1.000000000000000000 ) ) ;
#21 = DIRECTION ( 'NONE',  ( 1.000000000000000000, 9.473653576652585000E-034, 2.465190328815661900E-031 ) ) ;
#22 = ADVANCED_FACE ( 'NONE', ( #200, #145 ), #129, .F. ) ;
#23 = VERTEX_POINT ( 'NONE', #14 ) ;
#24 = EDGE_LOOP ( 'NONE', ( #166, #112 ) ) ;
#25 = CIRCLE ( 'NONE', #214, 99.75000000000000000 ) ;
#26 = FACE_OUTER_BOUND ( 'NONE', #41, .T. ) ;
#27 = AXIS2_PLACEMENT_3D ( 'NONE', #189, #170, #153 ) ;
#28 = DIRECTION ( 'NONE',  ( 0.0000000000000000000, 0.0000000000000000000, 1.000000000000000000 ) ) ;
#29 = EDGE_LOOP ( 'NONE', ( #184, #207, #144, #75 ) ) ;
#30 =( NAMED_UNIT ( * ) SI_UNIT ( $, .STERADIAN. ) SOLID_ANGLE_UNIT ( ) );
#31 = AXIS2_PLACEMENT_3D ( 'NONE', #97, #126, #63 ) ;
#32 = CARTESIAN_POINT ( 'NONE',  ( 99.75000000000000000, 1.221585182149484800E-014, 49.99999999999998600 ) ) ;
#33 = DIRECTION ( 'NONE',  ( 2.588449845256445000E-031, -9.860761315262647600E-032, 1.000000000000000000 ) ) ;
#34 = DIRECTION ( 'NONE',  ( 2.588449845256445000E-031, -9.860761315262647600E-032, 1.000000000000000000 ) ) ;
#35 = ORIENTED_EDGE ( 'NONE', *, *, #195, .F. ) ;
#36 = SHAPE_DEFINITION_REPRESENTATION ( #9, #55 ) ;
#37 = PRODUCT_DEFINITION_FORMATION_WITH_SPECIFIED_SOURCE ( 'ANY', '', #71, .NOT_KNOWN. ) ;
#38 = ADVANCED_FACE ( 'NONE', ( #206 ), #133, .F. ) ;
#39 = VERTEX_POINT ( 'NONE', #47 ) ;
#40 = EDGE_CURVE ( 'NONE', #183, #99, #25, .T. ) ;
#41 = EDGE_LOOP ( 'NONE', ( #88, #96, #160, #56 ) ) ;
#42 =( NAMED_UNIT ( * ) SI_UNIT ( $, .STERADIAN. ) SOLID_ANGLE_UNIT ( ) );
#43 =( LENGTH_UNIT ( ) NAMED_UNIT ( * ) SI_UNIT ( .MILLI., .METRE. ) );
#44 = DIRECTION ( 'NONE',  ( -2.588449845256445000E-031, 9.860761315262647600E-032, -1.000000000000000000 ) ) ;
#45 = CARTESIAN_POINT ( 'NONE',  ( -97.74999999999998600, -9.260496371177901000E-032, 49.99999999999998600 ) ) ;
#46 = PRODUCT_DEFINITION ( 'UNKNOWN', '', #37, #131 ) ;
#47 = CARTESIAN_POINT ( 'NONE',  ( -97.74999999999998600, 2.372585365103882300E-030, 49.99999999999998600 ) ) ;
#48 = DIRECTION ( 'NONE',  ( 2.588449845256445000E-031, -9.860761315262647600E-032, 1.000000000000000000 ) ) ;
#49 = DIRECTION ( 'NONE',  ( -2.588449845256445000E-031, 9.860761315262647600E-032, -1.000000000000000000 ) ) ;
#50 = CIRCLE ( 'NONE', #149, 97.74999999999998600 ) ;
#51 = EDGE_CURVE ( 'NONE', #179, #39, #87, .T. ) ;
#52 = MANIFOLD_SOLID_BREP ( 'Boss.-Extru.1', #67 ) ;
#53 = LINE ( 'NONE', #159, #103 ) ;
#54 = VECTOR ( 'NONE', #92, 1000.000000000000000 ) ;
#55 = ADVANCED_BREP_SHAPE_REPRESENTATION ( 'tube diam 199.5 ep 2', ( #52, #66 ), #190 ) ;
#56 = ORIENTED_EDGE ( 'NONE', *, *, #122, .T. ) ;
#57 = VERTEX_POINT ( 'NONE', #17 ) ;
#58 =( LENGTH_UNIT ( ) NAMED_UNIT ( * ) SI_UNIT ( .MILLI., .METRE. ) );
#59 = PRESENTATION_LAYER_ASSIGNMENT (  '', '', ( #154 ) ) ;
#60 = PLANE ( 'NONE',  #202 ) ;
#61 = DIRECTION ( 'NONE',  ( 2.588449845256445000E-031, -9.860761315262647600E-032, 1.000000000000000000 ) ) ;
#62 = FACE_OUTER_BOUND ( 'NONE', #24, .T. ) ;
#63 = DIRECTION ( 'NONE',  ( -1.000000000000000000, -9.473653576652585000E-034, 0.0000000000000000000 ) ) ;
#64 = DIRECTION ( 'NONE',  ( -2.588449845256445000E-031, 9.860761315262647600E-032, -1.000000000000000000 ) ) ;
#65 = PRODUCT_RELATED_PRODUCT_CATEGORY ( 'part', '', ( #71 ) ) ;
#66 = AXIS2_PLACEMENT_3D ( 'NONE', #152, #28, #11 ) ;
#67 = CLOSED_SHELL ( 'NONE', ( #38, #101, #116, #22, #161, #180 ) ) ;
#68 = ORIENTED_EDGE ( 'NONE', *, *, #51, .F. ) ;
#69 = SURFACE_STYLE_FILL_AREA ( #205 ) ;
#70 = SURFACE_SIDE_STYLE ('',( #148 ) ) ;
#71 = PRODUCT ( 'tube diam 199.5 ep 2', 'tube diam 199.5 ep 2', '', ( #106 ) ) ;
#72 = DIRECTION ( 'NONE',  ( 2.588449845256445000E-031, -9.860761315262647600E-032, 1.000000000000000000 ) ) ;
#73 = CARTESIAN_POINT ( 'NONE',  ( 97.74999999999998600, 1.197092246166537800E-014, 49.99999999999998600 ) ) ;
#74 = CARTESIAN_POINT ( 'NONE',  ( 97.74999999999998600, 1.197092246166537700E-014, 49.99999999999998600 ) ) ;
#75 = ORIENTED_EDGE ( 'NONE', *, *, #82, .F. ) ;
#76 =( NAMED_UNIT ( * ) PLANE_ANGLE_UNIT ( ) SI_UNIT ( $, .RADIAN. ) );
#77 = ORIENTED_EDGE ( 'NONE', *, *, #86, .T. ) ;
#78 = COLOUR_RGB ( '',0.7921568627450980000, 0.8196078431372548800, 0.9333333333333333500 ) ;
#79 = VECTOR ( 'NONE', #171, 1000.000000000000000 ) ;
#80 = EDGE_CURVE ( 'NONE', #99, #183, #117, .T. ) ;
#81 = CIRCLE ( 'NONE', #16, 99.75000000000000000 ) ;
#82 = EDGE_CURVE ( 'NONE', #99, #12, #53, .T. ) ;
#83 = VECTOR ( 'NONE', #44, 1000.000000000000000 ) ;
#84 =( GEOMETRIC_REPRESENTATION_CONTEXT ( 3 ) GLOBAL_UNCERTAINTY_ASSIGNED_CONTEXT ( ( #85 ) ) GLOBAL_UNIT_ASSIGNED_CONTEXT ( ( #194, #76, #174 ) ) REPRESENTATION_CONTEXT ( 'NONE', 'WORKASPACE' ) );
#85 = UNCERTAINTY_MEASURE_WITH_UNIT (LENGTH_MEASURE( 1.000000000000000100E-005 ), #194, 'distance_accuracy_value', 'NONE');
#86 = EDGE_CURVE ( 'NONE', #39, #179, #182, .T. ) ;
#87 = CIRCLE ( 'NONE', #104, 97.74999999999998600 ) ;
#88 = ORIENTED_EDGE ( 'NONE', *, *, #210, .F. ) ;
#89 = APPLICATION_PROTOCOL_DEFINITION ( 'draft international standard', 'automotive_design', 1998, #208 ) ;
#90 = FILL_AREA_STYLE_COLOUR ( '', #78 ) ;
#91 = AXIS2_PLACEMENT_3D ( 'NONE', #191, #115, #21 ) ;
#92 = DIRECTION ( 'NONE',  ( -2.588449845256445000E-031, 9.860761315262647600E-032, -1.000000000000000000 ) ) ;
#93 = EDGE_CURVE ( 'NONE', #57, #23, #50, .T. ) ;
#94 = ORIENTED_EDGE ( 'NONE', *, *, #51, .T. ) ;
#95 = CARTESIAN_POINT ( 'NONE',  ( 0.0000000000000000000, 0.0000000000000000000, 49.99999999999998600 ) ) ;
#96 = ORIENTED_EDGE ( 'NONE', *, *, #80, .F. ) ;
#97 = CARTESIAN_POINT ( 'NONE',  ( 0.0000000000000000000, 0.0000000000000000000, 49.99999999999998600 ) ) ;
#98 = SURFACE_STYLE_USAGE ( .BOTH. , #2 ) ;
#99 = VERTEX_POINT ( 'NONE', #142 ) ;
#100 = CARTESIAN_POINT ( 'NONE',  ( 0.0000000000000000000, 0.0000000000000000000, 49.99999999999998600 ) ) ;
#101 = ADVANCED_FACE ( 'NONE', ( #119 ), #204, .T. ) ;
#102 = AXIS2_PLACEMENT_3D ( 'NONE', #127, #20, #113 ) ;
#103 = VECTOR ( 'NONE', #49, 1000.000000000000000 ) ;
#104 = AXIS2_PLACEMENT_3D ( 'NONE', #192, #15, #120 ) ;
#105 = ORIENTED_EDGE ( 'NONE', *, *, #122, .F. ) ;
#106 = PRODUCT_CONTEXT ( 'NONE', #209, 'mechanical' ) ;
#107 = CARTESIAN_POINT ( 'NONE',  ( 0.0000000000000000000, 0.0000000000000000000, 49.99999999999998600 ) ) ;
#108 = DIRECTION ( 'NONE',  ( 1.000000000000000000, 9.473653576652585000E-034, 2.465190328815661900E-031 ) ) ;
#109 = PRESENTATION_LAYER_ASSIGNMENT (  '', '', ( #185 ) ) ;
#110 = FACE_BOUND ( 'NONE', #136, .T. ) ;
#111 = DIRECTION ( 'NONE',  ( 2.588449845256445000E-031, -9.860761315262647600E-032, 1.000000000000000000 ) ) ;
#112 = ORIENTED_EDGE ( 'NONE', *, *, #40, .T. ) ;
#113 = DIRECTION ( 'NONE',  ( 1.000000000000000000, 9.473653576652585000E-034, 0.0000000000000000000 ) ) ;
#114 = EDGE_CURVE ( 'NONE', #186, #12, #81, .T. ) ;
#115 = DIRECTION ( 'NONE',  ( -2.465190328815661900E-031, -9.860761315262647600E-032, 1.000000000000000000 ) ) ;
#116 = ADVANCED_FACE ( 'NONE', ( #62, #110 ), #60, .T. ) ;
#117 = CIRCLE ( 'NONE', #102, 99.75000000000000000 ) ;
#118 = EDGE_CURVE ( 'NONE', #179, #23, #7, .T. ) ;
#119 = FACE_OUTER_BOUND ( 'NONE', #29, .T. ) ;
#120 = DIRECTION ( 'NONE',  ( 1.000000000000000000, 9.473653576652585000E-034, 0.0000000000000000000 ) ) ;
#121 = CARTESIAN_POINT ( 'NONE',  ( 99.75000000000000000, 1.221585182149485200E-014, -2.581978720643304400E-029 ) ) ;
#122 = EDGE_CURVE ( 'NONE', #12, #186, #201, .T. ) ;
#123 = DIRECTION ( 'NONE',  ( 1.000000000000000000, 9.473653576652585000E-034, 2.465190328815661900E-031 ) ) ;
#124 = DIRECTION ( 'NONE',  ( 1.000000000000000000, 9.473653576652585000E-034, 2.465190328815661900E-031 ) ) ;
#125 = ORIENTED_EDGE ( 'NONE', *, *, #93, .F. ) ;
#126 = DIRECTION ( 'NONE',  ( -2.588449845256445000E-031, 9.860761315262647600E-032, -1.000000000000000000 ) ) ;
#127 = CARTESIAN_POINT ( 'NONE',  ( 0.0000000000000000000, 0.0000000000000000000, 49.99999999999998600 ) ) ;
#128 = CIRCLE ( 'NONE', #8, 97.74999999999998600 ) ;
#129 = PLANE ( 'NONE',  #91 ) ;
#130 = AXIS2_PLACEMENT_3D ( 'NONE', #158, #48, #140 ) ;
#131 = PRODUCT_DEFINITION_CONTEXT ( 'detailed design', #208, 'design' ) ;
#132 = EDGE_CURVE ( 'NONE', #39, #57, #10, .T. ) ;
#133 = CYLINDRICAL_SURFACE ( 'NONE', #199, 97.74999999999998600 ) ;
#134 =( NAMED_UNIT ( * ) PLANE_ANGLE_UNIT ( ) SI_UNIT ( $, .RADIAN. ) );
#135 = CARTESIAN_POINT ( 'NONE',  ( 99.75000000000000000, 1.221585182149485200E-014, 49.99999999999998600 ) ) ;
#136 = EDGE_LOOP ( 'NONE', ( #167, #68 ) ) ;
#137 = CARTESIAN_POINT ( 'NONE',  ( 0.0000000000000000000, 0.0000000000000000000, 0.0000000000000000000 ) ) ;
#138 = CARTESIAN_POINT ( 'NONE',  ( 0.0000000000000000000, 0.0000000000000000000, 0.0000000000000000000 ) ) ;
#139 = COLOUR_RGB ( '',0.7921568627450980000, 0.8196078431372548800, 0.9333333333333333500 ) ;
#140 = DIRECTION ( 'NONE',  ( 1.000000000000000000, 9.473653576652585000E-034, 0.0000000000000000000 ) ) ;
#141 = LINE ( 'NONE', #32, #83 ) ;
#142 = CARTESIAN_POINT ( 'NONE',  ( -99.75000000000000000, 2.370690634388551500E-030, 49.99999999999998600 ) ) ;
#143 =( GEOMETRIC_REPRESENTATION_CONTEXT ( 3 ) GLOBAL_UNCERTAINTY_ASSIGNED_CONTEXT ( ( #6 ) ) GLOBAL_UNIT_ASSIGNED_CONTEXT ( ( #58, #151, #42 ) ) REPRESENTATION_CONTEXT ( 'NONE', 'WORKASPACE' ) );
#144 = ORIENTED_EDGE ( 'NONE', *, *, #114, .T. ) ;
#145 = FACE_BOUND ( 'NONE', #150, .T. ) ;
#146 = CYLINDRICAL_SURFACE ( 'NONE', #178, 99.75000000000000000 ) ;
#147 = EDGE_LOOP ( 'NONE', ( #105, #176 ) ) ;
#148 = SURFACE_STYLE_FILL_AREA ( #187 ) ;
#149 = AXIS2_PLACEMENT_3D ( 'NONE', #19, #111, #213 ) ;
#150 = EDGE_LOOP ( 'NONE', ( #163, #197 ) ) ;
#151 =( NAMED_UNIT ( * ) PLANE_ANGLE_UNIT ( ) SI_UNIT ( $, .RADIAN. ) );
#152 = CARTESIAN_POINT ( 'NONE',  ( 0.0000000000000000000, 0.0000000000000000000, 0.0000000000000000000 ) ) ;
#153 = DIRECTION ( 'NONE',  ( -1.000000000000000000, -9.473653576652585000E-034, 0.0000000000000000000 ) ) ;
#154 = STYLED_ITEM ( 'NONE', ( #1 ), #55 ) ;
#155 = DIRECTION ( 'NONE',  ( -1.000000000000000000, -9.473653576652585000E-034, 0.0000000000000000000 ) ) ;
#156 = FILL_AREA_STYLE_COLOUR ( '', #139 ) ;
#157 = CARTESIAN_POINT ( 'NONE',  ( 0.0000000000000000000, 0.0000000000000000000, 49.99999999999998600 ) ) ;
#158 = CARTESIAN_POINT ( 'NONE',  ( 0.0000000000000000000, 0.0000000000000000000, 49.99999999999998600 ) ) ;
#159 = CARTESIAN_POINT ( 'NONE',  ( -99.75000000000000000, -9.449969442710953800E-032, 49.99999999999998600 ) ) ;
#160 = ORIENTED_EDGE ( 'NONE', *, *, #82, .T. ) ;
#161 = ADVANCED_FACE ( 'NONE', ( #26 ), #146, .T. ) ;
#162 = MECHANICAL_DESIGN_GEOMETRIC_PRESENTATION_REPRESENTATION (  '', ( #185 ), #84 ) ;
#163 = ORIENTED_EDGE ( 'NONE', *, *, #93, .T. ) ;
#164 = ORIENTED_EDGE ( 'NONE', *, *, #132, .F. ) ;
#165 = CARTESIAN_POINT ( 'NONE',  ( -99.75000000000000000, 2.370690634388551500E-030, 2.581978720643304400E-029 ) ) ;
#166 = ORIENTED_EDGE ( 'NONE', *, *, #80, .T. ) ;
#167 = ORIENTED_EDGE ( 'NONE', *, *, #86, .F. ) ;
#168 = SURFACE_STYLE_USAGE ( .BOTH. , #70 ) ;
#169 = DIRECTION ( 'NONE',  ( 1.000000000000000000, 9.473653576652585000E-034, 2.465190328815661900E-031 ) ) ;
#170 = DIRECTION ( 'NONE',  ( -2.588449845256445000E-031, 9.860761315262647600E-032, -1.000000000000000000 ) ) ;
#171 = DIRECTION ( 'NONE',  ( -2.588449845256445000E-031, 9.860761315262647600E-032, -1.000000000000000000 ) ) ;
#172 = MECHANICAL_DESIGN_GEOMETRIC_PRESENTATION_REPRESENTATION (  '', ( #154 ), #143 ) ;
#173 = DIRECTION ( 'NONE',  ( 1.000000000000000000, 9.473653576652585000E-034, 0.0000000000000000000 ) ) ;
#174 =( NAMED_UNIT ( * ) SI_UNIT ( $, .STERADIAN. ) SOLID_ANGLE_UNIT ( ) );
#175 = EDGE_LOOP ( 'NONE', ( #203, #94, #5, #35 ) ) ;
#176 = ORIENTED_EDGE ( 'NONE', *, *, #114, .F. ) ;
#177 = DIRECTION ( 'NONE',  ( -1.000000000000000000, -9.473653576652585000E-034, 0.0000000000000000000 ) ) ;
#178 = AXIS2_PLACEMENT_3D ( 'NONE', #107, #211, #155 ) ;
#179 = VERTEX_POINT ( 'NONE', #73 ) ;
#180 = ADVANCED_FACE ( 'NONE', ( #198 ), #3, .F. ) ;
#181 = EDGE_LOOP ( 'NONE', ( #77, #196, #125, #164 ) ) ;
#182 = CIRCLE ( 'NONE', #130, 97.74999999999998600 ) ;
#183 = VERTEX_POINT ( 'NONE', #135 ) ;
#184 = ORIENTED_EDGE ( 'NONE', *, *, #40, .F. ) ;
#185 = STYLED_ITEM ( 'NONE', ( #212 ), #52 ) ;
#186 = VERTEX_POINT ( 'NONE', #121 ) ;
#187 = FILL_AREA_STYLE ('',( #90 ) ) ;
#188 = CARTESIAN_POINT ( 'NONE',  ( 0.0000000000000000000, 0.0000000000000000000, 0.0000000000000000000 ) ) ;
#189 = CARTESIAN_POINT ( 'NONE',  ( 0.0000000000000000000, 0.0000000000000000000, 49.99999999999998600 ) ) ;
#190 =( GEOMETRIC_REPRESENTATION_CONTEXT ( 3 ) GLOBAL_UNCERTAINTY_ASSIGNED_CONTEXT ( ( #193 ) ) GLOBAL_UNIT_ASSIGNED_CONTEXT ( ( #43, #134, #30 ) ) REPRESENTATION_CONTEXT ( 'NONE', 'WORKASPACE' ) );
#191 = CARTESIAN_POINT ( 'NONE',  ( 0.0000000000000000000, 0.0000000000000000000, 0.0000000000000000000 ) ) ;
#192 = CARTESIAN_POINT ( 'NONE',  ( 0.0000000000000000000, 0.0000000000000000000, 49.99999999999998600 ) ) ;
#193 = UNCERTAINTY_MEASURE_WITH_UNIT (LENGTH_MEASURE( 1.000000000000000100E-005 ), #43, 'distance_accuracy_value', 'NONE');
#194 =( LENGTH_UNIT ( ) NAMED_UNIT ( * ) SI_UNIT ( .MILLI., .METRE. ) );
#195 = EDGE_CURVE ( 'NONE', #23, #57, #128, .T. ) ;
#196 = ORIENTED_EDGE ( 'NONE', *, *, #118, .T. ) ;
#197 = ORIENTED_EDGE ( 'NONE', *, *, #195, .T. ) ;
#198 = FACE_OUTER_BOUND ( 'NONE', #175, .T. ) ;
#199 = AXIS2_PLACEMENT_3D ( 'NONE', #100, #64, #177 ) ;
#200 = FACE_OUTER_BOUND ( 'NONE', #147, .T. ) ;
#201 = CIRCLE ( 'NONE', #4, 99.75000000000000000 ) ;
#202 = AXIS2_PLACEMENT_3D ( 'NONE', #157, #18, #108 ) ;
#203 = ORIENTED_EDGE ( 'NONE', *, *, #118, .F. ) ;
#204 = CYLINDRICAL_SURFACE ( 'NONE', #31, 99.75000000000000000 ) ;
#205 = FILL_AREA_STYLE ('',( #156 ) ) ;
#206 = FACE_OUTER_BOUND ( 'NONE', #181, .T. ) ;
#207 = ORIENTED_EDGE ( 'NONE', *, *, #210, .T. ) ;
#208 = APPLICATION_CONTEXT ( 'automotive_design' ) ;
#209 = APPLICATION_CONTEXT ( 'automotive_design' ) ;
#210 = EDGE_CURVE ( 'NONE', #183, #186, #141, .T. ) ;
#211 = DIRECTION ( 'NONE',  ( -2.588449845256445000E-031, 9.860761315262647600E-032, -1.000000000000000000 ) ) ;
#212 = PRESENTATION_STYLE_ASSIGNMENT (( #98 ) ) ;
#213 = DIRECTION ( 'NONE',  ( 1.000000000000000000, 9.473653576652585000E-034, 2.465190328815661900E-031 ) ) ;
#214 = AXIS2_PLACEMENT_3D ( 'NONE', #95, #61, #173 ) ;
ENDSEC;
END-ISO-10303-21;
