ISO-10303-21;
HEADER;
/* Generated by software containing ST-Developer
 * from STEP Tools, Inc. (www.steptools.com) 
 */

FILE_DESCRIPTION(
/* description */ ('AXE'),
/* implementation_level */ '2;1');

FILE_NAME(
/* name */ 'C:\\Users\\angue\\Desktop\\10151457-2053.stp',
/* time_stamp */ '2019-04-30T10:14:50+02:00',
/* author */ ('angue'),
/* organization */ (''),
/* preprocessor_version */ 'ST-DEVELOPER v17',
/* originating_system */ 'Autodesk Inventor 2019',
/* authorisation */ '');

FILE_SCHEMA (('AUTOMOTIVE_DESIGN { 1 0 10303 214 3 1 1 }'));
ENDSEC;

DATA;
#10=MECHANICAL_DESIGN_GEOMETRIC_PRESENTATION_REPRESENTATION('',(#13),#606);
#11=SHAPE_REPRESENTATION_RELATIONSHIP('SRR','None',#613,#12);
#12=ADVANCED_BREP_SHAPE_REPRESENTATION('',(#14),#605);
#13=STYLED_ITEM('',(#622),#14);
#14=MANIFOLD_SOLID_BREP('Solide1',#308);
#15=CONICAL_SURFACE('',#357,1.2,0.785398163397445);
#16=CONICAL_SURFACE('',#360,1.95,0.785398163397443);
#17=CONICAL_SURFACE('',#367,1.95,0.785398163397443);
#18=CONICAL_SURFACE('',#368,1.2,0.785398163397445);
#19=FACE_BOUND('',#81,.T.);
#20=FACE_BOUND('',#86,.T.);
#21=FACE_BOUND('',#91,.T.);
#22=TOROIDAL_SURFACE('',#333,1.45,0.2);
#23=TOROIDAL_SURFACE('',#345,1.45,0.2);
#24=CIRCLE('',#330,2.);
#25=CIRCLE('',#334,1.25);
#26=CIRCLE('',#335,0.2);
#27=CIRCLE('',#336,1.45);
#28=CIRCLE('',#337,1.45);
#29=CIRCLE('',#338,1.25);
#30=CIRCLE('',#339,1.25);
#31=CIRCLE('',#341,1.9);
#32=CIRCLE('',#343,1.25);
#33=CIRCLE('',#344,1.25);
#34=CIRCLE('',#346,1.45);
#35=CIRCLE('',#347,0.2);
#36=CIRCLE('',#348,1.25);
#37=CIRCLE('',#349,1.25);
#38=CIRCLE('',#350,1.25);
#39=CIRCLE('',#351,1.45);
#40=CIRCLE('',#353,1.25);
#41=CIRCLE('',#354,1.25);
#42=CIRCLE('',#356,1.9);
#43=CIRCLE('',#358,1.15);
#44=CIRCLE('',#361,2.);
#45=CIRCLE('',#362,2.);
#46=CIRCLE('',#364,2.);
#47=CIRCLE('',#365,2.);
#48=CIRCLE('',#366,2.);
#49=CIRCLE('',#369,1.15);
#50=PLANE('',#329);
#51=PLANE('',#332);
#52=PLANE('',#340);
#53=PLANE('',#355);
#54=PLANE('',#359);
#55=PLANE('',#370);
#56=PLANE('',#371);
#57=FACE_OUTER_BOUND('',#75,.T.);
#58=FACE_OUTER_BOUND('',#76,.T.);
#59=FACE_OUTER_BOUND('',#77,.T.);
#60=FACE_OUTER_BOUND('',#78,.T.);
#61=FACE_OUTER_BOUND('',#79,.T.);
#62=FACE_OUTER_BOUND('',#80,.T.);
#63=FACE_OUTER_BOUND('',#82,.T.);
#64=FACE_OUTER_BOUND('',#83,.T.);
#65=FACE_OUTER_BOUND('',#84,.T.);
#66=FACE_OUTER_BOUND('',#85,.T.);
#67=FACE_OUTER_BOUND('',#87,.T.);
#68=FACE_OUTER_BOUND('',#88,.T.);
#69=FACE_OUTER_BOUND('',#89,.T.);
#70=FACE_OUTER_BOUND('',#90,.T.);
#71=FACE_OUTER_BOUND('',#92,.T.);
#72=FACE_OUTER_BOUND('',#93,.T.);
#73=FACE_OUTER_BOUND('',#94,.T.);
#74=FACE_OUTER_BOUND('',#95,.T.);
#75=EDGE_LOOP('',(#199,#200,#201,#202));
#76=EDGE_LOOP('',(#203,#204));
#77=EDGE_LOOP('',(#205,#206,#207,#208));
#78=EDGE_LOOP('',(#209,#210,#211,#212));
#79=EDGE_LOOP('',(#213,#214,#215,#216,#217,#218,#219));
#80=EDGE_LOOP('',(#220));
#81=EDGE_LOOP('',(#221,#222));
#82=EDGE_LOOP('',(#223,#224,#225,#226,#227,#228,#229));
#83=EDGE_LOOP('',(#230,#231,#232,#233,#234,#235,#236));
#84=EDGE_LOOP('',(#237,#238,#239,#240,#241,#242,#243));
#85=EDGE_LOOP('',(#244));
#86=EDGE_LOOP('',(#245,#246));
#87=EDGE_LOOP('',(#247,#248,#249,#250,#251));
#88=EDGE_LOOP('',(#252));
#89=EDGE_LOOP('',(#253,#254,#255,#256,#257));
#90=EDGE_LOOP('',(#258,#259,#260,#261,#262,#263));
#91=EDGE_LOOP('',(#264,#265,#266,#267,#268,#269,#270,#271));
#92=EDGE_LOOP('',(#272,#273,#274,#275,#276));
#93=EDGE_LOOP('',(#277,#278,#279,#280,#281));
#94=EDGE_LOOP('',(#282));
#95=EDGE_LOOP('',(#283,#284));
#96=LINE('',#490,#109);
#97=LINE('',#502,#110);
#98=LINE('',#519,#111);
#99=LINE('',#531,#112);
#100=LINE('',#533,#113);
#101=LINE('',#534,#114);
#102=LINE('',#555,#115);
#103=LINE('',#573,#116);
#104=LINE('',#579,#117);
#105=LINE('',#587,#118);
#106=LINE('',#593,#119);
#107=LINE('',#596,#120);
#108=LINE('',#600,#121);
#109=VECTOR('',#376,10.);
#110=VECTOR('',#377,10.);
#111=VECTOR('',#384,10.);
#112=VECTOR('',#385,10.);
#113=VECTOR('',#388,10.);
#114=VECTOR('',#389,10.);
#115=VECTOR('',#414,1.25);
#116=VECTOR('',#435,1.25);
#117=VECTOR('',#442,1.2);
#118=VECTOR('',#453,1.95);
#119=VECTOR('',#460,2.);
#120=VECTOR('',#465,1.95);
#121=VECTOR('',#470,1.2);
#122=B_SPLINE_CURVE_WITH_KNOTS('',3,(#479,#480,#481,#482,#483,#484,#485,
#486,#487,#488),.UNSPECIFIED.,.F.,.F.,(4,2,2,2,4),(0.,0.00753423762468135,
0.0150684752493627,0.022618071617034,0.0301676679847053),.UNSPECIFIED.);
#123=B_SPLINE_CURVE_WITH_KNOTS('',3,(#492,#493,#494,#495,#496,#497,#498,
#499,#500,#501),.UNSPECIFIED.,.F.,.F.,(4,2,2,2,4),(-0.0301676679847053,
-0.022618071617034,-0.0150684752493627,-0.00753423762468135,0.),
 .UNSPECIFIED.);
#124=B_SPLINE_CURVE_WITH_KNOTS('',3,(#508,#509,#510,#511,#512,#513,#514,
#515,#516,#517),.UNSPECIFIED.,.F.,.F.,(4,2,2,2,4),(-0.0301676679847053,
-0.022618071617034,-0.0150684752493628,-0.00753423762468138,0.),
 .UNSPECIFIED.);
#125=B_SPLINE_CURVE_WITH_KNOTS('',3,(#521,#522,#523,#524,#525,#526,#527,
#528,#529,#530),.UNSPECIFIED.,.F.,.F.,(4,2,2,2,4),(0.,0.00753423762468138,
0.0150684752493628,0.022618071617034,0.0301676679847053),.UNSPECIFIED.);
#126=VERTEX_POINT('',#477);
#127=VERTEX_POINT('',#478);
#128=VERTEX_POINT('',#489);
#129=VERTEX_POINT('',#491);
#130=VERTEX_POINT('',#506);
#131=VERTEX_POINT('',#507);
#132=VERTEX_POINT('',#518);
#133=VERTEX_POINT('',#520);
#134=VERTEX_POINT('',#536);
#135=VERTEX_POINT('',#537);
#136=VERTEX_POINT('',#539);
#137=VERTEX_POINT('',#541);
#138=VERTEX_POINT('',#544);
#139=VERTEX_POINT('',#548);
#140=VERTEX_POINT('',#551);
#141=VERTEX_POINT('',#552);
#142=VERTEX_POINT('',#557);
#143=VERTEX_POINT('',#558);
#144=VERTEX_POINT('',#560);
#145=VERTEX_POINT('',#562);
#146=VERTEX_POINT('',#564);
#147=VERTEX_POINT('',#569);
#148=VERTEX_POINT('',#570);
#149=VERTEX_POINT('',#575);
#150=VERTEX_POINT('',#578);
#151=VERTEX_POINT('',#583);
#152=VERTEX_POINT('',#584);
#153=VERTEX_POINT('',#589);
#154=VERTEX_POINT('',#590);
#155=VERTEX_POINT('',#598);
#156=EDGE_CURVE('',#126,#127,#122,.T.);
#157=EDGE_CURVE('',#127,#128,#96,.T.);
#158=EDGE_CURVE('',#128,#129,#123,.T.);
#159=EDGE_CURVE('',#129,#126,#97,.T.);
#160=EDGE_CURVE('',#127,#128,#24,.T.);
#161=EDGE_CURVE('',#130,#131,#124,.T.);
#162=EDGE_CURVE('',#131,#132,#98,.T.);
#163=EDGE_CURVE('',#132,#133,#125,.T.);
#164=EDGE_CURVE('',#133,#130,#99,.T.);
#165=EDGE_CURVE('',#129,#132,#100,.T.);
#166=EDGE_CURVE('',#131,#126,#101,.T.);
#167=EDGE_CURVE('',#134,#135,#25,.T.);
#168=EDGE_CURVE('',#135,#136,#26,.T.);
#169=EDGE_CURVE('',#136,#137,#27,.T.);
#170=EDGE_CURVE('',#137,#136,#28,.T.);
#171=EDGE_CURVE('',#135,#138,#29,.T.);
#172=EDGE_CURVE('',#138,#134,#30,.T.);
#173=EDGE_CURVE('',#139,#139,#31,.T.);
#174=EDGE_CURVE('',#140,#141,#32,.T.);
#175=EDGE_CURVE('',#141,#140,#33,.T.);
#176=EDGE_CURVE('',#141,#138,#102,.T.);
#177=EDGE_CURVE('',#142,#143,#34,.T.);
#178=EDGE_CURVE('',#143,#144,#35,.T.);
#179=EDGE_CURVE('',#144,#145,#36,.T.);
#180=EDGE_CURVE('',#145,#146,#37,.T.);
#181=EDGE_CURVE('',#146,#144,#38,.T.);
#182=EDGE_CURVE('',#143,#142,#39,.T.);
#183=EDGE_CURVE('',#147,#148,#40,.T.);
#184=EDGE_CURVE('',#148,#147,#41,.T.);
#185=EDGE_CURVE('',#148,#146,#103,.T.);
#186=EDGE_CURVE('',#149,#149,#42,.T.);
#187=EDGE_CURVE('',#147,#150,#104,.T.);
#188=EDGE_CURVE('',#150,#150,#43,.T.);
#189=EDGE_CURVE('',#151,#152,#44,.T.);
#190=EDGE_CURVE('',#152,#151,#45,.T.);
#191=EDGE_CURVE('',#151,#149,#105,.T.);
#192=EDGE_CURVE('',#153,#154,#46,.T.);
#193=EDGE_CURVE('',#154,#153,#47,.T.);
#194=EDGE_CURVE('',#154,#152,#106,.T.);
#195=EDGE_CURVE('',#130,#133,#48,.T.);
#196=EDGE_CURVE('',#139,#153,#107,.T.);
#197=EDGE_CURVE('',#155,#155,#49,.T.);
#198=EDGE_CURVE('',#155,#140,#108,.T.);
#199=ORIENTED_EDGE('',*,*,#156,.T.);
#200=ORIENTED_EDGE('',*,*,#157,.T.);
#201=ORIENTED_EDGE('',*,*,#158,.T.);
#202=ORIENTED_EDGE('',*,*,#159,.T.);
#203=ORIENTED_EDGE('',*,*,#157,.F.);
#204=ORIENTED_EDGE('',*,*,#160,.T.);
#205=ORIENTED_EDGE('',*,*,#161,.T.);
#206=ORIENTED_EDGE('',*,*,#162,.T.);
#207=ORIENTED_EDGE('',*,*,#163,.T.);
#208=ORIENTED_EDGE('',*,*,#164,.T.);
#209=ORIENTED_EDGE('',*,*,#159,.F.);
#210=ORIENTED_EDGE('',*,*,#165,.T.);
#211=ORIENTED_EDGE('',*,*,#162,.F.);
#212=ORIENTED_EDGE('',*,*,#166,.T.);
#213=ORIENTED_EDGE('',*,*,#167,.T.);
#214=ORIENTED_EDGE('',*,*,#168,.T.);
#215=ORIENTED_EDGE('',*,*,#169,.T.);
#216=ORIENTED_EDGE('',*,*,#170,.T.);
#217=ORIENTED_EDGE('',*,*,#168,.F.);
#218=ORIENTED_EDGE('',*,*,#171,.T.);
#219=ORIENTED_EDGE('',*,*,#172,.T.);
#220=ORIENTED_EDGE('',*,*,#173,.F.);
#221=ORIENTED_EDGE('',*,*,#170,.F.);
#222=ORIENTED_EDGE('',*,*,#169,.F.);
#223=ORIENTED_EDGE('',*,*,#174,.F.);
#224=ORIENTED_EDGE('',*,*,#175,.F.);
#225=ORIENTED_EDGE('',*,*,#176,.T.);
#226=ORIENTED_EDGE('',*,*,#171,.F.);
#227=ORIENTED_EDGE('',*,*,#167,.F.);
#228=ORIENTED_EDGE('',*,*,#172,.F.);
#229=ORIENTED_EDGE('',*,*,#176,.F.);
#230=ORIENTED_EDGE('',*,*,#177,.T.);
#231=ORIENTED_EDGE('',*,*,#178,.T.);
#232=ORIENTED_EDGE('',*,*,#179,.T.);
#233=ORIENTED_EDGE('',*,*,#180,.T.);
#234=ORIENTED_EDGE('',*,*,#181,.T.);
#235=ORIENTED_EDGE('',*,*,#178,.F.);
#236=ORIENTED_EDGE('',*,*,#182,.T.);
#237=ORIENTED_EDGE('',*,*,#183,.F.);
#238=ORIENTED_EDGE('',*,*,#184,.F.);
#239=ORIENTED_EDGE('',*,*,#185,.T.);
#240=ORIENTED_EDGE('',*,*,#180,.F.);
#241=ORIENTED_EDGE('',*,*,#179,.F.);
#242=ORIENTED_EDGE('',*,*,#181,.F.);
#243=ORIENTED_EDGE('',*,*,#185,.F.);
#244=ORIENTED_EDGE('',*,*,#186,.F.);
#245=ORIENTED_EDGE('',*,*,#177,.F.);
#246=ORIENTED_EDGE('',*,*,#182,.F.);
#247=ORIENTED_EDGE('',*,*,#183,.T.);
#248=ORIENTED_EDGE('',*,*,#184,.T.);
#249=ORIENTED_EDGE('',*,*,#187,.T.);
#250=ORIENTED_EDGE('',*,*,#188,.T.);
#251=ORIENTED_EDGE('',*,*,#187,.F.);
#252=ORIENTED_EDGE('',*,*,#188,.F.);
#253=ORIENTED_EDGE('',*,*,#189,.T.);
#254=ORIENTED_EDGE('',*,*,#190,.T.);
#255=ORIENTED_EDGE('',*,*,#191,.T.);
#256=ORIENTED_EDGE('',*,*,#186,.T.);
#257=ORIENTED_EDGE('',*,*,#191,.F.);
#258=ORIENTED_EDGE('',*,*,#192,.F.);
#259=ORIENTED_EDGE('',*,*,#193,.F.);
#260=ORIENTED_EDGE('',*,*,#194,.T.);
#261=ORIENTED_EDGE('',*,*,#189,.F.);
#262=ORIENTED_EDGE('',*,*,#190,.F.);
#263=ORIENTED_EDGE('',*,*,#194,.F.);
#264=ORIENTED_EDGE('',*,*,#161,.F.);
#265=ORIENTED_EDGE('',*,*,#195,.T.);
#266=ORIENTED_EDGE('',*,*,#163,.F.);
#267=ORIENTED_EDGE('',*,*,#165,.F.);
#268=ORIENTED_EDGE('',*,*,#158,.F.);
#269=ORIENTED_EDGE('',*,*,#160,.F.);
#270=ORIENTED_EDGE('',*,*,#156,.F.);
#271=ORIENTED_EDGE('',*,*,#166,.F.);
#272=ORIENTED_EDGE('',*,*,#173,.T.);
#273=ORIENTED_EDGE('',*,*,#196,.T.);
#274=ORIENTED_EDGE('',*,*,#192,.T.);
#275=ORIENTED_EDGE('',*,*,#193,.T.);
#276=ORIENTED_EDGE('',*,*,#196,.F.);
#277=ORIENTED_EDGE('',*,*,#197,.T.);
#278=ORIENTED_EDGE('',*,*,#198,.T.);
#279=ORIENTED_EDGE('',*,*,#174,.T.);
#280=ORIENTED_EDGE('',*,*,#175,.T.);
#281=ORIENTED_EDGE('',*,*,#198,.F.);
#282=ORIENTED_EDGE('',*,*,#197,.F.);
#283=ORIENTED_EDGE('',*,*,#164,.F.);
#284=ORIENTED_EDGE('',*,*,#195,.F.);
#285=CYLINDRICAL_SURFACE('',#328,0.2);
#286=CYLINDRICAL_SURFACE('',#331,0.2);
#287=CYLINDRICAL_SURFACE('',#342,1.25);
#288=CYLINDRICAL_SURFACE('',#352,1.25);
#289=CYLINDRICAL_SURFACE('',#363,2.);
#290=ADVANCED_FACE('',(#57),#285,.F.);
#291=ADVANCED_FACE('',(#58),#50,.T.);
#292=ADVANCED_FACE('',(#59),#286,.F.);
#293=ADVANCED_FACE('',(#60),#51,.F.);
#294=ADVANCED_FACE('',(#61),#22,.F.);
#295=ADVANCED_FACE('',(#62,#19),#52,.T.);
#296=ADVANCED_FACE('',(#63),#287,.T.);
#297=ADVANCED_FACE('',(#64),#23,.F.);
#298=ADVANCED_FACE('',(#65),#288,.T.);
#299=ADVANCED_FACE('',(#66,#20),#53,.F.);
#300=ADVANCED_FACE('',(#67),#15,.T.);
#301=ADVANCED_FACE('',(#68),#54,.F.);
#302=ADVANCED_FACE('',(#69),#16,.T.);
#303=ADVANCED_FACE('',(#70,#21),#289,.T.);
#304=ADVANCED_FACE('',(#71),#17,.T.);
#305=ADVANCED_FACE('',(#72),#18,.T.);
#306=ADVANCED_FACE('',(#73),#55,.T.);
#307=ADVANCED_FACE('',(#74),#56,.F.);
#308=CLOSED_SHELL('',(#290,#291,#292,#293,#294,#295,#296,#297,#298,#299,
#300,#301,#302,#303,#304,#305,#306,#307));
#309=DERIVED_UNIT_ELEMENT(#311,1.);
#310=DERIVED_UNIT_ELEMENT(#608,3.);
#311=(
MASS_UNIT()
NAMED_UNIT(*)
SI_UNIT($,.GRAM.)
);
#312=DERIVED_UNIT((#309,#310));
#313=MEASURE_REPRESENTATION_ITEM('density measure',
POSITIVE_RATIO_MEASURE(1.),#312);
#314=PROPERTY_DEFINITION_REPRESENTATION(#319,#316);
#315=PROPERTY_DEFINITION_REPRESENTATION(#320,#317);
#316=REPRESENTATION('material name',(#318),#605);
#317=REPRESENTATION('density',(#313),#605);
#318=DESCRIPTIVE_REPRESENTATION_ITEM('G\X\E9n\X\E9rique','G\X\E9n\X\E9
rique');
#319=PROPERTY_DEFINITION('material property','material name',#615);
#320=PROPERTY_DEFINITION('material property','density of part',#615);
#321=DATE_TIME_ROLE('creation_date');
#322=APPLIED_DATE_AND_TIME_ASSIGNMENT(#323,#321,(#615));
#323=DATE_AND_TIME(#324,#325);
#324=CALENDAR_DATE(2019,13,4);
#325=LOCAL_TIME(12,4,10.,#326);
#326=COORDINATED_UNIVERSAL_TIME_OFFSET(0,0,.BEHIND.);
#327=AXIS2_PLACEMENT_3D('placement',#475,#372,#373);
#328=AXIS2_PLACEMENT_3D('',#476,#374,#375);
#329=AXIS2_PLACEMENT_3D('',#503,#378,#379);
#330=AXIS2_PLACEMENT_3D('',#504,#380,#381);
#331=AXIS2_PLACEMENT_3D('',#505,#382,#383);
#332=AXIS2_PLACEMENT_3D('',#532,#386,#387);
#333=AXIS2_PLACEMENT_3D('',#535,#390,#391);
#334=AXIS2_PLACEMENT_3D('',#538,#392,#393);
#335=AXIS2_PLACEMENT_3D('',#540,#394,#395);
#336=AXIS2_PLACEMENT_3D('',#542,#396,#397);
#337=AXIS2_PLACEMENT_3D('',#543,#398,#399);
#338=AXIS2_PLACEMENT_3D('',#545,#400,#401);
#339=AXIS2_PLACEMENT_3D('',#546,#402,#403);
#340=AXIS2_PLACEMENT_3D('',#547,#404,#405);
#341=AXIS2_PLACEMENT_3D('',#549,#406,#407);
#342=AXIS2_PLACEMENT_3D('',#550,#408,#409);
#343=AXIS2_PLACEMENT_3D('',#553,#410,#411);
#344=AXIS2_PLACEMENT_3D('',#554,#412,#413);
#345=AXIS2_PLACEMENT_3D('',#556,#415,#416);
#346=AXIS2_PLACEMENT_3D('',#559,#417,#418);
#347=AXIS2_PLACEMENT_3D('',#561,#419,#420);
#348=AXIS2_PLACEMENT_3D('',#563,#421,#422);
#349=AXIS2_PLACEMENT_3D('',#565,#423,#424);
#350=AXIS2_PLACEMENT_3D('',#566,#425,#426);
#351=AXIS2_PLACEMENT_3D('',#567,#427,#428);
#352=AXIS2_PLACEMENT_3D('',#568,#429,#430);
#353=AXIS2_PLACEMENT_3D('',#571,#431,#432);
#354=AXIS2_PLACEMENT_3D('',#572,#433,#434);
#355=AXIS2_PLACEMENT_3D('',#574,#436,#437);
#356=AXIS2_PLACEMENT_3D('',#576,#438,#439);
#357=AXIS2_PLACEMENT_3D('',#577,#440,#441);
#358=AXIS2_PLACEMENT_3D('',#580,#443,#444);
#359=AXIS2_PLACEMENT_3D('',#581,#445,#446);
#360=AXIS2_PLACEMENT_3D('',#582,#447,#448);
#361=AXIS2_PLACEMENT_3D('',#585,#449,#450);
#362=AXIS2_PLACEMENT_3D('',#586,#451,#452);
#363=AXIS2_PLACEMENT_3D('',#588,#454,#455);
#364=AXIS2_PLACEMENT_3D('',#591,#456,#457);
#365=AXIS2_PLACEMENT_3D('',#592,#458,#459);
#366=AXIS2_PLACEMENT_3D('',#594,#461,#462);
#367=AXIS2_PLACEMENT_3D('',#595,#463,#464);
#368=AXIS2_PLACEMENT_3D('',#597,#466,#467);
#369=AXIS2_PLACEMENT_3D('',#599,#468,#469);
#370=AXIS2_PLACEMENT_3D('',#601,#471,#472);
#371=AXIS2_PLACEMENT_3D('',#602,#473,#474);
#372=DIRECTION('axis',(0.,0.,1.));
#373=DIRECTION('refdir',(1.,0.,0.));
#374=DIRECTION('center_axis',(0.,0.,1.));
#375=DIRECTION('ref_axis',(-0.707106781186548,-0.707106781186547,0.));
#376=DIRECTION('',(0.,0.,1.));
#377=DIRECTION('',(0.,0.,-1.));
#378=DIRECTION('center_axis',(1.,-2.77555756156289E-16,0.));
#379=DIRECTION('ref_axis',(2.77555756156289E-16,1.,0.));
#380=DIRECTION('center_axis',(1.,-2.77555756156289E-16,0.));
#381=DIRECTION('ref_axis',(0.,1.,0.));
#382=DIRECTION('center_axis',(0.,0.,1.));
#383=DIRECTION('ref_axis',(0.707106781186548,-0.707106781186547,0.));
#384=DIRECTION('',(0.,0.,1.));
#385=DIRECTION('',(0.,0.,-1.));
#386=DIRECTION('center_axis',(0.,-1.,0.));
#387=DIRECTION('ref_axis',(1.,0.,0.));
#388=DIRECTION('',(1.,0.,0.));
#389=DIRECTION('',(-1.,0.,0.));
#390=DIRECTION('center_axis',(-1.,0.,0.));
#391=DIRECTION('ref_axis',(0.,0.,1.));
#392=DIRECTION('center_axis',(-1.,0.,0.));
#393=DIRECTION('ref_axis',(0.,-1.,-1.22464679914735E-16));
#394=DIRECTION('center_axis',(0.,-1.,1.22464679914735E-16));
#395=DIRECTION('ref_axis',(0.,-1.22464679914735E-16,-1.));
#396=DIRECTION('center_axis',(1.,0.,0.));
#397=DIRECTION('ref_axis',(0.,-1.,-1.22464679914735E-16));
#398=DIRECTION('center_axis',(1.,0.,0.));
#399=DIRECTION('ref_axis',(0.,-1.,-1.22464679914735E-16));
#400=DIRECTION('center_axis',(-1.,0.,0.));
#401=DIRECTION('ref_axis',(0.,-1.,-1.22464679914735E-16));
#402=DIRECTION('center_axis',(-1.,0.,0.));
#403=DIRECTION('ref_axis',(0.,-1.,-1.22464679914735E-16));
#404=DIRECTION('center_axis',(1.,0.,0.));
#405=DIRECTION('ref_axis',(0.,0.,-1.));
#406=DIRECTION('center_axis',(-1.,0.,0.));
#407=DIRECTION('ref_axis',(0.,-1.,0.));
#408=DIRECTION('center_axis',(1.,0.,0.));
#409=DIRECTION('ref_axis',(0.,1.,0.));
#410=DIRECTION('center_axis',(1.,0.,0.));
#411=DIRECTION('ref_axis',(0.,-1.,0.));
#412=DIRECTION('center_axis',(1.,0.,0.));
#413=DIRECTION('ref_axis',(0.,-1.,0.));
#414=DIRECTION('',(-1.,0.,0.));
#415=DIRECTION('center_axis',(-1.,0.,0.));
#416=DIRECTION('ref_axis',(0.,0.,1.));
#417=DIRECTION('center_axis',(-1.,0.,0.));
#418=DIRECTION('ref_axis',(0.,-1.,-1.22464679914735E-16));
#419=DIRECTION('center_axis',(0.,-1.,1.22464679914735E-16));
#420=DIRECTION('ref_axis',(0.,-1.22464679914735E-16,-1.));
#421=DIRECTION('center_axis',(1.,0.,0.));
#422=DIRECTION('ref_axis',(0.,-1.,-1.22464679914735E-16));
#423=DIRECTION('center_axis',(1.,0.,0.));
#424=DIRECTION('ref_axis',(0.,-1.,-1.22464679914735E-16));
#425=DIRECTION('center_axis',(1.,0.,0.));
#426=DIRECTION('ref_axis',(0.,-1.,-1.22464679914735E-16));
#427=DIRECTION('center_axis',(-1.,0.,0.));
#428=DIRECTION('ref_axis',(0.,-1.,-1.22464679914735E-16));
#429=DIRECTION('center_axis',(1.,0.,0.));
#430=DIRECTION('ref_axis',(0.,1.,0.));
#431=DIRECTION('center_axis',(-1.,0.,0.));
#432=DIRECTION('ref_axis',(0.,-1.,0.));
#433=DIRECTION('center_axis',(-1.,0.,0.));
#434=DIRECTION('ref_axis',(0.,-1.,0.));
#435=DIRECTION('',(1.,0.,0.));
#436=DIRECTION('center_axis',(1.,0.,0.));
#437=DIRECTION('ref_axis',(0.,0.,-1.));
#438=DIRECTION('center_axis',(1.,0.,0.));
#439=DIRECTION('ref_axis',(0.,-1.,0.));
#440=DIRECTION('center_axis',(1.,0.,0.));
#441=DIRECTION('ref_axis',(0.,-1.,0.));
#442=DIRECTION('',(-0.70710678118655,-0.707106781186545,-8.65956056235491E-17));
#443=DIRECTION('center_axis',(1.,0.,0.));
#444=DIRECTION('ref_axis',(0.,-1.,0.));
#445=DIRECTION('center_axis',(1.,0.,0.));
#446=DIRECTION('ref_axis',(0.,0.,-1.));
#447=DIRECTION('center_axis',(1.,0.,0.));
#448=DIRECTION('ref_axis',(0.,-1.,0.));
#449=DIRECTION('center_axis',(-1.,0.,0.));
#450=DIRECTION('ref_axis',(0.,-1.,0.));
#451=DIRECTION('center_axis',(-1.,0.,0.));
#452=DIRECTION('ref_axis',(0.,-1.,0.));
#453=DIRECTION('',(-0.707106781186551,-0.707106781186544,-8.65956056235489E-17));
#454=DIRECTION('center_axis',(1.,0.,0.));
#455=DIRECTION('ref_axis',(0.,1.,0.));
#456=DIRECTION('center_axis',(1.,0.,0.));
#457=DIRECTION('ref_axis',(0.,-1.,0.));
#458=DIRECTION('center_axis',(1.,0.,0.));
#459=DIRECTION('ref_axis',(0.,-1.,0.));
#460=DIRECTION('',(-1.,0.,0.));
#461=DIRECTION('center_axis',(1.,2.77555756156289E-16,0.));
#462=DIRECTION('ref_axis',(0.,1.,0.));
#463=DIRECTION('center_axis',(-1.,0.,0.));
#464=DIRECTION('ref_axis',(0.,-1.,0.));
#465=DIRECTION('',(-0.707106781186551,0.707106781186544,8.65956056235488E-17));
#466=DIRECTION('center_axis',(-1.,0.,0.));
#467=DIRECTION('ref_axis',(0.,-1.,0.));
#468=DIRECTION('center_axis',(-1.,0.,0.));
#469=DIRECTION('ref_axis',(0.,-1.,0.));
#470=DIRECTION('',(-0.70710678118655,0.707106781186545,8.65956056235491E-17));
#471=DIRECTION('center_axis',(1.,0.,0.));
#472=DIRECTION('ref_axis',(0.,0.,-1.));
#473=DIRECTION('center_axis',(1.,2.77555756156289E-16,0.));
#474=DIRECTION('ref_axis',(-2.77555756156289E-16,1.,0.));
#475=CARTESIAN_POINT('',(0.,0.,0.));
#476=CARTESIAN_POINT('Origin',(-2.3,0.2,0.));
#477=CARTESIAN_POINT('',(-2.3,0.,-2.));
#478=CARTESIAN_POINT('',(-2.5,0.2,-1.98997487421324));
#479=CARTESIAN_POINT('Ctrl Pts',(-2.3,0.,-2.));
#480=CARTESIAN_POINT('Ctrl Pts',(-2.32511412541561,0.,-2.));
#481=CARTESIAN_POINT('Ctrl Pts',(-2.35190191407342,0.0050194955740175,-2.00002369887292));
#482=CARTESIAN_POINT('Ctrl Pts',(-2.40117827945535,0.0254315166730639,-1.99986067098156));
#483=CARTESIAN_POINT('Ctrl Pts',(-2.42366679846343,0.0408240859888128,-1.99966219371593));
#484=CARTESIAN_POINT('Ctrl Pts',(-2.45921210714755,0.0763693946729323,-1.99862064888055));
#485=CARTESIAN_POINT('Ctrl Pts',(-2.4746134310297,0.0988997039885345,-1.99770974944243));
#486=CARTESIAN_POINT('Ctrl Pts',(-2.49500814880897,0.148195463109382,-1.99465100195356));
#487=CARTESIAN_POINT('Ctrl Pts',(-2.5,0.174960821529804,-1.9924914063358));
#488=CARTESIAN_POINT('Ctrl Pts',(-2.5,0.2,-1.98997487421324));
#489=CARTESIAN_POINT('',(-2.5,0.2,1.98997487421324));
#490=CARTESIAN_POINT('',(-2.5,0.2,0.));
#491=CARTESIAN_POINT('',(-2.3,0.,2.));
#492=CARTESIAN_POINT('Ctrl Pts',(-2.5,0.2,1.98997487421324));
#493=CARTESIAN_POINT('Ctrl Pts',(-2.5,0.174960821529804,1.9924914063358));
#494=CARTESIAN_POINT('Ctrl Pts',(-2.49500814880897,0.148195463109382,1.99465100195356));
#495=CARTESIAN_POINT('Ctrl Pts',(-2.4746134310297,0.0988997039885345,1.99770974944243));
#496=CARTESIAN_POINT('Ctrl Pts',(-2.45921210714755,0.0763693946729323,1.99862064888055));
#497=CARTESIAN_POINT('Ctrl Pts',(-2.42366679846343,0.0408240859888128,1.99966219371593));
#498=CARTESIAN_POINT('Ctrl Pts',(-2.40117827945535,0.0254315166730639,1.99986067098156));
#499=CARTESIAN_POINT('Ctrl Pts',(-2.35190191407342,0.0050194955740175,2.00002369887292));
#500=CARTESIAN_POINT('Ctrl Pts',(-2.32511412541561,0.,2.));
#501=CARTESIAN_POINT('Ctrl Pts',(-2.3,0.,2.));
#502=CARTESIAN_POINT('',(-2.3,0.,0.));
#503=CARTESIAN_POINT('Origin',(-2.5,0.,0.));
#504=CARTESIAN_POINT('Origin',(-2.5,0.,0.));
#505=CARTESIAN_POINT('Origin',(2.3,0.2,0.));
#506=CARTESIAN_POINT('',(2.5,0.2,-1.98997487421324));
#507=CARTESIAN_POINT('',(2.3,0.,-2.));
#508=CARTESIAN_POINT('Ctrl Pts',(2.5,0.2,-1.98997487421324));
#509=CARTESIAN_POINT('Ctrl Pts',(2.5,0.174960821529804,-1.9924914063358));
#510=CARTESIAN_POINT('Ctrl Pts',(2.49500814880897,0.148195463109382,-1.99465100195356));
#511=CARTESIAN_POINT('Ctrl Pts',(2.4746134310297,0.0988997039885346,-1.99770974944243));
#512=CARTESIAN_POINT('Ctrl Pts',(2.45921210714755,0.0763693946729323,-1.99862064888055));
#513=CARTESIAN_POINT('Ctrl Pts',(2.42366679846343,0.0408240859888126,-1.99966219371593));
#514=CARTESIAN_POINT('Ctrl Pts',(2.40117827945535,0.0254315166730642,-1.99986067098156));
#515=CARTESIAN_POINT('Ctrl Pts',(2.35190191407342,0.0050194955740176,-2.00002369887292));
#516=CARTESIAN_POINT('Ctrl Pts',(2.3251141254156,0.,-2.));
#517=CARTESIAN_POINT('Ctrl Pts',(2.3,0.,-2.));
#518=CARTESIAN_POINT('',(2.3,0.,2.));
#519=CARTESIAN_POINT('',(2.3,0.,0.));
#520=CARTESIAN_POINT('',(2.5,0.2,1.98997487421324));
#521=CARTESIAN_POINT('Ctrl Pts',(2.3,0.,2.));
#522=CARTESIAN_POINT('Ctrl Pts',(2.3251141254156,0.,2.));
#523=CARTESIAN_POINT('Ctrl Pts',(2.35190191407342,0.0050194955740176,2.00002369887292));
#524=CARTESIAN_POINT('Ctrl Pts',(2.40117827945535,0.0254315166730642,1.99986067098156));
#525=CARTESIAN_POINT('Ctrl Pts',(2.42366679846343,0.0408240859888126,1.99966219371593));
#526=CARTESIAN_POINT('Ctrl Pts',(2.45921210714755,0.0763693946729323,1.99862064888055));
#527=CARTESIAN_POINT('Ctrl Pts',(2.4746134310297,0.0988997039885347,1.99770974944243));
#528=CARTESIAN_POINT('Ctrl Pts',(2.49500814880897,0.148195463109382,1.99465100195356));
#529=CARTESIAN_POINT('Ctrl Pts',(2.5,0.174960821529804,1.9924914063358));
#530=CARTESIAN_POINT('Ctrl Pts',(2.5,0.2,1.98997487421324));
#531=CARTESIAN_POINT('',(2.5,0.2,0.));
#532=CARTESIAN_POINT('Origin',(0.,0.,0.));
#533=CARTESIAN_POINT('',(-2.225,0.,2.));
#534=CARTESIAN_POINT('',(-2.225,0.,-2.));
#535=CARTESIAN_POINT('Origin',(4.65,0.,0.));
#536=CARTESIAN_POINT('',(4.65,1.25,0.));
#537=CARTESIAN_POINT('',(4.65,-1.53080849893419E-16,-1.25));
#538=CARTESIAN_POINT('Origin',(4.65,0.,0.));
#539=CARTESIAN_POINT('',(4.45,-1.77573785876366E-16,-1.45));
#540=CARTESIAN_POINT('Origin',(4.65,-1.77573785876366E-16,-1.45));
#541=CARTESIAN_POINT('',(4.45,1.45,3.55147571752732E-16));
#542=CARTESIAN_POINT('Origin',(4.45,0.,0.));
#543=CARTESIAN_POINT('Origin',(4.45,0.,0.));
#544=CARTESIAN_POINT('',(4.65,-1.25,-1.53080849893419E-16));
#545=CARTESIAN_POINT('Origin',(4.65,0.,0.));
#546=CARTESIAN_POINT('Origin',(4.65,0.,0.));
#547=CARTESIAN_POINT('Origin',(4.45,0.,0.));
#548=CARTESIAN_POINT('',(4.45,1.9,-2.32682891837997E-16));
#549=CARTESIAN_POINT('Origin',(4.45,0.,0.));
#550=CARTESIAN_POINT('Origin',(8.925,0.,0.));
#551=CARTESIAN_POINT('',(13.3,1.25,1.53080849893419E-16));
#552=CARTESIAN_POINT('',(13.3,-1.25,-1.53080849893419E-16));
#553=CARTESIAN_POINT('Origin',(13.3,0.,0.));
#554=CARTESIAN_POINT('Origin',(13.3,0.,0.));
#555=CARTESIAN_POINT('',(8.925,-1.25,-1.53080849893419E-16));
#556=CARTESIAN_POINT('Origin',(-4.65,0.,0.));
#557=CARTESIAN_POINT('',(-4.45,1.45,0.));
#558=CARTESIAN_POINT('',(-4.45,-1.77573785876366E-16,-1.45));
#559=CARTESIAN_POINT('Origin',(-4.45,0.,0.));
#560=CARTESIAN_POINT('',(-4.65,-1.53080849893419E-16,-1.25));
#561=CARTESIAN_POINT('Origin',(-4.65,-1.77573785876366E-16,-1.45));
#562=CARTESIAN_POINT('',(-4.65,1.25,3.06161699786838E-16));
#563=CARTESIAN_POINT('Origin',(-4.65,0.,0.));
#564=CARTESIAN_POINT('',(-4.65,-1.25,-1.53080849893419E-16));
#565=CARTESIAN_POINT('Origin',(-4.65,0.,0.));
#566=CARTESIAN_POINT('Origin',(-4.65,0.,0.));
#567=CARTESIAN_POINT('Origin',(-4.45,0.,0.));
#568=CARTESIAN_POINT('Origin',(-8.925,0.,0.));
#569=CARTESIAN_POINT('',(-13.3,1.25,-1.53080849893419E-16));
#570=CARTESIAN_POINT('',(-13.3,-1.25,-1.53080849893419E-16));
#571=CARTESIAN_POINT('Origin',(-13.3,0.,0.));
#572=CARTESIAN_POINT('Origin',(-13.3,0.,0.));
#573=CARTESIAN_POINT('',(-8.925,-1.25,-1.53080849893419E-16));
#574=CARTESIAN_POINT('Origin',(-4.45,0.,0.));
#575=CARTESIAN_POINT('',(-4.45,1.9,2.32682891837997E-16));
#576=CARTESIAN_POINT('Origin',(-4.45,0.,0.));
#577=CARTESIAN_POINT('Origin',(-13.35,0.,0.));
#578=CARTESIAN_POINT('',(-13.4,1.15,1.40834381901946E-16));
#579=CARTESIAN_POINT('',(-13.35,1.2,1.46957615897682E-16));
#580=CARTESIAN_POINT('Origin',(-13.4,0.,0.));
#581=CARTESIAN_POINT('Origin',(-13.4,0.,0.));
#582=CARTESIAN_POINT('Origin',(-4.4,0.,0.));
#583=CARTESIAN_POINT('',(-4.35,2.,-2.44929359829471E-16));
#584=CARTESIAN_POINT('',(-4.35,-2.,-2.44929359829471E-16));
#585=CARTESIAN_POINT('Origin',(-4.35,0.,0.));
#586=CARTESIAN_POINT('Origin',(-4.35,0.,0.));
#587=CARTESIAN_POINT('',(-4.4,1.95,2.38806125833734E-16));
#588=CARTESIAN_POINT('Origin',(2.225,0.,0.));
#589=CARTESIAN_POINT('',(4.35,2.,2.44929359829471E-16));
#590=CARTESIAN_POINT('',(4.35,-2.,-2.44929359829471E-16));
#591=CARTESIAN_POINT('Origin',(4.35,0.,0.));
#592=CARTESIAN_POINT('Origin',(4.35,0.,0.));
#593=CARTESIAN_POINT('',(2.225,-2.,-2.44929359829471E-16));
#594=CARTESIAN_POINT('Origin',(2.5,0.,0.));
#595=CARTESIAN_POINT('Origin',(4.4,0.,0.));
#596=CARTESIAN_POINT('',(4.4,1.95,2.38806125833734E-16));
#597=CARTESIAN_POINT('Origin',(13.35,0.,0.));
#598=CARTESIAN_POINT('',(13.4,1.15,-1.40834381901946E-16));
#599=CARTESIAN_POINT('Origin',(13.4,0.,0.));
#600=CARTESIAN_POINT('',(13.35,1.2,1.46957615897682E-16));
#601=CARTESIAN_POINT('Origin',(13.4,0.,0.));
#602=CARTESIAN_POINT('Origin',(2.5,0.,0.));
#603=UNCERTAINTY_MEASURE_WITH_UNIT(LENGTH_MEASURE(0.01),#607,
'DISTANCE_ACCURACY_VALUE',
'Maximum model space distance between geometric entities at asserted c
onnectivities');
#604=UNCERTAINTY_MEASURE_WITH_UNIT(LENGTH_MEASURE(0.01),#607,
'DISTANCE_ACCURACY_VALUE',
'Maximum model space distance between geometric entities at asserted c
onnectivities');
#605=(
GEOMETRIC_REPRESENTATION_CONTEXT(3)
GLOBAL_UNCERTAINTY_ASSIGNED_CONTEXT((#603))
GLOBAL_UNIT_ASSIGNED_CONTEXT((#607,#610,#609))
REPRESENTATION_CONTEXT('','3D')
);
#606=(
GEOMETRIC_REPRESENTATION_CONTEXT(3)
GLOBAL_UNCERTAINTY_ASSIGNED_CONTEXT((#604))
GLOBAL_UNIT_ASSIGNED_CONTEXT((#607,#610,#609))
REPRESENTATION_CONTEXT('','3D')
);
#607=(
LENGTH_UNIT()
NAMED_UNIT(*)
SI_UNIT(.MILLI.,.METRE.)
);
#608=(
LENGTH_UNIT()
NAMED_UNIT(*)
SI_UNIT(.CENTI.,.METRE.)
);
#609=(
NAMED_UNIT(*)
SI_UNIT($,.STERADIAN.)
SOLID_ANGLE_UNIT()
);
#610=(
NAMED_UNIT(*)
PLANE_ANGLE_UNIT()
SI_UNIT($,.RADIAN.)
);
#611=SHAPE_DEFINITION_REPRESENTATION(#612,#613);
#612=PRODUCT_DEFINITION_SHAPE('',$,#615);
#613=SHAPE_REPRESENTATION('',(#327),#605);
#614=PRODUCT_DEFINITION_CONTEXT('part definition',#619,'design');
#615=PRODUCT_DEFINITION('10151457-2053','10151457-2053',#616,#614);
#616=PRODUCT_DEFINITION_FORMATION('',$,#621);
#617=PRODUCT_RELATED_PRODUCT_CATEGORY('10151457-2053','10151457-2053',(#621));
#618=APPLICATION_PROTOCOL_DEFINITION('international standard',
'automotive_design',2009,#619);
#619=APPLICATION_CONTEXT(
'Core Data for Automotive Mechanical Design Process');
#620=PRODUCT_CONTEXT('part definition',#619,'mechanical');
#621=PRODUCT('10151457-2053','10151457-2053','AXE',(#620));
#622=PRESENTATION_STYLE_ASSIGNMENT((#623));
#623=SURFACE_STYLE_USAGE(.BOTH.,#624);
#624=SURFACE_SIDE_STYLE('',(#625));
#625=SURFACE_STYLE_FILL_AREA(#626);
#626=FILL_AREA_STYLE('',(#627));
#627=FILL_AREA_STYLE_COLOUR('',#628);
#628=COLOUR_RGB('',0.270588235294118,0.270588235294118,0.270588235294118);
ENDSEC;
END-ISO-10303-21;
