ISO-10303-21;
HEADER;
FILE_DESCRIPTION (( 'STEP AP214' ),
    '1' );
FILE_NAME ('Douille de direction.STEP',
    '2019-05-04T19:37:36',
    ( '' ),
    ( '' ),
    'SwSTEP 2.0',
    'SolidWorks 2017',
    '' );
FILE_SCHEMA (( 'AUTOMOTIVE_DESIGN' ));
ENDSEC;

DATA;
#1 = ORIENTED_EDGE ( 'NONE', *, *, #91, .T. ) ;
#2 = DIRECTION ( 'NONE',  ( -0.0000000000000000000, -0.0000000000000000000, -1.000000000000000000 ) ) ;
#3 = CYLINDRICAL_SURFACE ( 'NONE', #242, 0.01950000000000000000 ) ;
#4 = ORIENTED_EDGE ( 'NONE', *, *, #297, .T. ) ;
#5 = PRODUCT ( 'Douille de direction', 'Douille de direction', '', ( #94 ) ) ;
#6 = DIRECTION ( 'NONE',  ( 1.000000000000000000, 0.0000000000000000000, 0.0000000000000000000 ) ) ;
#7 = EDGE_CURVE ( 'NONE', #291, #343, #257, .T. ) ;
#8 = VERTEX_POINT ( 'NONE', #327 ) ;
#9 = ADVANCED_FACE ( 'NONE', ( #56, #199 ), #39, .F. ) ;
#10 = ADVANCED_FACE ( 'NONE', ( #177 ), #360, .T. ) ;
#11 = ORIENTED_EDGE ( 'NONE', *, *, #64, .F. ) ;
#12 = ORIENTED_EDGE ( 'NONE', *, *, #290, .T. ) ;
#13 = PLANE ( 'NONE',  #108 ) ;
#14 = AXIS2_PLACEMENT_3D ( 'NONE', #341, #254, #286 ) ;
#15 = DIRECTION ( 'NONE',  ( 0.0000000000000000000, 0.0000000000000000000, 1.000000000000000000 ) ) ;
#16 = EDGE_CURVE ( 'NONE', #178, #57, #30, .T. ) ;
#17 = ADVANCED_FACE ( 'NONE', ( #88, #305 ), #13, .T. ) ;
#18 = DIRECTION ( 'NONE',  ( 1.000000000000000000, 0.0000000000000000000, 0.0000000000000000000 ) ) ;
#19 = CIRCLE ( 'NONE', #345, 0.01695000000000000000 ) ;
#20 = CIRCLE ( 'NONE', #293, 0.01950000000000000000 ) ;
#21 = FILL_AREA_STYLE ('',( #167 ) ) ;
#22 = ORIENTED_EDGE ( 'NONE', *, *, #77, .T. ) ;
#23 = CARTESIAN_POINT ( 'NONE',  ( -0.01695000000000000000, 2.075776324554763600E-018, 0.1100000000000000100 ) ) ;
#24 = DIRECTION ( 'NONE',  ( -0.0000000000000000000, -0.0000000000000000000, -1.000000000000000000 ) ) ;
#25 = FACE_OUTER_BOUND ( 'NONE', #125, .T. ) ;
#26 = VECTOR ( 'NONE', #183, 1.000000000000000000 ) ;
#27 = DIRECTION ( 'NONE',  ( 0.0000000000000000000, 0.0000000000000000000, 1.000000000000000000 ) ) ;
#28 = CARTESIAN_POINT ( 'NONE',  ( 0.0000000000000000000, 0.0000000000000000000, 0.02999999999999999900 ) ) ;
#29 = AXIS2_PLACEMENT_3D ( 'NONE', #28, #120, #227 ) ;
#30 = CIRCLE ( 'NONE', #98, 0.01695000000000000000 ) ;
#31 = ORIENTED_EDGE ( 'NONE', *, *, #44, .F. ) ;
#32 =( LENGTH_UNIT ( ) NAMED_UNIT ( * ) SI_UNIT ( $, .METRE. ) );
#33 = AXIS2_PLACEMENT_3D ( 'NONE', #198, #202, #6 ) ;
#34 = DIRECTION ( 'NONE',  ( 1.000000000000000000, 0.0000000000000000000, 0.0000000000000000000 ) ) ;
#35 = APPLICATION_PROTOCOL_DEFINITION ( 'draft international standard', 'automotive_design', 1998, #233 ) ;
#36 = EDGE_CURVE ( 'NONE', #343, #291, #234, .T. ) ;
#37 = PRESENTATION_STYLE_ASSIGNMENT (( #121 ) ) ;
#38 = VECTOR ( 'NONE', #185, 1.000000000000000000 ) ;
#39 = PLANE ( 'NONE',  #138 ) ;
#40 = ORIENTED_EDGE ( 'NONE', *, *, #290, .F. ) ;
#41 = ORIENTED_EDGE ( 'NONE', *, *, #175, .F. ) ;
#42 = AXIS2_PLACEMENT_3D ( 'NONE', #272, #161, #335 ) ;
#43 = LINE ( 'NONE', #363, #26 ) ;
#44 = EDGE_CURVE ( 'NONE', #226, #340, #269, .T. ) ;
#45 = PRODUCT_DEFINITION_CONTEXT ( 'detailed design', #233, 'design' ) ;
#46 = ORIENTED_EDGE ( 'NONE', *, *, #64, .T. ) ;
#47 = PRODUCT_DEFINITION_FORMATION_WITH_SPECIFIED_SOURCE ( 'ANY', '', #5, .NOT_KNOWN. ) ;
#48 = CARTESIAN_POINT ( 'NONE',  ( 0.01650000000000062500, 2.020667218593209200E-018, 0.1100000000000000100 ) ) ;
#49 = CARTESIAN_POINT ( 'NONE',  ( 0.0000000000000000000, 0.0000000000000000000, 0.1400000000000000100 ) ) ;
#50 = SURFACE_STYLE_FILL_AREA ( #21 ) ;
#51 = SURFACE_STYLE_USAGE ( .BOTH. , #170 ) ;
#52 = ORIENTED_EDGE ( 'NONE', *, *, #7, .F. ) ;
#53 = CARTESIAN_POINT ( 'NONE',  ( -0.01650000000000062500, 0.0000000000000000000, 0.02999999999999999900 ) ) ;
#54 = DIRECTION ( 'NONE',  ( -1.000000000000000000, 0.0000000000000000000, 0.0000000000000000000 ) ) ;
#55 = VECTOR ( 'NONE', #162, 1.000000000000000000 ) ;
#56 = FACE_BOUND ( 'NONE', #264, .T. ) ;
#57 = VERTEX_POINT ( 'NONE', #265 ) ;
#58 = DIRECTION ( 'NONE',  ( -1.000000000000000000, 0.0000000000000000000, 0.0000000000000000000 ) ) ;
#59 = DIRECTION ( 'NONE',  ( -1.000000000000000000, 0.0000000000000000000, 0.0000000000000000000 ) ) ;
#60 = CARTESIAN_POINT ( 'NONE',  ( -0.01950000000000000000, 0.0000000000000000000, 0.1400000000000000100 ) ) ;
#61 = EDGE_CURVE ( 'NONE', #57, #178, #247, .T. ) ;
#62 = AXIS2_PLACEMENT_3D ( 'NONE', #222, #365, #223 ) ;
#63 = ORIENTED_EDGE ( 'NONE', *, *, #36, .F. ) ;
#64 = EDGE_CURVE ( 'NONE', #343, #273, #194, .T. ) ;
#65 = ORIENTED_EDGE ( 'NONE', *, *, #16, .F. ) ;
#66 = MECHANICAL_DESIGN_GEOMETRIC_PRESENTATION_REPRESENTATION (  '', ( #140 ), #153 ) ;
#67 = ORIENTED_EDGE ( 'NONE', *, *, #61, .T. ) ;
#68 = EDGE_CURVE ( 'NONE', #291, #182, #43, .T. ) ;
#69 = DIRECTION ( 'NONE',  ( 1.000000000000000000, 0.0000000000000000000, 0.0000000000000000000 ) ) ;
#70 = CYLINDRICAL_SURFACE ( 'NONE', #263, 0.01695000000000000000 ) ;
#71 = DIRECTION ( 'NONE',  ( -0.0000000000000000000, -0.0000000000000000000, 1.000000000000000000 ) ) ;
#72 = ORIENTED_EDGE ( 'NONE', *, *, #237, .F. ) ;
#73 = CARTESIAN_POINT ( 'NONE',  ( 0.0000000000000000000, 0.0000000000000000000, 0.1400000000000000100 ) ) ;
#74 = CARTESIAN_POINT ( 'NONE',  ( 0.01950000000000000000, 2.388061258337338900E-018, 0.0000000000000000000 ) ) ;
#75 = CYLINDRICAL_SURFACE ( 'NONE', #148, 0.01695000000000000000 ) ;
#76 = ORIENTED_EDGE ( 'NONE', *, *, #184, .F. ) ;
#77 = EDGE_CURVE ( 'NONE', #340, #139, #113, .T. ) ;
#78 = DIRECTION ( 'NONE',  ( 0.0000000000000000000, 0.0000000000000000000, 1.000000000000000000 ) ) ;
#79 = PRESENTATION_LAYER_ASSIGNMENT (  '', '', ( #140 ) ) ;
#80 = DIRECTION ( 'NONE',  ( 1.000000000000000000, 0.0000000000000000000, 0.0000000000000000000 ) ) ;
#81 = DIRECTION ( 'NONE',  ( 0.0000000000000000000, 0.0000000000000000000, -1.000000000000000000 ) ) ;
#82 = SHAPE_DEFINITION_REPRESENTATION ( #239, #311 ) ;
#83 = FACE_OUTER_BOUND ( 'NONE', #329, .T. ) ;
#84 = ORIENTED_EDGE ( 'NONE', *, *, #237, .T. ) ;
#85 = EDGE_CURVE ( 'NONE', #368, #350, #323, .T. ) ;
#86 = FILL_AREA_STYLE_COLOUR ( '', #112 ) ;
#87 =( NAMED_UNIT ( * ) PLANE_ANGLE_UNIT ( ) SI_UNIT ( $, .RADIAN. ) );
#88 = FACE_OUTER_BOUND ( 'NONE', #163, .T. ) ;
#89 = ORIENTED_EDGE ( 'NONE', *, *, #255, .F. ) ;
#90 = PRODUCT_DEFINITION ( 'UNKNOWN', '', #47, #45 ) ;
#91 = EDGE_CURVE ( 'NONE', #57, #155, #127, .T. ) ;
#92 = FACE_OUTER_BOUND ( 'NONE', #118, .T. ) ;
#93 = LINE ( 'NONE', #23, #299 ) ;
#94 = PRODUCT_CONTEXT ( 'NONE', #316, 'mechanical' ) ;
#95 = ADVANCED_FACE ( 'NONE', ( #319 ), #225, .F. ) ;
#96 = ORIENTED_EDGE ( 'NONE', *, *, #77, .F. ) ;
#97 = ORIENTED_EDGE ( 'NONE', *, *, #91, .F. ) ;
#98 = AXIS2_PLACEMENT_3D ( 'NONE', #152, #302, #131 ) ;
#99 = AXIS2_PLACEMENT_3D ( 'NONE', #228, #2, #318 ) ;
#100 = CARTESIAN_POINT ( 'NONE',  ( 0.0000000000000000000, 0.0000000000000000000, 0.0000000000000000000 ) ) ;
#101 = DIRECTION ( 'NONE',  ( -0.0000000000000000000, -0.0000000000000000000, -1.000000000000000000 ) ) ;
#102 = FACE_BOUND ( 'NONE', #215, .T. ) ;
#103 = LINE ( 'NONE', #217, #244 ) ;
#104 = ADVANCED_FACE ( 'NONE', ( #252 ), #150, .F. ) ;
#105 = CARTESIAN_POINT ( 'NONE',  ( 0.0000000000000000000, 0.0000000000000000000, 0.1400000000000000100 ) ) ;
#106 = VECTOR ( 'NONE', #71, 1.000000000000000000 ) ;
#107 = EDGE_LOOP ( 'NONE', ( #179, #1, #76, #235 ) ) ;
#108 = AXIS2_PLACEMENT_3D ( 'NONE', #129, #15, #333 ) ;
#109 = CARTESIAN_POINT ( 'NONE',  ( -0.01695000000000000000, 2.075776324554763600E-018, 0.1100000000000000100 ) ) ;
#110 = CARTESIAN_POINT ( 'NONE',  ( 0.01695000000000000000, 2.075776324554763600E-018, 0.0000000000000000000 ) ) ;
#111 = CARTESIAN_POINT ( 'NONE',  ( 0.0000000000000000000, 0.0000000000000000000, 0.0000000000000000000 ) ) ;
#112 = COLOUR_RGB ( '',0.7921568627450980000, 0.8196078431372548800, 0.9333333333333333500 ) ;
#113 = LINE ( 'NONE', #274, #106 ) ;
#114 = EDGE_CURVE ( 'NONE', #139, #314, #172, .T. ) ;
#115 = DIRECTION ( 'NONE',  ( 1.000000000000000000, 0.0000000000000000000, 0.0000000000000000000 ) ) ;
#116 = CARTESIAN_POINT ( 'NONE',  ( 0.0000000000000000000, 0.0000000000000000000, 0.1400000000000000100 ) ) ;
#117 = CARTESIAN_POINT ( 'NONE',  ( 0.01950000000000000000, 2.388061258337338900E-018, 0.1400000000000000100 ) ) ;
#118 = EDGE_LOOP ( 'NONE', ( #97, #67, #292, #221 ) ) ;
#119 = EDGE_LOOP ( 'NONE', ( #351, #328 ) ) ;
#120 = DIRECTION ( 'NONE',  ( -0.0000000000000000000, -0.0000000000000000000, 1.000000000000000000 ) ) ;
#121 = SURFACE_STYLE_USAGE ( .BOTH. , #261 ) ;
#122 = AXIS2_PLACEMENT_3D ( 'NONE', #214, #331, #158 ) ;
#123 = DIRECTION ( 'NONE',  ( -0.0000000000000000000, -0.0000000000000000000, -1.000000000000000000 ) ) ;
#124 =( GEOMETRIC_REPRESENTATION_CONTEXT ( 3 ) GLOBAL_UNCERTAINTY_ASSIGNED_CONTEXT ( ( #334 ) ) GLOBAL_UNIT_ASSIGNED_CONTEXT ( ( #32, #87, #230 ) ) REPRESENTATION_CONTEXT ( 'NONE', 'WORKASPACE' ) );
#125 = EDGE_LOOP ( 'NONE', ( #72, #276, #288, #210 ) ) ;
#126 = CARTESIAN_POINT ( 'NONE',  ( 0.0000000000000000000, 0.0000000000000000000, 0.1400000000000000100 ) ) ;
#127 = LINE ( 'NONE', #246, #283 ) ;
#128 = ORIENTED_EDGE ( 'NONE', *, *, #184, .T. ) ;
#129 = CARTESIAN_POINT ( 'NONE',  ( 0.0000000000000000000, 0.0000000000000000000, 0.1100000000000000100 ) ) ;
#130 = AXIS2_PLACEMENT_3D ( 'NONE', #105, #270, #69 ) ;
#131 = DIRECTION ( 'NONE',  ( 1.000000000000000000, 0.0000000000000000000, 0.0000000000000000000 ) ) ;
#132 = CARTESIAN_POINT ( 'NONE',  ( 0.01695000000000000000, 0.0000000000000000000, 0.1400000000000000100 ) ) ;
#133 = SURFACE_STYLE_FILL_AREA ( #285 ) ;
#134 = EDGE_LOOP ( 'NONE', ( #216, #4 ) ) ;
#135 = CARTESIAN_POINT ( 'NONE',  ( 0.0000000000000000000, 0.0000000000000000000, 0.02999999999999999200 ) ) ;
#136 = DIRECTION ( 'NONE',  ( -0.0000000000000000000, -0.0000000000000000000, -1.000000000000000000 ) ) ;
#137 = DIRECTION ( 'NONE',  ( 1.000000000000000000, 0.0000000000000000000, 0.0000000000000000000 ) ) ;
#138 = AXIS2_PLACEMENT_3D ( 'NONE', #100, #236, #295 ) ;
#139 = VERTEX_POINT ( 'NONE', #132 ) ;
#140 = STYLED_ITEM ( 'NONE', ( #266 ), #260 ) ;
#141 = CARTESIAN_POINT ( 'NONE',  ( 0.0000000000000000000, 0.0000000000000000000, 0.0000000000000000000 ) ) ;
#142 = DIRECTION ( 'NONE',  ( -1.000000000000000000, 0.0000000000000000000, 0.0000000000000000000 ) ) ;
#143 = EDGE_CURVE ( 'NONE', #350, #368, #20, .T. ) ;
#144 = EDGE_LOOP ( 'NONE', ( #188, #63, #46, #159 ) ) ;
#145 =( LENGTH_UNIT ( ) NAMED_UNIT ( * ) SI_UNIT ( $, .METRE. ) );
#146 = LINE ( 'NONE', #195, #181 ) ;
#147 = EDGE_LOOP ( 'NONE', ( #284, #89 ) ) ;
#148 = AXIS2_PLACEMENT_3D ( 'NONE', #289, #123, #54 ) ;
#149 = EDGE_CURVE ( 'NONE', #178, #362, #103, .T. ) ;
#150 = CYLINDRICAL_SURFACE ( 'NONE', #42, 0.01650000000000062500 ) ;
#151 = ADVANCED_FACE ( 'NONE', ( #83 ), #70, .F. ) ;
#152 = CARTESIAN_POINT ( 'NONE',  ( 0.0000000000000000000, 0.0000000000000000000, 0.02999999999999999200 ) ) ;
#153 =( GEOMETRIC_REPRESENTATION_CONTEXT ( 3 ) GLOBAL_UNCERTAINTY_ASSIGNED_CONTEXT ( ( #166 ) ) GLOBAL_UNIT_ASSIGNED_CONTEXT ( ( #371, #218, #249 ) ) REPRESENTATION_CONTEXT ( 'NONE', 'WORKASPACE' ) );
#154 = CIRCLE ( 'NONE', #355, 0.01650000000000062500 ) ;
#155 = VERTEX_POINT ( 'NONE', #110 ) ;
#156 = MECHANICAL_DESIGN_GEOMETRIC_PRESENTATION_REPRESENTATION (  '', ( #200 ), #212 ) ;
#157 = DIRECTION ( 'NONE',  ( -0.0000000000000000000, -0.0000000000000000000, 1.000000000000000000 ) ) ;
#158 = DIRECTION ( 'NONE',  ( 1.000000000000000000, 0.0000000000000000000, 0.0000000000000000000 ) ) ;
#159 = ORIENTED_EDGE ( 'NONE', *, *, #297, .F. ) ;
#160 = ORIENTED_EDGE ( 'NONE', *, *, #349, .T. ) ;
#161 = DIRECTION ( 'NONE',  ( 0.0000000000000000000, 0.0000000000000000000, -1.000000000000000000 ) ) ;
#162 = DIRECTION ( 'NONE',  ( -0.0000000000000000000, -0.0000000000000000000, -1.000000000000000000 ) ) ;
#163 = EDGE_LOOP ( 'NONE', ( #160, #258 ) ) ;
#164 = ORIENTED_EDGE ( 'NONE', *, *, #68, .T. ) ;
#165 = DIRECTION ( 'NONE',  ( 1.000000000000000000, 0.0000000000000000000, 0.0000000000000000000 ) ) ;
#166 = UNCERTAINTY_MEASURE_WITH_UNIT (LENGTH_MEASURE( 1.000000000000000100E-005 ), #371, 'distance_accuracy_value', 'NONE');
#167 = FILL_AREA_STYLE_COLOUR ( '', #197 ) ;
#168 = DIRECTION ( 'NONE',  ( 1.000000000000000000, 0.0000000000000000000, 0.0000000000000000000 ) ) ;
#169 = FACE_OUTER_BOUND ( 'NONE', #144, .T. ) ;
#170 = SURFACE_SIDE_STYLE ('',( #50 ) ) ;
#171 = DIRECTION ( 'NONE',  ( -0.0000000000000000000, -0.0000000000000000000, -1.000000000000000000 ) ) ;
#172 = CIRCLE ( 'NONE', #130, 0.01695000000000000000 ) ;
#173 = EDGE_LOOP ( 'NONE', ( #65, #186 ) ) ;
#174 =( NAMED_UNIT ( * ) SI_UNIT ( $, .STERADIAN. ) SOLID_ANGLE_UNIT ( ) );
#175 = EDGE_CURVE ( 'NONE', #226, #314, #93, .T. ) ;
#176 = CIRCLE ( 'NONE', #229, 0.01695000000000000000 ) ;
#177 = FACE_OUTER_BOUND ( 'NONE', #320, .T. ) ;
#178 = VERTEX_POINT ( 'NONE', #369 ) ;
#179 = ORIENTED_EDGE ( 'NONE', *, *, #16, .T. ) ;
#180 = DIRECTION ( 'NONE',  ( 0.0000000000000000000, 0.0000000000000000000, 1.000000000000000000 ) ) ;
#181 = VECTOR ( 'NONE', #24, 1.000000000000000000 ) ;
#182 = VERTEX_POINT ( 'NONE', #278 ) ;
#183 = DIRECTION ( 'NONE',  ( 0.0000000000000000000, 0.0000000000000000000, -1.000000000000000000 ) ) ;
#184 = EDGE_CURVE ( 'NONE', #362, #155, #19, .T. ) ;
#185 = DIRECTION ( 'NONE',  ( 0.0000000000000000000, 0.0000000000000000000, -1.000000000000000000 ) ) ;
#186 = ORIENTED_EDGE ( 'NONE', *, *, #61, .F. ) ;
#187 = DIRECTION ( 'NONE',  ( 1.000000000000000000, 0.0000000000000000000, 0.0000000000000000000 ) ) ;
#188 = ORIENTED_EDGE ( 'NONE', *, *, #68, .F. ) ;
#189 = DIRECTION ( 'NONE',  ( -0.0000000000000000000, -0.0000000000000000000, 1.000000000000000000 ) ) ;
#190 = PRESENTATION_LAYER_ASSIGNMENT (  '', '', ( #200 ) ) ;
#191 = DIRECTION ( 'NONE',  ( 0.0000000000000000000, 0.0000000000000000000, 1.000000000000000000 ) ) ;
#192 = AXIS2_PLACEMENT_3D ( 'NONE', #304, #157, #361 ) ;
#193 = CIRCLE ( 'NONE', #250, 0.01695000000000000000 ) ;
#194 = LINE ( 'NONE', #359, #38 ) ;
#195 = CARTESIAN_POINT ( 'NONE',  ( 0.01950000000000000000, 2.388061258337338900E-018, 0.1400000000000000100 ) ) ;
#196 = EDGE_CURVE ( 'NONE', #155, #362, #205, .T. ) ;
#197 = COLOUR_RGB ( '',0.7921568627450980000, 0.8196078431372548800, 0.9333333333333333500 ) ;
#198 = CARTESIAN_POINT ( 'NONE',  ( 0.0000000000000000000, 0.0000000000000000000, 0.0000000000000000000 ) ) ;
#199 = FACE_OUTER_BOUND ( 'NONE', #147, .T. ) ;
#200 = STYLED_ITEM ( 'NONE', ( #37 ), #311 ) ;
#201 = ORIENTED_EDGE ( 'NONE', *, *, #310, .F. ) ;
#202 = DIRECTION ( 'NONE',  ( 0.0000000000000000000, 0.0000000000000000000, 1.000000000000000000 ) ) ;
#203 = AXIS2_PLACEMENT_3D ( 'NONE', #356, #268, #207 ) ;
#204 = CIRCLE ( 'NONE', #29, 0.01650000000000062500 ) ;
#205 = CIRCLE ( 'NONE', #62, 0.01695000000000000000 ) ;
#206 = EDGE_LOOP ( 'NONE', ( #31, #300, #12, #96 ) ) ;
#207 = DIRECTION ( 'NONE',  ( 1.000000000000000000, 0.0000000000000000000, 0.0000000000000000000 ) ) ;
#208 = ADVANCED_FACE ( 'NONE', ( #342, #374 ), #251, .T. ) ;
#209 = AXIS2_PLACEMENT_3D ( 'NONE', #309, #312, #338 ) ;
#210 = ORIENTED_EDGE ( 'NONE', *, *, #211, .T. ) ;
#211 = EDGE_CURVE ( 'NONE', #8, #308, #240, .T. ) ;
#212 =( GEOMETRIC_REPRESENTATION_CONTEXT ( 3 ) GLOBAL_UNCERTAINTY_ASSIGNED_CONTEXT ( ( #353 ) ) GLOBAL_UNIT_ASSIGNED_CONTEXT ( ( #145, #347, #174 ) ) REPRESENTATION_CONTEXT ( 'NONE', 'WORKASPACE' ) );
#213 = DIRECTION ( 'NONE',  ( 0.0000000000000000000, 0.0000000000000000000, 1.000000000000000000 ) ) ;
#214 = CARTESIAN_POINT ( 'NONE',  ( 0.0000000000000000000, 0.0000000000000000000, 0.1100000000000000100 ) ) ;
#215 = EDGE_LOOP ( 'NONE', ( #313, #40 ) ) ;
#216 = ORIENTED_EDGE ( 'NONE', *, *, #370, .T. ) ;
#217 = CARTESIAN_POINT ( 'NONE',  ( -0.01695000000000000000, 0.0000000000000000000, 0.02999999999999999200 ) ) ;
#218 =( NAMED_UNIT ( * ) PLANE_ANGLE_UNIT ( ) SI_UNIT ( $, .RADIAN. ) );
#219 = AXIS2_PLACEMENT_3D ( 'NONE', #135, #358, #18 ) ;
#220 = FACE_OUTER_BOUND ( 'NONE', #107, .T. ) ;
#221 = ORIENTED_EDGE ( 'NONE', *, *, #196, .F. ) ;
#222 = CARTESIAN_POINT ( 'NONE',  ( 0.0000000000000000000, 0.0000000000000000000, 0.0000000000000000000 ) ) ;
#223 = DIRECTION ( 'NONE',  ( 1.000000000000000000, 0.0000000000000000000, 0.0000000000000000000 ) ) ;
#224 = CYLINDRICAL_SURFACE ( 'NONE', #322, 0.01650000000000062500 ) ;
#225 = CYLINDRICAL_SURFACE ( 'NONE', #192, 0.01695000000000000000 ) ;
#226 = VERTEX_POINT ( 'NONE', #109 ) ;
#227 = DIRECTION ( 'NONE',  ( -1.000000000000000000, 0.0000000000000000000, 0.0000000000000000000 ) ) ;
#228 = CARTESIAN_POINT ( 'NONE',  ( 0.0000000000000000000, 0.0000000000000000000, 0.02999999999999999200 ) ) ;
#229 = AXIS2_PLACEMENT_3D ( 'NONE', #116, #306, #137 ) ;
#230 =( NAMED_UNIT ( * ) SI_UNIT ( $, .STERADIAN. ) SOLID_ANGLE_UNIT ( ) );
#231 = CLOSED_SHELL ( 'NONE', ( #324, #95, #10, #104, #271, #354, #9, #332, #17, #151, #208, #352 ) ) ;
#232 = CARTESIAN_POINT ( 'NONE',  ( -0.01695000000000000000, 2.075776324554763600E-018, 0.1400000000000000100 ) ) ;
#233 = APPLICATION_CONTEXT ( 'automotive_design' ) ;
#234 = CIRCLE ( 'NONE', #122, 0.01650000000000062500 ) ;
#235 = ORIENTED_EDGE ( 'NONE', *, *, #149, .F. ) ;
#236 = DIRECTION ( 'NONE',  ( 0.0000000000000000000, 0.0000000000000000000, 1.000000000000000000 ) ) ;
#237 = EDGE_CURVE ( 'NONE', #368, #308, #146, .T. ) ;
#238 = DIRECTION ( 'NONE',  ( -1.000000000000000000, 0.0000000000000000000, 0.0000000000000000000 ) ) ;
#239 = PRODUCT_DEFINITION_SHAPE ( 'NONE', 'NONE',  #90 ) ;
#240 = CIRCLE ( 'NONE', #307, 0.01950000000000000000 ) ;
#241 = ORIENTED_EDGE ( 'NONE', *, *, #349, .F. ) ;
#242 = AXIS2_PLACEMENT_3D ( 'NONE', #344, #171, #58 ) ;
#243 = CIRCLE ( 'NONE', #364, 0.01950000000000000000 ) ;
#244 = VECTOR ( 'NONE', #101, 1.000000000000000000 ) ;
#245 = CARTESIAN_POINT ( 'NONE',  ( 0.0000000000000000000, 0.0000000000000000000, 0.1100000000000000100 ) ) ;
#246 = CARTESIAN_POINT ( 'NONE',  ( 0.01695000000000000000, 2.075776324554763600E-018, 0.02999999999999999200 ) ) ;
#247 = CIRCLE ( 'NONE', #219, 0.01695000000000000000 ) ;
#248 = ORIENTED_EDGE ( 'NONE', *, *, #36, .T. ) ;
#249 =( NAMED_UNIT ( * ) SI_UNIT ( $, .STERADIAN. ) SOLID_ANGLE_UNIT ( ) );
#250 = AXIS2_PLACEMENT_3D ( 'NONE', #262, #27, #34 ) ;
#251 = PLANE ( 'NONE',  #209 ) ;
#252 = FACE_OUTER_BOUND ( 'NONE', #267, .T. ) ;
#253 = CARTESIAN_POINT ( 'NONE',  ( -0.01950000000000000000, 0.0000000000000000000, 0.1400000000000000100 ) ) ;
#254 = DIRECTION ( 'NONE',  ( 0.0000000000000000000, 0.0000000000000000000, 1.000000000000000000 ) ) ;
#255 = EDGE_CURVE ( 'NONE', #308, #8, #243, .T. ) ;
#256 = CARTESIAN_POINT ( 'NONE',  ( -0.01650000000000062500, 0.0000000000000000000, 0.1100000000000000100 ) ) ;
#257 = CIRCLE ( 'NONE', #203, 0.01650000000000062500 ) ;
#258 = ORIENTED_EDGE ( 'NONE', *, *, #44, .T. ) ;
#259 = DIRECTION ( 'NONE',  ( -0.0000000000000000000, -0.0000000000000000000, 1.000000000000000000 ) ) ;
#260 = MANIFOLD_SOLID_BREP ( 'Symétrie1', #231 ) ;
#261 = SURFACE_SIDE_STYLE ('',( #133 ) ) ;
#262 = CARTESIAN_POINT ( 'NONE',  ( 0.0000000000000000000, 0.0000000000000000000, 0.1100000000000000100 ) ) ;
#263 = AXIS2_PLACEMENT_3D ( 'NONE', #245, #366, #80 ) ;
#264 = EDGE_LOOP ( 'NONE', ( #128, #336 ) ) ;
#265 = CARTESIAN_POINT ( 'NONE',  ( 0.01695000000000000000, 2.075776324554763600E-018, 0.02999999999999999200 ) ) ;
#266 = PRESENTATION_STYLE_ASSIGNMENT (( #51 ) ) ;
#267 = EDGE_LOOP ( 'NONE', ( #52, #164, #357, #11 ) ) ;
#268 = DIRECTION ( 'NONE',  ( -0.0000000000000000000, -0.0000000000000000000, -1.000000000000000000 ) ) ;
#269 = CIRCLE ( 'NONE', #326, 0.01695000000000000000 ) ;
#270 = DIRECTION ( 'NONE',  ( 0.0000000000000000000, 0.0000000000000000000, 1.000000000000000000 ) ) ;
#271 = ADVANCED_FACE ( 'NONE', ( #169 ), #224, .F. ) ;
#272 = CARTESIAN_POINT ( 'NONE',  ( 0.0000000000000000000, 0.0000000000000000000, 0.1400000000000000100 ) ) ;
#273 = VERTEX_POINT ( 'NONE', #53 ) ;
#274 = CARTESIAN_POINT ( 'NONE',  ( 0.01695000000000000000, 0.0000000000000000000, 0.1100000000000000100 ) ) ;
#275 = AXIS2_PLACEMENT_3D ( 'NONE', #126, #325, #238 ) ;
#276 = ORIENTED_EDGE ( 'NONE', *, *, #143, .F. ) ;
#277 = ORIENTED_EDGE ( 'NONE', *, *, #85, .F. ) ;
#278 = CARTESIAN_POINT ( 'NONE',  ( 0.01650000000000062500, 2.020667218593209200E-018, 0.02999999999999999900 ) ) ;
#279 = CARTESIAN_POINT ( 'NONE',  ( 0.0000000000000000000, 0.0000000000000000000, 0.1400000000000000100 ) ) ;
#280 = CARTESIAN_POINT ( 'NONE',  ( 0.0000000000000000000, 0.0000000000000000000, 0.0000000000000000000 ) ) ;
#281 = FACE_OUTER_BOUND ( 'NONE', #119, .T. ) ;
#282 = CARTESIAN_POINT ( 'NONE',  ( 0.01695000000000000000, 0.0000000000000000000, 0.1100000000000000100 ) ) ;
#283 = VECTOR ( 'NONE', #136, 1.000000000000000000 ) ;
#284 = ORIENTED_EDGE ( 'NONE', *, *, #211, .F. ) ;
#285 = FILL_AREA_STYLE ('',( #86 ) ) ;
#286 = DIRECTION ( 'NONE',  ( 1.000000000000000000, 0.0000000000000000000, -0.0000000000000000000 ) ) ;
#287 = AXIS2_PLACEMENT_3D ( 'NONE', #73, #180, #296 ) ;
#288 = ORIENTED_EDGE ( 'NONE', *, *, #310, .T. ) ;
#289 = CARTESIAN_POINT ( 'NONE',  ( 0.0000000000000000000, 0.0000000000000000000, 0.02999999999999999200 ) ) ;
#290 = EDGE_CURVE ( 'NONE', #314, #139, #176, .T. ) ;
#291 = VERTEX_POINT ( 'NONE', #48 ) ;
#292 = ORIENTED_EDGE ( 'NONE', *, *, #149, .T. ) ;
#293 = AXIS2_PLACEMENT_3D ( 'NONE', #279, #78, #165 ) ;
#294 = ORIENTED_EDGE ( 'NONE', *, *, #255, .T. ) ;
#295 = DIRECTION ( 'NONE',  ( 1.000000000000000000, 0.0000000000000000000, -0.0000000000000000000 ) ) ;
#296 = DIRECTION ( 'NONE',  ( 1.000000000000000000, 0.0000000000000000000, 0.0000000000000000000 ) ) ;
#297 = EDGE_CURVE ( 'NONE', #182, #273, #154, .T. ) ;
#298 = LINE ( 'NONE', #253, #55 ) ;
#299 = VECTOR ( 'NONE', #315, 1.000000000000000000 ) ;
#300 = ORIENTED_EDGE ( 'NONE', *, *, #175, .T. ) ;
#301 = CARTESIAN_POINT ( 'NONE',  ( 0.0000000000000000000, 0.0000000000000000000, 0.1100000000000000100 ) ) ;
#302 = DIRECTION ( 'NONE',  ( -0.0000000000000000000, -0.0000000000000000000, 1.000000000000000000 ) ) ;
#303 = PRODUCT_RELATED_PRODUCT_CATEGORY ( 'part', '', ( #5 ) ) ;
#304 = CARTESIAN_POINT ( 'NONE',  ( 0.0000000000000000000, 0.0000000000000000000, 0.1100000000000000100 ) ) ;
#305 = FACE_BOUND ( 'NONE', #337, .T. ) ;
#306 = DIRECTION ( 'NONE',  ( 0.0000000000000000000, 0.0000000000000000000, 1.000000000000000000 ) ) ;
#307 = AXIS2_PLACEMENT_3D ( 'NONE', #280, #191, #115 ) ;
#308 = VERTEX_POINT ( 'NONE', #74 ) ;
#309 = CARTESIAN_POINT ( 'NONE',  ( 0.0000000000000000000, 0.0000000000000000000, 0.02999999999999999200 ) ) ;
#310 = EDGE_CURVE ( 'NONE', #350, #8, #298, .T. ) ;
#311 = ADVANCED_BREP_SHAPE_REPRESENTATION ( 'Douille de direction', ( #260, #33 ), #124 ) ;
#312 = DIRECTION ( 'NONE',  ( 0.0000000000000000000, 0.0000000000000000000, -1.000000000000000000 ) ) ;
#313 = ORIENTED_EDGE ( 'NONE', *, *, #114, .F. ) ;
#314 = VERTEX_POINT ( 'NONE', #232 ) ;
#315 = DIRECTION ( 'NONE',  ( -0.0000000000000000000, -0.0000000000000000000, 1.000000000000000000 ) ) ;
#316 = APPLICATION_CONTEXT ( 'automotive_design' ) ;
#317 = CARTESIAN_POINT ( 'NONE',  ( 0.0000000000000000000, 0.0000000000000000000, 0.02999999999999999900 ) ) ;
#318 = DIRECTION ( 'NONE',  ( -1.000000000000000000, 0.0000000000000000000, 0.0000000000000000000 ) ) ;
#319 = FACE_OUTER_BOUND ( 'NONE', #206, .T. ) ;
#320 = EDGE_LOOP ( 'NONE', ( #277, #84, #294, #201 ) ) ;
#321 = PLANE ( 'NONE',  #14 ) ;
#322 = AXIS2_PLACEMENT_3D ( 'NONE', #49, #81, #142 ) ;
#323 = CIRCLE ( 'NONE', #287, 0.01950000000000000000 ) ;
#324 = ADVANCED_FACE ( 'NONE', ( #220 ), #367, .F. ) ;
#325 = DIRECTION ( 'NONE',  ( -0.0000000000000000000, -0.0000000000000000000, -1.000000000000000000 ) ) ;
#326 = AXIS2_PLACEMENT_3D ( 'NONE', #301, #213, #187 ) ;
#327 = CARTESIAN_POINT ( 'NONE',  ( -0.01950000000000000000, 0.0000000000000000000, 0.0000000000000000000 ) ) ;
#328 = ORIENTED_EDGE ( 'NONE', *, *, #85, .T. ) ;
#329 = EDGE_LOOP ( 'NONE', ( #41, #241, #22, #330 ) ) ;
#330 = ORIENTED_EDGE ( 'NONE', *, *, #114, .T. ) ;
#331 = DIRECTION ( 'NONE',  ( -0.0000000000000000000, -0.0000000000000000000, -1.000000000000000000 ) ) ;
#332 = ADVANCED_FACE ( 'NONE', ( #25 ), #3, .T. ) ;
#333 = DIRECTION ( 'NONE',  ( 1.000000000000000000, 0.0000000000000000000, -0.0000000000000000000 ) ) ;
#334 = UNCERTAINTY_MEASURE_WITH_UNIT (LENGTH_MEASURE( 1.000000000000000100E-005 ), #32, 'distance_accuracy_value', 'NONE');
#335 = DIRECTION ( 'NONE',  ( -1.000000000000000000, 0.0000000000000000000, 0.0000000000000000000 ) ) ;
#336 = ORIENTED_EDGE ( 'NONE', *, *, #196, .T. ) ;
#337 = EDGE_LOOP ( 'NONE', ( #248, #348 ) ) ;
#338 = DIRECTION ( 'NONE',  ( 1.000000000000000000, 0.0000000000000000000, 0.0000000000000000000 ) ) ;
#339 = DIRECTION ( 'NONE',  ( 0.0000000000000000000, 0.0000000000000000000, 1.000000000000000000 ) ) ;
#340 = VERTEX_POINT ( 'NONE', #282 ) ;
#341 = CARTESIAN_POINT ( 'NONE',  ( 0.0000000000000000000, 0.0000000000000000000, 0.1400000000000000100 ) ) ;
#342 = FACE_OUTER_BOUND ( 'NONE', #173, .T. ) ;
#343 = VERTEX_POINT ( 'NONE', #256 ) ;
#344 = CARTESIAN_POINT ( 'NONE',  ( 0.0000000000000000000, 0.0000000000000000000, 0.1400000000000000100 ) ) ;
#345 = AXIS2_PLACEMENT_3D ( 'NONE', #111, #189, #372 ) ;
#346 = CARTESIAN_POINT ( 'NONE',  ( -0.01695000000000000000, 0.0000000000000000000, 0.0000000000000000000 ) ) ;
#347 =( NAMED_UNIT ( * ) PLANE_ANGLE_UNIT ( ) SI_UNIT ( $, .RADIAN. ) );
#348 = ORIENTED_EDGE ( 'NONE', *, *, #7, .T. ) ;
#349 = EDGE_CURVE ( 'NONE', #340, #226, #193, .T. ) ;
#350 = VERTEX_POINT ( 'NONE', #60 ) ;
#351 = ORIENTED_EDGE ( 'NONE', *, *, #143, .T. ) ;
#352 = ADVANCED_FACE ( 'NONE', ( #92 ), #75, .F. ) ;
#353 = UNCERTAINTY_MEASURE_WITH_UNIT (LENGTH_MEASURE( 1.000000000000000100E-005 ), #145, 'distance_accuracy_value', 'NONE');
#354 = ADVANCED_FACE ( 'NONE', ( #102, #281 ), #321, .T. ) ;
#355 = AXIS2_PLACEMENT_3D ( 'NONE', #317, #259, #59 ) ;
#356 = CARTESIAN_POINT ( 'NONE',  ( 0.0000000000000000000, 0.0000000000000000000, 0.1100000000000000100 ) ) ;
#357 = ORIENTED_EDGE ( 'NONE', *, *, #370, .F. ) ;
#358 = DIRECTION ( 'NONE',  ( -0.0000000000000000000, -0.0000000000000000000, 1.000000000000000000 ) ) ;
#359 = CARTESIAN_POINT ( 'NONE',  ( -0.01650000000000062500, 0.0000000000000000000, 0.1400000000000000100 ) ) ;
#360 = CYLINDRICAL_SURFACE ( 'NONE', #275, 0.01950000000000000000 ) ;
#361 = DIRECTION ( 'NONE',  ( 1.000000000000000000, 0.0000000000000000000, 0.0000000000000000000 ) ) ;
#362 = VERTEX_POINT ( 'NONE', #346 ) ;
#363 = CARTESIAN_POINT ( 'NONE',  ( 0.01650000000000062500, 2.020667218593209200E-018, 0.1400000000000000100 ) ) ;
#364 = AXIS2_PLACEMENT_3D ( 'NONE', #141, #339, #168 ) ;
#365 = DIRECTION ( 'NONE',  ( -0.0000000000000000000, -0.0000000000000000000, 1.000000000000000000 ) ) ;
#366 = DIRECTION ( 'NONE',  ( -0.0000000000000000000, -0.0000000000000000000, 1.000000000000000000 ) ) ;
#367 = CYLINDRICAL_SURFACE ( 'NONE', #99, 0.01695000000000000000 ) ;
#368 = VERTEX_POINT ( 'NONE', #117 ) ;
#369 = CARTESIAN_POINT ( 'NONE',  ( -0.01695000000000000000, 0.0000000000000000000, 0.02999999999999999200 ) ) ;
#370 = EDGE_CURVE ( 'NONE', #273, #182, #204, .T. ) ;
#371 =( LENGTH_UNIT ( ) NAMED_UNIT ( * ) SI_UNIT ( $, .METRE. ) );
#372 = DIRECTION ( 'NONE',  ( 1.000000000000000000, 0.0000000000000000000, 0.0000000000000000000 ) ) ;
#373 = APPLICATION_PROTOCOL_DEFINITION ( 'draft international standard', 'automotive_design', 1998, #316 ) ;
#374 = FACE_BOUND ( 'NONE', #134, .T. ) ;
ENDSEC;
END-ISO-10303-21;
