ISO-10303-21;
HEADER;
FILE_DESCRIPTION (( 'STEP AP214' ),
    '1' );
FILE_NAME ('Pot de transfert.STEP',
    '2019-05-08T17:09:28',
    ( '' ),
    ( '' ),
    'SwSTEP 2.0',
    'SolidWorks 2018',
    '' );
FILE_SCHEMA (( 'AUTOMOTIVE_DESIGN' ));
ENDSEC;

DATA;
#1 = CYLINDRICAL_SURFACE ( 'NONE', #47, 3.100000000000000089 ) ;
#2 = CIRCLE ( 'NONE', #49, 4.250000000000001776 ) ;
#3 = AXIS2_PLACEMENT_3D ( 'NONE', #292, #308, #282 ) ;
#4 = CARTESIAN_POINT ( 'NONE',  ( 1.469576158976823553E-16, 8.750000000000000000, 1.199999999999999956 ) ) ;
#5 = DIRECTION ( 'NONE',  ( -0.0000000000000000000, -1.000000000000000000, -0.0000000000000000000 ) ) ;
#6 = CYLINDRICAL_SURFACE ( 'NONE', #70, 4.250000000000000888 ) ;
#7 = FACE_OUTER_BOUND ( 'NONE', #109, .T. ) ;
#8 = AXIS2_PLACEMENT_3D ( 'NONE', #117, #200, #253 ) ;
#9 = CIRCLE ( 'NONE', #53, 3.099999999999999645 ) ;
#10 = ORIENTED_EDGE ( 'NONE', *, *, #187, .F. ) ;
#11 =( GEOMETRIC_REPRESENTATION_CONTEXT ( 3 ) GLOBAL_UNCERTAINTY_ASSIGNED_CONTEXT ( ( #363 ) ) GLOBAL_UNIT_ASSIGNED_CONTEXT ( ( #50, #162, #83 ) ) REPRESENTATION_CONTEXT ( 'NONE', 'WORKASPACE' ) );
#12 = VECTOR ( 'NONE', #326, 1000.000000000000000 ) ;
#13 = CIRCLE ( 'NONE', #44, 1.199999999999999956 ) ;
#14 = ADVANCED_FACE ( 'NONE', ( #15, #296 ), #342, .F. ) ;
#15 = FACE_OUTER_BOUND ( 'NONE', #288, .T. ) ;
#16 = CARTESIAN_POINT ( 'NONE',  ( 0.0000000000000000000, 7.699999999999998401, 0.0000000000000000000 ) ) ;
#17 = ORIENTED_EDGE ( 'NONE', *, *, #64, .F. ) ;
#18 = DIRECTION ( 'NONE',  ( 0.0000000000000000000, 0.0000000000000000000, -1.000000000000000000 ) ) ;
#19 = LINE ( 'NONE', #330, #78 ) ;
#20 = AXIS2_PLACEMENT_3D ( 'NONE', #118, #38, #136 ) ;
#21 = AXIS2_PLACEMENT_3D ( 'NONE', #31, #104, #147 ) ;
#22 = VECTOR ( 'NONE', #85, 1000.000000000000000 ) ;
#23 = ORIENTED_EDGE ( 'NONE', *, *, #114, .F. ) ;
#24 = FACE_BOUND ( 'NONE', #169, .T. ) ;
#25 = DIRECTION ( 'NONE',  ( 0.0000000000000000000, 0.0000000000000000000, -1.000000000000000000 ) ) ;
#26 = LINE ( 'NONE', #27, #12 ) ;
#27 = CARTESIAN_POINT ( 'NONE',  ( 0.0000000000000000000, -8.750000000000000000, -1.199999999999998845 ) ) ;
#28 = CIRCLE ( 'NONE', #241, 3.099999999999999645 ) ;
#29 = EDGE_LOOP ( 'NONE', ( #225, #126 ) ) ;
#30 = DIRECTION ( 'NONE',  ( -0.0000000000000000000, -1.000000000000000000, -0.0000000000000000000 ) ) ;
#31 = CARTESIAN_POINT ( 'NONE',  ( -3.100000000000000089, -7.700000000000000178, 0.0000000000000000000 ) ) ;
#32 = CARTESIAN_POINT ( 'NONE',  ( 0.0000000000000000000, -8.750000000000000000, 0.0000000000000000000 ) ) ;
#33 = DIRECTION ( 'NONE',  ( 0.0000000000000000000, 0.0000000000000000000, -1.000000000000000000 ) ) ;
#34 = AXIS2_PLACEMENT_3D ( 'NONE', #310, #372, #150 ) ;
#35 = LINE ( 'NONE', #281, #22 ) ;
#36 = DIRECTION ( 'NONE',  ( 0.0000000000000000000, 0.0000000000000000000, -1.000000000000000000 ) ) ;
#37 = VECTOR ( 'NONE', #315, 1000.000000000000000 ) ;
#38 = DIRECTION ( 'NONE',  ( -0.0000000000000000000, -1.000000000000000000, -0.0000000000000000000 ) ) ;
#39 = VECTOR ( 'NONE', #110, 1000.000000000000000 ) ;
#40 = PRODUCT ( 'Pot de transfert', 'Pot de transfert', '', ( #163 ) ) ;
#41 = AXIS2_PLACEMENT_3D ( 'NONE', #371, #108, #297 ) ;
#42 = DIRECTION ( 'NONE',  ( -0.0000000000000000000, -1.000000000000000000, -0.0000000000000000000 ) ) ;
#43 = UNCERTAINTY_MEASURE_WITH_UNIT (LENGTH_MEASURE( 1.000000000000000082E-05 ), #335, 'distance_accuracy_value', 'NONE');
#44 = AXIS2_PLACEMENT_3D ( 'NONE', #149, #341, #181 ) ;
#45 = CYLINDRICAL_SURFACE ( 'NONE', #216, 4.250000000000000888 ) ;
#46 = ADVANCED_FACE ( 'NONE', ( #305 ), #307, .F. ) ;
#47 = AXIS2_PLACEMENT_3D ( 'NONE', #343, #5, #66 ) ;
#48 = CARTESIAN_POINT ( 'NONE',  ( 0.0000000000000000000, -8.750000000000000000, 0.0000000000000000000 ) ) ;
#49 = AXIS2_PLACEMENT_3D ( 'NONE', #16, #130, #131 ) ;
#50 =( LENGTH_UNIT ( ) NAMED_UNIT ( * ) SI_UNIT ( .MILLI., .METRE. ) );
#51 = DIRECTION ( 'NONE',  ( 0.0000000000000000000, -1.000000000000000000, -0.0000000000000000000 ) ) ;
#52 = FACE_OUTER_BOUND ( 'NONE', #204, .T. ) ;
#53 = AXIS2_PLACEMENT_3D ( 'NONE', #82, #302, #102 ) ;
#54 = CARTESIAN_POINT ( 'NONE',  ( 5.204748896376251685E-16, -8.750000000000000000, 4.250000000000000888 ) ) ;
#55 = AXIS2_PLACEMENT_3D ( 'NONE', #329, #361, #304 ) ;
#56 = DIRECTION ( 'NONE',  ( 0.0000000000000000000, 0.0000000000000000000, -1.000000000000000000 ) ) ;
#57 = CARTESIAN_POINT ( 'NONE',  ( 3.796405077356794425E-16, -8.750000000000000000, 3.099999999999999645 ) ) ;
#58 = CYLINDRICAL_SURFACE ( 'NONE', #196, 3.099999999999999645 ) ;
#59 = CARTESIAN_POINT ( 'NONE',  ( 0.0000000000000000000, 7.699999999999998401, -4.250000000000001776 ) ) ;
#60 = MANIFOLD_SOLID_BREP ( 'Révolution1', #360 ) ;
#61 = MECHANICAL_DESIGN_GEOMETRIC_PRESENTATION_REPRESENTATION (  '', ( #209 ), #287 ) ;
#62 = VERTEX_POINT ( 'NONE', #268 ) ;
#63 = FACE_BOUND ( 'NONE', #142, .T. ) ;
#64 = EDGE_CURVE ( 'NONE', #242, #211, #295, .T. ) ;
#65 = DIRECTION ( 'NONE',  ( -0.0000000000000000000, -1.000000000000000000, -0.0000000000000000000 ) ) ;
#66 = DIRECTION ( 'NONE',  ( 0.0000000000000000000, 0.0000000000000000000, -1.000000000000000000 ) ) ;
#67 = PRODUCT_DEFINITION_FORMATION_WITH_SPECIFIED_SOURCE ( 'ANY', '', #40, .NOT_KNOWN. ) ;
#68 = CIRCLE ( 'NONE', #90, 1.199999999999999956 ) ;
#69 = CARTESIAN_POINT ( 'NONE',  ( 1.469576158976822567E-16, -8.750000000000000000, 1.199999999999998845 ) ) ;
#70 = AXIS2_PLACEMENT_3D ( 'NONE', #32, #42, #339 ) ;
#71 = LINE ( 'NONE', #54, #37 ) ;
#72 = DIRECTION ( 'NONE',  ( 0.0000000000000000000, 0.0000000000000000000, -1.000000000000000000 ) ) ;
#73 = ORIENTED_EDGE ( 'NONE', *, *, #165, .T. ) ;
#74 = DIRECTION ( 'NONE',  ( 0.0000000000000000000, 0.0000000000000000000, -1.000000000000000000 ) ) ;
#75 = EDGE_LOOP ( 'NONE', ( #243, #289 ) ) ;
#76 = PRESENTATION_LAYER_ASSIGNMENT (  '', '', ( #359 ) ) ;
#77 = AXIS2_PLACEMENT_3D ( 'NONE', #252, #222, #33 ) ;
#78 = VECTOR ( 'NONE', #235, 1000.000000000000000 ) ;
#79 = ADVANCED_FACE ( 'NONE', ( #154 ), #318, .T. ) ;
#80 = CYLINDRICAL_SURFACE ( 'NONE', #3, 3.100000000000000089 ) ;
#81 = AXIS2_PLACEMENT_3D ( 'NONE', #48, #30, #262 ) ;
#82 = CARTESIAN_POINT ( 'NONE',  ( 0.0000000000000000000, -8.750000000000000000, 0.0000000000000000000 ) ) ;
#83 =( NAMED_UNIT ( * ) SI_UNIT ( $, .STERADIAN. ) SOLID_ANGLE_UNIT ( ) );
#84 = FACE_OUTER_BOUND ( 'NONE', #249, .T. ) ;
#85 = DIRECTION ( 'NONE',  ( -0.0000000000000000000, -1.000000000000000000, -0.0000000000000000000 ) ) ;
#86 = CIRCLE ( 'NONE', #148, 3.100000000000000089 ) ;
#87 = FACE_OUTER_BOUND ( 'NONE', #369, .T. ) ;
#88 = PRODUCT_RELATED_PRODUCT_CATEGORY ( 'part', '', ( #40 ) ) ;
#89 = CARTESIAN_POINT ( 'NONE',  ( 0.0000000000000000000, 8.750000000000000000, 0.0000000000000000000 ) ) ;
#90 = AXIS2_PLACEMENT_3D ( 'NONE', #89, #133, #264 ) ;
#91 = CYLINDRICAL_SURFACE ( 'NONE', #81, 1.199999999999998845 ) ;
#92 = DIRECTION ( 'NONE',  ( 0.0000000000000000000, 0.0000000000000000000, -1.000000000000000000 ) ) ;
#93 = FILL_AREA_STYLE_COLOUR ( '', #239 ) ;
#94 = CARTESIAN_POINT ( 'NONE',  ( 1.469576158976821827E-16, -8.750000000000000000, 1.199999999999997735 ) ) ;
#95 = EDGE_CURVE ( 'NONE', #273, #62, #317, .T. ) ;
#96 = APPLICATION_CONTEXT ( 'automotive_design' ) ;
#97 = ORIENTED_EDGE ( 'NONE', *, *, #314, .F. ) ;
#98 = DIRECTION ( 'NONE',  ( 0.0000000000000000000, 1.000000000000000000, 0.0000000000000000000 ) ) ;
#99 =( LENGTH_UNIT ( ) NAMED_UNIT ( * ) SI_UNIT ( .MILLI., .METRE. ) );
#100 = SHAPE_DEFINITION_REPRESENTATION ( #332, #192 ) ;
#101 =( NAMED_UNIT ( * ) PLANE_ANGLE_UNIT ( ) SI_UNIT ( $, .RADIAN. ) );
#102 = DIRECTION ( 'NONE',  ( 0.0000000000000000000, 0.0000000000000000000, -1.000000000000000000 ) ) ;
#103 = ADVANCED_FACE ( 'NONE', ( #322 ), #6, .T. ) ;
#104 = DIRECTION ( 'NONE',  ( 0.0000000000000000000, 1.000000000000000000, 0.0000000000000000000 ) ) ;
#105 = ORIENTED_EDGE ( 'NONE', *, *, #357, .F. ) ;
#106 = ORIENTED_EDGE ( 'NONE', *, *, #333, .F. ) ;
#107 = CARTESIAN_POINT ( 'NONE',  ( 0.0000000000000000000, -8.750000000000000000, -3.100000000000000089 ) ) ;
#108 = DIRECTION ( 'NONE',  ( -0.0000000000000000000, -1.000000000000000000, -0.0000000000000000000 ) ) ;
#109 = EDGE_LOOP ( 'NONE', ( #265, #158, #224, #10 ) ) ;
#110 = DIRECTION ( 'NONE',  ( -0.0000000000000000000, -1.000000000000000000, -0.0000000000000000000 ) ) ;
#111 = CARTESIAN_POINT ( 'NONE',  ( 0.0000000000000000000, -8.750000000000000000, 0.0000000000000000000 ) ) ;
#112 = APPLICATION_CONTEXT ( 'automotive_design' ) ;
#113 =( NAMED_UNIT ( * ) PLANE_ANGLE_UNIT ( ) SI_UNIT ( $, .RADIAN. ) );
#114 = EDGE_CURVE ( 'NONE', #152, #255, #226, .T. ) ;
#115 = CARTESIAN_POINT ( 'NONE',  ( -1.199999999999997735, -8.750000000000000000, 0.0000000000000000000 ) ) ;
#116 = FILL_AREA_STYLE ('',( #188 ) ) ;
#117 = CARTESIAN_POINT ( 'NONE',  ( 0.0000000000000000000, -7.700000000000001066, 0.0000000000000000000 ) ) ;
#118 = CARTESIAN_POINT ( 'NONE',  ( 0.0000000000000000000, 7.699999999999998401, 0.0000000000000000000 ) ) ;
#119 = CARTESIAN_POINT ( 'NONE',  ( 0.0000000000000000000, -8.750000000000000000, 0.0000000000000000000 ) ) ;
#120 = DIRECTION ( 'NONE',  ( 0.0000000000000000000, 0.0000000000000000000, -1.000000000000000000 ) ) ;
#121 = ORIENTED_EDGE ( 'NONE', *, *, #298, .F. ) ;
#122 = CARTESIAN_POINT ( 'NONE',  ( 5.204748896376251685E-16, -7.700000000000000178, 4.250000000000000000 ) ) ;
#123 = EDGE_CURVE ( 'NONE', #259, #255, #320, .T. ) ;
#124 = ADVANCED_FACE ( 'NONE', ( #198 ), #91, .F. ) ;
#125 = AXIS2_PLACEMENT_3D ( 'NONE', #111, #65, #232 ) ;
#126 = ORIENTED_EDGE ( 'NONE', *, *, #161, .T. ) ;
#127 = CIRCLE ( 'NONE', #77, 4.250000000000000000 ) ;
#128 = CIRCLE ( 'NONE', #8, 3.100000000000000089 ) ;
#129 = ORIENTED_EDGE ( 'NONE', *, *, #373, .T. ) ;
#130 = DIRECTION ( 'NONE',  ( -0.0000000000000000000, -1.000000000000000000, -0.0000000000000000000 ) ) ;
#131 = DIRECTION ( 'NONE',  ( 0.0000000000000000000, 0.0000000000000000000, -1.000000000000000000 ) ) ;
#132 = EDGE_CURVE ( 'NONE', #134, #218, #127, .T. ) ;
#133 = DIRECTION ( 'NONE',  ( -0.0000000000000000000, -1.000000000000000000, -0.0000000000000000000 ) ) ;
#134 = VERTEX_POINT ( 'NONE', #350 ) ;
#135 = APPLICATION_PROTOCOL_DEFINITION ( 'draft international standard', 'automotive_design', 1998, #112 ) ;
#136 = DIRECTION ( 'NONE',  ( 0.0000000000000000000, 0.0000000000000000000, -1.000000000000000000 ) ) ;
#137 = CARTESIAN_POINT ( 'NONE',  ( -3.100000000000000089, 8.750000000000000000, 0.0000000000000000000 ) ) ;
#138 = CARTESIAN_POINT ( 'NONE',  ( 3.796405077356794918E-16, 8.750000000000000000, 3.100000000000000089 ) ) ;
#139 = ORIENTED_EDGE ( 'NONE', *, *, #123, .T. ) ;
#140 = EDGE_LOOP ( 'NONE', ( #179, #274 ) ) ;
#141 = CIRCLE ( 'NONE', #20, 4.250000000000001776 ) ;
#142 = EDGE_LOOP ( 'NONE', ( #257, #203 ) ) ;
#143 = CARTESIAN_POINT ( 'NONE',  ( 0.0000000000000000000, 7.699999999999998401, -3.100000000000000089 ) ) ;
#144 = EDGE_CURVE ( 'NONE', #206, #62, #182, .T. ) ;
#145 = AXIS2_PLACEMENT_3D ( 'NONE', #354, #180, #306 ) ;
#146 = SURFACE_STYLE_USAGE ( .BOTH. , #309 ) ;
#147 = DIRECTION ( 'NONE',  ( 0.0000000000000000000, -0.0000000000000000000, 1.000000000000000000 ) ) ;
#148 = AXIS2_PLACEMENT_3D ( 'NONE', #316, #210, #92 ) ;
#149 = CARTESIAN_POINT ( 'NONE',  ( 0.0000000000000000000, 8.750000000000000000, 0.0000000000000000000 ) ) ;
#150 = DIRECTION ( 'NONE',  ( 0.0000000000000000000, 0.0000000000000000000, -1.000000000000000000 ) ) ;
#151 = UNCERTAINTY_MEASURE_WITH_UNIT (LENGTH_MEASURE( 1.000000000000000082E-05 ), #99, 'distance_accuracy_value', 'NONE');
#152 = VERTEX_POINT ( 'NONE', #4 ) ;
#153 = SURFACE_STYLE_FILL_AREA ( #116 ) ;
#154 = FACE_OUTER_BOUND ( 'NONE', #194, .T. ) ;
#155 = SURFACE_STYLE_USAGE ( .BOTH. , #219 ) ;
#156 = VECTOR ( 'NONE', #280, 1000.000000000000000 ) ;
#157 = ORIENTED_EDGE ( 'NONE', *, *, #215, .F. ) ;
#158 = ORIENTED_EDGE ( 'NONE', *, *, #95, .T. ) ;
#159 = DIRECTION ( 'NONE',  ( 0.0000000000000000000, -1.000000000000000000, -0.0000000000000000000 ) ) ;
#160 = AXIS2_PLACEMENT_3D ( 'NONE', #366, #191, #25 ) ;
#161 = EDGE_CURVE ( 'NONE', #152, #220, #68, .T. ) ;
#162 =( NAMED_UNIT ( * ) PLANE_ANGLE_UNIT ( ) SI_UNIT ( $, .RADIAN. ) );
#163 = PRODUCT_CONTEXT ( 'NONE', #96, 'mechanical' ) ;
#164 = VERTEX_POINT ( 'NONE', #59 ) ;
#165 = EDGE_CURVE ( 'NONE', #273, #278, #230, .T. ) ;
#166 = DIRECTION ( 'NONE',  ( -0.0000000000000000000, -1.000000000000000000, -0.0000000000000000000 ) ) ;
#167 = EDGE_LOOP ( 'NONE', ( #23, #248, #185, #139 ) ) ;
#168 = ORIENTED_EDGE ( 'NONE', *, *, #314, .T. ) ;
#169 = EDGE_LOOP ( 'NONE', ( #17, #358 ) ) ;
#170 = EDGE_LOOP ( 'NONE', ( #294, #238, #283, #323 ) ) ;
#171 = EDGE_CURVE ( 'NONE', #62, #206, #86, .T. ) ;
#172 = PRODUCT_DEFINITION_CONTEXT ( 'detailed design', #112, 'design' ) ;
#173 = DIRECTION ( 'NONE',  ( -0.0000000000000000000, -1.000000000000000000, -0.0000000000000000000 ) ) ;
#174 = ORIENTED_EDGE ( 'NONE', *, *, #114, .T. ) ;
#175 = EDGE_LOOP ( 'NONE', ( #197, #174, #261, #221 ) ) ;
#176 = ORIENTED_EDGE ( 'NONE', *, *, #345, .F. ) ;
#177 = CIRCLE ( 'NONE', #34, 1.199999999999997735 ) ;
#178 = CARTESIAN_POINT ( 'NONE',  ( 0.0000000000000000000, -8.750000000000000000, 0.0000000000000000000 ) ) ;
#179 = ORIENTED_EDGE ( 'NONE', *, *, #144, .T. ) ;
#180 = DIRECTION ( 'NONE',  ( -0.0000000000000000000, -1.000000000000000000, -0.0000000000000000000 ) ) ;
#181 = DIRECTION ( 'NONE',  ( 0.0000000000000000000, 0.0000000000000000000, -1.000000000000000000 ) ) ;
#182 = CIRCLE ( 'NONE', #55, 3.100000000000000089 ) ;
#183 = ORIENTED_EDGE ( 'NONE', *, *, #186, .T. ) ;
#184 = SURFACE_STYLE_FILL_AREA ( #344 ) ;
#185 = ORIENTED_EDGE ( 'NONE', *, *, #324, .T. ) ;
#186 = EDGE_CURVE ( 'NONE', #211, #267, #19, .T. ) ;
#187 = EDGE_CURVE ( 'NONE', #278, #206, #328, .T. ) ;
#188 = FILL_AREA_STYLE_COLOUR ( '', #301 ) ;
#189 = ADVANCED_FACE ( 'NONE', ( #63, #84 ), #202, .F. ) ;
#190 = PLANE ( 'NONE',  #199 ) ;
#191 = DIRECTION ( 'NONE',  ( -0.0000000000000000000, -1.000000000000000000, -0.0000000000000000000 ) ) ;
#192 = ADVANCED_BREP_SHAPE_REPRESENTATION ( 'Pot de transfert', ( #60, #303 ), #11 ) ;
#193 = ORIENTED_EDGE ( 'NONE', *, *, #321, .T. ) ;
#194 = EDGE_LOOP ( 'NONE', ( #250, #183, #97, #258 ) ) ;
#195 = CARTESIAN_POINT ( 'NONE',  ( 5.204748896376252671E-16, 7.699999999999998401, 4.250000000000001776 ) ) ;
#196 = AXIS2_PLACEMENT_3D ( 'NONE', #319, #213, #18 ) ;
#197 = ORIENTED_EDGE ( 'NONE', *, *, #161, .F. ) ;
#198 = FACE_OUTER_BOUND ( 'NONE', #175, .T. ) ;
#199 = AXIS2_PLACEMENT_3D ( 'NONE', #348, #51, #120 ) ;
#200 = DIRECTION ( 'NONE',  ( -0.0000000000000000000, -1.000000000000000000, -0.0000000000000000000 ) ) ;
#201 = FACE_OUTER_BOUND ( 'NONE', #170, .T. ) ;
#202 = PLANE ( 'NONE',  #246 ) ;
#203 = ORIENTED_EDGE ( 'NONE', *, *, #351, .F. ) ;
#204 = EDGE_LOOP ( 'NONE', ( #105, #217 ) ) ;
#205 = CIRCLE ( 'NONE', #41, 3.100000000000000089 ) ;
#206 = VERTEX_POINT ( 'NONE', #143 ) ;
#207 = PRESENTATION_LAYER_ASSIGNMENT (  '', '', ( #209 ) ) ;
#208 =( NAMED_UNIT ( * ) SI_UNIT ( $, .STERADIAN. ) SOLID_ANGLE_UNIT ( ) );
#209 = STYLED_ITEM ( 'NONE', ( #312 ), #60 ) ;
#210 = DIRECTION ( 'NONE',  ( -0.0000000000000000000, -1.000000000000000000, -0.0000000000000000000 ) ) ;
#211 = VERTEX_POINT ( 'NONE', #334 ) ;
#212 = ORIENTED_EDGE ( 'NONE', *, *, #186, .F. ) ;
#213 = DIRECTION ( 'NONE',  ( -0.0000000000000000000, -1.000000000000000000, -0.0000000000000000000 ) ) ;
#214 = MECHANICAL_DESIGN_GEOMETRIC_PRESENTATION_REPRESENTATION (  '', ( #359 ), #279 ) ;
#215 = EDGE_CURVE ( 'NONE', #218, #134, #240, .T. ) ;
#216 = AXIS2_PLACEMENT_3D ( 'NONE', #178, #266, #74 ) ;
#217 = ORIENTED_EDGE ( 'NONE', *, *, #331, .F. ) ;
#218 = VERTEX_POINT ( 'NONE', #122 ) ;
#219 = SURFACE_SIDE_STYLE ('',( #184 ) ) ;
#220 = VERTEX_POINT ( 'NONE', #368 ) ;
#221 = ORIENTED_EDGE ( 'NONE', *, *, #324, .F. ) ;
#222 = DIRECTION ( 'NONE',  ( -0.0000000000000000000, -1.000000000000000000, -0.0000000000000000000 ) ) ;
#223 = ADVANCED_FACE ( 'NONE', ( #87 ), #58, .T. ) ;
#224 = ORIENTED_EDGE ( 'NONE', *, *, #144, .F. ) ;
#225 = ORIENTED_EDGE ( 'NONE', *, *, #338, .T. ) ;
#226 = LINE ( 'NONE', #69, #156 ) ;
#227 = CARTESIAN_POINT ( 'NONE',  ( 0.0000000000000000000, -7.700000000000000178, 0.0000000000000000000 ) ) ;
#228 = ORIENTED_EDGE ( 'NONE', *, *, #171, .F. ) ;
#229 = VECTOR ( 'NONE', #299, 1000.000000000000000 ) ;
#230 = CIRCLE ( 'NONE', #145, 3.100000000000000089 ) ;
#231 = PLANE ( 'NONE',  #21 ) ;
#232 = DIRECTION ( 'NONE',  ( 0.0000000000000000000, 0.0000000000000000000, -1.000000000000000000 ) ) ;
#233 = APPLICATION_PROTOCOL_DEFINITION ( 'draft international standard', 'automotive_design', 1998, #96 ) ;
#234 = DIRECTION ( 'NONE',  ( 0.0000000000000000000, 0.0000000000000000000, -1.000000000000000000 ) ) ;
#235 = DIRECTION ( 'NONE',  ( -0.0000000000000000000, -1.000000000000000000, -0.0000000000000000000 ) ) ;
#236 = LINE ( 'NONE', #374, #39 ) ;
#237 = EDGE_LOOP ( 'NONE', ( #293, #73, #353, #228 ) ) ;
#238 = ORIENTED_EDGE ( 'NONE', *, *, #298, .T. ) ;
#239 = COLOUR_RGB ( '',0.6470588235294117974, 0.5176470588235293491, 0.0000000000000000000 ) ;
#240 = CIRCLE ( 'NONE', #346, 4.250000000000000000 ) ;
#241 = AXIS2_PLACEMENT_3D ( 'NONE', #272, #173, #234 ) ;
#242 = VERTEX_POINT ( 'NONE', #352 ) ;
#243 = ORIENTED_EDGE ( 'NONE', *, *, #132, .T. ) ;
#244 = FACE_OUTER_BOUND ( 'NONE', #237, .T. ) ;
#245 = DIRECTION ( 'NONE',  ( 0.0000000000000000000, 0.0000000000000000000, -1.000000000000000000 ) ) ;
#246 = AXIS2_PLACEMENT_3D ( 'NONE', #115, #98, #269 ) ;
#247 = DIRECTION ( 'NONE',  ( -0.0000000000000000000, -1.000000000000000000, -0.0000000000000000000 ) ) ;
#248 = ORIENTED_EDGE ( 'NONE', *, *, #338, .F. ) ;
#249 = EDGE_LOOP ( 'NONE', ( #168, #263 ) ) ;
#250 = ORIENTED_EDGE ( 'NONE', *, *, #64, .T. ) ;
#251 = PRESENTATION_STYLE_ASSIGNMENT (( #155 ) ) ;
#252 = CARTESIAN_POINT ( 'NONE',  ( 0.0000000000000000000, -7.700000000000000178, 0.0000000000000000000 ) ) ;
#253 = DIRECTION ( 'NONE',  ( 0.0000000000000000000, 0.0000000000000000000, -1.000000000000000000 ) ) ;
#254 = ORIENTED_EDGE ( 'NONE', *, *, #331, .T. ) ;
#255 = VERTEX_POINT ( 'NONE', #94 ) ;
#256 = DIRECTION ( 'NONE',  ( -0.0000000000000000000, -1.000000000000000000, -0.0000000000000000000 ) ) ;
#257 = ORIENTED_EDGE ( 'NONE', *, *, #123, .F. ) ;
#258 = ORIENTED_EDGE ( 'NONE', *, *, #290, .F. ) ;
#259 = VERTEX_POINT ( 'NONE', #286 ) ;
#260 = ADVANCED_FACE ( 'NONE', ( #201 ), #45, .T. ) ;
#261 = ORIENTED_EDGE ( 'NONE', *, *, #351, .T. ) ;
#262 = DIRECTION ( 'NONE',  ( 0.0000000000000000000, 0.0000000000000000000, -1.000000000000000000 ) ) ;
#263 = ORIENTED_EDGE ( 'NONE', *, *, #333, .T. ) ;
#264 = DIRECTION ( 'NONE',  ( 0.0000000000000000000, 0.0000000000000000000, -1.000000000000000000 ) ) ;
#265 = ORIENTED_EDGE ( 'NONE', *, *, #345, .T. ) ;
#266 = DIRECTION ( 'NONE',  ( -0.0000000000000000000, -1.000000000000000000, -0.0000000000000000000 ) ) ;
#267 = VERTEX_POINT ( 'NONE', #57 ) ;
#268 = CARTESIAN_POINT ( 'NONE',  ( 3.796405077356794918E-16, 7.699999999999998401, 3.100000000000000089 ) ) ;
#269 = DIRECTION ( 'NONE',  ( 0.0000000000000000000, -0.0000000000000000000, 1.000000000000000000 ) ) ;
#270 = VERTEX_POINT ( 'NONE', #370 ) ;
#271 = EDGE_LOOP ( 'NONE', ( #121, #254, #193, #157 ) ) ;
#272 = CARTESIAN_POINT ( 'NONE',  ( 0.0000000000000000000, -8.750000000000000000, 0.0000000000000000000 ) ) ;
#273 = VERTEX_POINT ( 'NONE', #138 ) ;
#274 = ORIENTED_EDGE ( 'NONE', *, *, #171, .T. ) ;
#275 = ORIENTED_EDGE ( 'NONE', *, *, #290, .T. ) ;
#276 =( NAMED_UNIT ( * ) SI_UNIT ( $, .STERADIAN. ) SOLID_ANGLE_UNIT ( ) );
#277 = ORIENTED_EDGE ( 'NONE', *, *, #165, .F. ) ;
#278 = VERTEX_POINT ( 'NONE', #336 ) ;
#279 =( GEOMETRIC_REPRESENTATION_CONTEXT ( 3 ) GLOBAL_UNCERTAINTY_ASSIGNED_CONTEXT ( ( #151 ) ) GLOBAL_UNIT_ASSIGNED_CONTEXT ( ( #99, #101, #276 ) ) REPRESENTATION_CONTEXT ( 'NONE', 'WORKASPACE' ) );
#280 = DIRECTION ( 'NONE',  ( -0.0000000000000000000, -1.000000000000000000, -0.0000000000000000000 ) ) ;
#281 = CARTESIAN_POINT ( 'NONE',  ( 0.0000000000000000000, -8.750000000000000000, -4.250000000000000888 ) ) ;
#282 = DIRECTION ( 'NONE',  ( 0.0000000000000000000, 0.0000000000000000000, -1.000000000000000000 ) ) ;
#283 = ORIENTED_EDGE ( 'NONE', *, *, #132, .F. ) ;
#284 = VERTEX_POINT ( 'NONE', #195 ) ;
#285 = AXIS2_PLACEMENT_3D ( 'NONE', #119, #247, #36 ) ;
#286 = CARTESIAN_POINT ( 'NONE',  ( 0.0000000000000000000, -8.750000000000000000, -1.199999999999997735 ) ) ;
#287 =( GEOMETRIC_REPRESENTATION_CONTEXT ( 3 ) GLOBAL_UNCERTAINTY_ASSIGNED_CONTEXT ( ( #43 ) ) GLOBAL_UNIT_ASSIGNED_CONTEXT ( ( #335, #113, #208 ) ) REPRESENTATION_CONTEXT ( 'NONE', 'WORKASPACE' ) );
#288 = EDGE_LOOP ( 'NONE', ( #176, #277 ) ) ;
#289 = ORIENTED_EDGE ( 'NONE', *, *, #215, .T. ) ;
#290 = EDGE_CURVE ( 'NONE', #242, #270, #236, .T. ) ;
#291 = ADVANCED_FACE ( 'NONE', ( #52, #362 ), #190, .F. ) ;
#292 = CARTESIAN_POINT ( 'NONE',  ( 0.0000000000000000000, -8.750000000000000000, 0.0000000000000000000 ) ) ;
#293 = ORIENTED_EDGE ( 'NONE', *, *, #95, .F. ) ;
#294 = ORIENTED_EDGE ( 'NONE', *, *, #357, .T. ) ;
#295 = CIRCLE ( 'NONE', #160, 3.100000000000000089 ) ;
#296 = FACE_BOUND ( 'NONE', #29, .T. ) ;
#297 = DIRECTION ( 'NONE',  ( 0.0000000000000000000, 0.0000000000000000000, -1.000000000000000000 ) ) ;
#298 = EDGE_CURVE ( 'NONE', #284, #218, #71, .T. ) ;
#299 = DIRECTION ( 'NONE',  ( -0.0000000000000000000, -1.000000000000000000, -0.0000000000000000000 ) ) ;
#300 = CARTESIAN_POINT ( 'NONE',  ( 0.0000000000000000000, 0.0000000000000000000, 0.0000000000000000000 ) ) ;
#301 = COLOUR_RGB ( '',0.6470588235294117974, 0.5176470588235293491, 0.0000000000000000000 ) ;
#302 = DIRECTION ( 'NONE',  ( -0.0000000000000000000, -1.000000000000000000, -0.0000000000000000000 ) ) ;
#303 = AXIS2_PLACEMENT_3D ( 'NONE', #300, #349, #337 ) ;
#304 = DIRECTION ( 'NONE',  ( 0.0000000000000000000, 0.0000000000000000000, -1.000000000000000000 ) ) ;
#305 = FACE_OUTER_BOUND ( 'NONE', #167, .T. ) ;
#306 = DIRECTION ( 'NONE',  ( 0.0000000000000000000, 0.0000000000000000000, -1.000000000000000000 ) ) ;
#307 = CYLINDRICAL_SURFACE ( 'NONE', #125, 1.199999999999998845 ) ;
#308 = DIRECTION ( 'NONE',  ( -0.0000000000000000000, -1.000000000000000000, -0.0000000000000000000 ) ) ;
#309 = SURFACE_SIDE_STYLE ('',( #153 ) ) ;
#310 = CARTESIAN_POINT ( 'NONE',  ( 0.0000000000000000000, -8.750000000000000000, 0.0000000000000000000 ) ) ;
#311 = AXIS2_PLACEMENT_3D ( 'NONE', #364, #256, #72 ) ;
#312 = PRESENTATION_STYLE_ASSIGNMENT (( #146 ) ) ;
#313 = VECTOR ( 'NONE', #166, 1000.000000000000000 ) ;
#314 = EDGE_CURVE ( 'NONE', #270, #267, #28, .T. ) ;
#315 = DIRECTION ( 'NONE',  ( -0.0000000000000000000, -1.000000000000000000, -0.0000000000000000000 ) ) ;
#316 = CARTESIAN_POINT ( 'NONE',  ( 0.0000000000000000000, 7.699999999999998401, 0.0000000000000000000 ) ) ;
#317 = LINE ( 'NONE', #340, #229 ) ;
#318 = CYLINDRICAL_SURFACE ( 'NONE', #311, 3.099999999999999645 ) ;
#319 = CARTESIAN_POINT ( 'NONE',  ( 0.0000000000000000000, -8.750000000000000000, 0.0000000000000000000 ) ) ;
#320 = CIRCLE ( 'NONE', #285, 1.199999999999997735 ) ;
#321 = EDGE_CURVE ( 'NONE', #164, #134, #35, .T. ) ;
#322 = FACE_OUTER_BOUND ( 'NONE', #271, .T. ) ;
#323 = ORIENTED_EDGE ( 'NONE', *, *, #321, .F. ) ;
#324 = EDGE_CURVE ( 'NONE', #220, #259, #26, .T. ) ;
#325 = FACE_OUTER_BOUND ( 'NONE', #75, .T. ) ;
#326 = DIRECTION ( 'NONE',  ( -0.0000000000000000000, -1.000000000000000000, -0.0000000000000000000 ) ) ;
#327 = ADVANCED_FACE ( 'NONE', ( #7 ), #1, .T. ) ;
#328 = LINE ( 'NONE', #107, #313 ) ;
#329 = CARTESIAN_POINT ( 'NONE',  ( 0.0000000000000000000, 7.699999999999998401, 0.0000000000000000000 ) ) ;
#330 = CARTESIAN_POINT ( 'NONE',  ( 3.796405077356794425E-16, -8.750000000000000000, 3.099999999999999645 ) ) ;
#331 = EDGE_CURVE ( 'NONE', #284, #164, #2, .T. ) ;
#332 = PRODUCT_DEFINITION_SHAPE ( 'NONE', 'NONE',  #355 ) ;
#333 = EDGE_CURVE ( 'NONE', #267, #270, #9, .T. ) ;
#334 = CARTESIAN_POINT ( 'NONE',  ( 3.796405077356795411E-16, -7.700000000000001066, 3.100000000000000533 ) ) ;
#335 =( LENGTH_UNIT ( ) NAMED_UNIT ( * ) SI_UNIT ( .MILLI., .METRE. ) );
#336 = CARTESIAN_POINT ( 'NONE',  ( 0.0000000000000000000, 8.750000000000000000, -3.100000000000000089 ) ) ;
#337 = DIRECTION ( 'NONE',  ( 1.000000000000000000, 0.0000000000000000000, 0.0000000000000000000 ) ) ;
#338 = EDGE_CURVE ( 'NONE', #220, #152, #13, .T. ) ;
#339 = DIRECTION ( 'NONE',  ( 0.0000000000000000000, 0.0000000000000000000, -1.000000000000000000 ) ) ;
#340 = CARTESIAN_POINT ( 'NONE',  ( 3.796405077356794918E-16, -8.750000000000000000, 3.100000000000000089 ) ) ;
#341 = DIRECTION ( 'NONE',  ( -0.0000000000000000000, -1.000000000000000000, -0.0000000000000000000 ) ) ;
#342 = PLANE ( 'NONE',  #367 ) ;
#343 = CARTESIAN_POINT ( 'NONE',  ( 0.0000000000000000000, -8.750000000000000000, 0.0000000000000000000 ) ) ;
#344 = FILL_AREA_STYLE ('',( #93 ) ) ;
#345 = EDGE_CURVE ( 'NONE', #278, #273, #205, .T. ) ;
#346 = AXIS2_PLACEMENT_3D ( 'NONE', #227, #356, #56 ) ;
#347 = ADVANCED_FACE ( 'NONE', ( #24, #325 ), #231, .F. ) ;
#348 = CARTESIAN_POINT ( 'NONE',  ( -4.250000000000001776, 7.700000000000000178, 0.0000000000000000000 ) ) ;
#349 = DIRECTION ( 'NONE',  ( 0.0000000000000000000, 0.0000000000000000000, 1.000000000000000000 ) ) ;
#350 = CARTESIAN_POINT ( 'NONE',  ( 0.0000000000000000000, -7.700000000000000178, -4.250000000000000000 ) ) ;
#351 = EDGE_CURVE ( 'NONE', #255, #259, #177, .T. ) ;
#352 = CARTESIAN_POINT ( 'NONE',  ( 0.0000000000000000000, -7.700000000000001066, -3.100000000000000089 ) ) ;
#353 = ORIENTED_EDGE ( 'NONE', *, *, #187, .T. ) ;
#354 = CARTESIAN_POINT ( 'NONE',  ( 0.0000000000000000000, 8.750000000000000000, 0.0000000000000000000 ) ) ;
#355 = PRODUCT_DEFINITION ( 'UNKNOWN', '', #67, #172 ) ;
#356 = DIRECTION ( 'NONE',  ( -0.0000000000000000000, -1.000000000000000000, -0.0000000000000000000 ) ) ;
#357 = EDGE_CURVE ( 'NONE', #164, #284, #141, .T. ) ;
#358 = ORIENTED_EDGE ( 'NONE', *, *, #373, .F. ) ;
#359 = STYLED_ITEM ( 'NONE', ( #251 ), #192 ) ;
#360 = CLOSED_SHELL ( 'NONE', ( #327, #260, #79, #124, #14, #46, #189, #223, #347, #103, #291, #365 ) ) ;
#361 = DIRECTION ( 'NONE',  ( -0.0000000000000000000, -1.000000000000000000, -0.0000000000000000000 ) ) ;
#362 = FACE_BOUND ( 'NONE', #140, .T. ) ;
#363 = UNCERTAINTY_MEASURE_WITH_UNIT (LENGTH_MEASURE( 1.000000000000000082E-05 ), #50, 'distance_accuracy_value', 'NONE');
#364 = CARTESIAN_POINT ( 'NONE',  ( 0.0000000000000000000, -8.750000000000000000, 0.0000000000000000000 ) ) ;
#365 = ADVANCED_FACE ( 'NONE', ( #244 ), #80, .T. ) ;
#366 = CARTESIAN_POINT ( 'NONE',  ( 0.0000000000000000000, -7.700000000000001066, 0.0000000000000000000 ) ) ;
#367 = AXIS2_PLACEMENT_3D ( 'NONE', #137, #159, #245 ) ;
#368 = CARTESIAN_POINT ( 'NONE',  ( 0.0000000000000000000, 8.750000000000000000, -1.199999999999999956 ) ) ;
#369 = EDGE_LOOP ( 'NONE', ( #212, #129, #275, #106 ) ) ;
#370 = CARTESIAN_POINT ( 'NONE',  ( 0.0000000000000000000, -8.750000000000000000, -3.099999999999999645 ) ) ;
#371 = CARTESIAN_POINT ( 'NONE',  ( 0.0000000000000000000, 8.750000000000000000, 0.0000000000000000000 ) ) ;
#372 = DIRECTION ( 'NONE',  ( -0.0000000000000000000, -1.000000000000000000, -0.0000000000000000000 ) ) ;
#373 = EDGE_CURVE ( 'NONE', #211, #242, #128, .T. ) ;
#374 = CARTESIAN_POINT ( 'NONE',  ( 0.0000000000000000000, -8.750000000000000000, -3.099999999999999645 ) ) ;
ENDSEC;
END-ISO-10303-21;
