ISO-10303-21;
HEADER;
/* Generated by software containing ST-Developer
 * from STEP Tools, Inc. (www.steptools.com) 
 */

FILE_DESCRIPTION(
/* description */ ('ABSORBEUR'),
/* implementation_level */ '2;1');

FILE_NAME(
/* name */ 'C:\\Users\\angue\\Desktop\\10151457-2054.stp',
/* time_stamp */ '2019-04-30T10:14:10+02:00',
/* author */ ('angue'),
/* organization */ (''),
/* preprocessor_version */ 'ST-DEVELOPER v17',
/* originating_system */ 'Autodesk Inventor 2019',
/* authorisation */ '');

FILE_SCHEMA (('AUTOMOTIVE_DESIGN { 1 0 10303 214 3 1 1 }'));
ENDSEC;

DATA;
#10=MECHANICAL_DESIGN_GEOMETRIC_PRESENTATION_REPRESENTATION('',(#13),#238);
#11=SHAPE_REPRESENTATION_RELATIONSHIP('SRR','None',#245,#12);
#12=ADVANCED_BREP_SHAPE_REPRESENTATION('',(#14),#237);
#13=STYLED_ITEM('',(#254),#14);
#14=MANIFOLD_SOLID_BREP('Solide1',#135);
#15=FACE_BOUND('',#32,.T.);
#16=FACE_BOUND('',#38,.T.);
#17=PLANE('',#159);
#18=PLANE('',#160);
#19=PLANE('',#161);
#20=PLANE('',#162);
#21=PLANE('',#163);
#22=PLANE('',#164);
#23=FACE_OUTER_BOUND('',#30,.T.);
#24=FACE_OUTER_BOUND('',#31,.T.);
#25=FACE_OUTER_BOUND('',#33,.T.);
#26=FACE_OUTER_BOUND('',#34,.T.);
#27=FACE_OUTER_BOUND('',#35,.T.);
#28=FACE_OUTER_BOUND('',#36,.T.);
#29=FACE_OUTER_BOUND('',#37,.T.);
#30=EDGE_LOOP('',(#95,#96,#97,#98,#99));
#31=EDGE_LOOP('',(#100,#101,#102,#103));
#32=EDGE_LOOP('',(#104));
#33=EDGE_LOOP('',(#105,#106,#107,#108));
#34=EDGE_LOOP('',(#109,#110,#111,#112));
#35=EDGE_LOOP('',(#113,#114,#115,#116));
#36=EDGE_LOOP('',(#117,#118,#119,#120));
#37=EDGE_LOOP('',(#121,#122,#123,#124));
#38=EDGE_LOOP('',(#125,#126));
#39=LINE('',#207,#52);
#40=LINE('',#212,#53);
#41=LINE('',#214,#54);
#42=LINE('',#216,#55);
#43=LINE('',#217,#56);
#44=LINE('',#220,#57);
#45=LINE('',#222,#58);
#46=LINE('',#223,#59);
#47=LINE('',#226,#60);
#48=LINE('',#227,#61);
#49=LINE('',#230,#62);
#50=LINE('',#231,#63);
#51=LINE('',#233,#64);
#52=VECTOR('',#173,1.5);
#53=VECTOR('',#178,10.);
#54=VECTOR('',#179,10.);
#55=VECTOR('',#180,10.);
#56=VECTOR('',#181,10.);
#57=VECTOR('',#184,10.);
#58=VECTOR('',#185,10.);
#59=VECTOR('',#186,10.);
#60=VECTOR('',#189,10.);
#61=VECTOR('',#190,10.);
#62=VECTOR('',#193,10.);
#63=VECTOR('',#194,10.);
#64=VECTOR('',#197,10.);
#65=CIRCLE('',#156,1.5);
#66=CIRCLE('',#157,1.5);
#67=CIRCLE('',#158,1.5);
#68=VERTEX_POINT('',#202);
#69=VERTEX_POINT('',#203);
#70=VERTEX_POINT('',#206);
#71=VERTEX_POINT('',#210);
#72=VERTEX_POINT('',#211);
#73=VERTEX_POINT('',#213);
#74=VERTEX_POINT('',#215);
#75=VERTEX_POINT('',#219);
#76=VERTEX_POINT('',#221);
#77=VERTEX_POINT('',#225);
#78=VERTEX_POINT('',#229);
#79=EDGE_CURVE('',#68,#69,#65,.T.);
#80=EDGE_CURVE('',#69,#68,#66,.T.);
#81=EDGE_CURVE('',#69,#70,#39,.T.);
#82=EDGE_CURVE('',#70,#70,#67,.T.);
#83=EDGE_CURVE('',#71,#72,#40,.T.);
#84=EDGE_CURVE('',#72,#73,#41,.T.);
#85=EDGE_CURVE('',#73,#74,#42,.T.);
#86=EDGE_CURVE('',#74,#71,#43,.T.);
#87=EDGE_CURVE('',#75,#72,#44,.T.);
#88=EDGE_CURVE('',#76,#75,#45,.T.);
#89=EDGE_CURVE('',#73,#76,#46,.T.);
#90=EDGE_CURVE('',#77,#76,#47,.T.);
#91=EDGE_CURVE('',#74,#77,#48,.T.);
#92=EDGE_CURVE('',#78,#77,#49,.T.);
#93=EDGE_CURVE('',#71,#78,#50,.T.);
#94=EDGE_CURVE('',#75,#78,#51,.T.);
#95=ORIENTED_EDGE('',*,*,#79,.F.);
#96=ORIENTED_EDGE('',*,*,#80,.F.);
#97=ORIENTED_EDGE('',*,*,#81,.T.);
#98=ORIENTED_EDGE('',*,*,#82,.F.);
#99=ORIENTED_EDGE('',*,*,#81,.F.);
#100=ORIENTED_EDGE('',*,*,#83,.T.);
#101=ORIENTED_EDGE('',*,*,#84,.T.);
#102=ORIENTED_EDGE('',*,*,#85,.T.);
#103=ORIENTED_EDGE('',*,*,#86,.T.);
#104=ORIENTED_EDGE('',*,*,#82,.T.);
#105=ORIENTED_EDGE('',*,*,#87,.F.);
#106=ORIENTED_EDGE('',*,*,#88,.F.);
#107=ORIENTED_EDGE('',*,*,#89,.F.);
#108=ORIENTED_EDGE('',*,*,#84,.F.);
#109=ORIENTED_EDGE('',*,*,#89,.T.);
#110=ORIENTED_EDGE('',*,*,#90,.F.);
#111=ORIENTED_EDGE('',*,*,#91,.F.);
#112=ORIENTED_EDGE('',*,*,#85,.F.);
#113=ORIENTED_EDGE('',*,*,#91,.T.);
#114=ORIENTED_EDGE('',*,*,#92,.F.);
#115=ORIENTED_EDGE('',*,*,#93,.F.);
#116=ORIENTED_EDGE('',*,*,#86,.F.);
#117=ORIENTED_EDGE('',*,*,#93,.T.);
#118=ORIENTED_EDGE('',*,*,#94,.F.);
#119=ORIENTED_EDGE('',*,*,#87,.T.);
#120=ORIENTED_EDGE('',*,*,#83,.F.);
#121=ORIENTED_EDGE('',*,*,#94,.T.);
#122=ORIENTED_EDGE('',*,*,#92,.T.);
#123=ORIENTED_EDGE('',*,*,#90,.T.);
#124=ORIENTED_EDGE('',*,*,#88,.T.);
#125=ORIENTED_EDGE('',*,*,#79,.T.);
#126=ORIENTED_EDGE('',*,*,#80,.T.);
#127=CYLINDRICAL_SURFACE('',#155,1.5);
#128=ADVANCED_FACE('',(#23),#127,.F.);
#129=ADVANCED_FACE('',(#24,#15),#17,.T.);
#130=ADVANCED_FACE('',(#25),#18,.T.);
#131=ADVANCED_FACE('',(#26),#19,.T.);
#132=ADVANCED_FACE('',(#27),#20,.T.);
#133=ADVANCED_FACE('',(#28),#21,.T.);
#134=ADVANCED_FACE('',(#29,#16),#22,.T.);
#135=CLOSED_SHELL('',(#128,#129,#130,#131,#132,#133,#134));
#136=DERIVED_UNIT_ELEMENT(#138,1.);
#137=DERIVED_UNIT_ELEMENT(#240,3.);
#138=(
MASS_UNIT()
NAMED_UNIT(*)
SI_UNIT($,.GRAM.)
);
#139=DERIVED_UNIT((#136,#137));
#140=MEASURE_REPRESENTATION_ITEM('density measure',
POSITIVE_RATIO_MEASURE(1.58),#139);
#141=PROPERTY_DEFINITION_REPRESENTATION(#146,#143);
#142=PROPERTY_DEFINITION_REPRESENTATION(#147,#144);
#143=REPRESENTATION('material name',(#145),#237);
#144=REPRESENTATION('density',(#140),#237);
#145=DESCRIPTIVE_REPRESENTATION_ITEM('POM-C GF25','POM-C GF25');
#146=PROPERTY_DEFINITION('material property','material name',#247);
#147=PROPERTY_DEFINITION('material property','density of part',#247);
#148=DATE_TIME_ROLE('creation_date');
#149=APPLIED_DATE_AND_TIME_ASSIGNMENT(#150,#148,(#247));
#150=DATE_AND_TIME(#151,#152);
#151=CALENDAR_DATE(2017,11,1);
#152=LOCAL_TIME(20,34,29.,#153);
#153=COORDINATED_UNIVERSAL_TIME_OFFSET(0,0,.BEHIND.);
#154=AXIS2_PLACEMENT_3D('placement',#200,#165,#166);
#155=AXIS2_PLACEMENT_3D('',#201,#167,#168);
#156=AXIS2_PLACEMENT_3D('',#204,#169,#170);
#157=AXIS2_PLACEMENT_3D('',#205,#171,#172);
#158=AXIS2_PLACEMENT_3D('',#208,#174,#175);
#159=AXIS2_PLACEMENT_3D('',#209,#176,#177);
#160=AXIS2_PLACEMENT_3D('',#218,#182,#183);
#161=AXIS2_PLACEMENT_3D('',#224,#187,#188);
#162=AXIS2_PLACEMENT_3D('',#228,#191,#192);
#163=AXIS2_PLACEMENT_3D('',#232,#195,#196);
#164=AXIS2_PLACEMENT_3D('',#234,#198,#199);
#165=DIRECTION('axis',(0.,0.,1.));
#166=DIRECTION('refdir',(1.,0.,0.));
#167=DIRECTION('center_axis',(0.,0.,1.));
#168=DIRECTION('ref_axis',(1.,0.,0.));
#169=DIRECTION('center_axis',(0.,0.,-1.));
#170=DIRECTION('ref_axis',(1.,0.,0.));
#171=DIRECTION('center_axis',(0.,0.,-1.));
#172=DIRECTION('ref_axis',(1.,0.,0.));
#173=DIRECTION('',(0.,0.,-1.));
#174=DIRECTION('center_axis',(0.,0.,1.));
#175=DIRECTION('ref_axis',(1.,0.,0.));
#176=DIRECTION('center_axis',(0.,0.,-1.));
#177=DIRECTION('ref_axis',(-1.,0.,0.));
#178=DIRECTION('',(-1.,0.,0.));
#179=DIRECTION('',(1.08845394571094E-16,1.,0.));
#180=DIRECTION('',(1.,0.,0.));
#181=DIRECTION('',(0.,-1.,0.));
#182=DIRECTION('center_axis',(-1.,1.08845394571094E-16,0.));
#183=DIRECTION('ref_axis',(-1.08845394571094E-16,-1.,0.));
#184=DIRECTION('',(0.,0.,-1.));
#185=DIRECTION('',(-1.08845394571094E-16,-1.,0.));
#186=DIRECTION('',(0.,0.,1.));
#187=DIRECTION('center_axis',(0.,1.,0.));
#188=DIRECTION('ref_axis',(-1.,0.,0.));
#189=DIRECTION('',(-1.,0.,0.));
#190=DIRECTION('',(0.,0.,1.));
#191=DIRECTION('center_axis',(1.,0.,0.));
#192=DIRECTION('ref_axis',(0.,1.,0.));
#193=DIRECTION('',(0.,1.,0.));
#194=DIRECTION('',(0.,0.,1.));
#195=DIRECTION('center_axis',(0.,-1.,0.));
#196=DIRECTION('ref_axis',(1.,0.,0.));
#197=DIRECTION('',(1.,0.,0.));
#198=DIRECTION('center_axis',(0.,0.,1.));
#199=DIRECTION('ref_axis',(1.,0.,0.));
#200=CARTESIAN_POINT('',(0.,0.,0.));
#201=CARTESIAN_POINT('Origin',(0.,0.,-6.82469676054155));
#202=CARTESIAN_POINT('',(1.5,0.,2.45));
#203=CARTESIAN_POINT('',(-1.5,-1.83697019872103E-16,2.45));
#204=CARTESIAN_POINT('Origin',(0.,0.,2.45));
#205=CARTESIAN_POINT('Origin',(0.,0.,2.45));
#206=CARTESIAN_POINT('',(-1.5,-1.83697019872103E-16,-2.45));
#207=CARTESIAN_POINT('',(-1.5,-1.83697019872103E-16,-6.82469676054155));
#208=CARTESIAN_POINT('Origin',(0.,0.,-2.45));
#209=CARTESIAN_POINT('Origin',(0.,0.,-2.45));
#210=CARTESIAN_POINT('',(3.,-2.55,-2.45));
#211=CARTESIAN_POINT('',(-3.,-2.55,-2.45));
#212=CARTESIAN_POINT('',(-3.,-2.55,-2.45));
#213=CARTESIAN_POINT('',(-3.,2.55,-2.45));
#214=CARTESIAN_POINT('',(-3.,2.55,-2.45));
#215=CARTESIAN_POINT('',(3.,2.55,-2.45));
#216=CARTESIAN_POINT('',(3.,2.55,-2.45));
#217=CARTESIAN_POINT('',(3.,-2.55,-2.45));
#218=CARTESIAN_POINT('Origin',(-3.,2.55,0.));
#219=CARTESIAN_POINT('',(-3.,-2.55,2.45));
#220=CARTESIAN_POINT('',(-3.,-2.55,0.));
#221=CARTESIAN_POINT('',(-3.,2.55,2.45));
#222=CARTESIAN_POINT('',(-3.,2.55,2.45));
#223=CARTESIAN_POINT('',(-3.,2.55,0.));
#224=CARTESIAN_POINT('Origin',(3.,2.55,0.));
#225=CARTESIAN_POINT('',(3.,2.55,2.45));
#226=CARTESIAN_POINT('',(3.,2.55,2.45));
#227=CARTESIAN_POINT('',(3.,2.55,0.));
#228=CARTESIAN_POINT('Origin',(3.,-2.55,0.));
#229=CARTESIAN_POINT('',(3.,-2.55,2.45));
#230=CARTESIAN_POINT('',(3.,-2.55,2.45));
#231=CARTESIAN_POINT('',(3.,-2.55,0.));
#232=CARTESIAN_POINT('Origin',(-3.,-2.55,0.));
#233=CARTESIAN_POINT('',(-3.,-2.55,2.45));
#234=CARTESIAN_POINT('Origin',(0.,0.,2.45));
#235=UNCERTAINTY_MEASURE_WITH_UNIT(LENGTH_MEASURE(0.01),#239,
'DISTANCE_ACCURACY_VALUE',
'Maximum model space distance between geometric entities at asserted c
onnectivities');
#236=UNCERTAINTY_MEASURE_WITH_UNIT(LENGTH_MEASURE(0.01),#239,
'DISTANCE_ACCURACY_VALUE',
'Maximum model space distance between geometric entities at asserted c
onnectivities');
#237=(
GEOMETRIC_REPRESENTATION_CONTEXT(3)
GLOBAL_UNCERTAINTY_ASSIGNED_CONTEXT((#235))
GLOBAL_UNIT_ASSIGNED_CONTEXT((#239,#242,#241))
REPRESENTATION_CONTEXT('','3D')
);
#238=(
GEOMETRIC_REPRESENTATION_CONTEXT(3)
GLOBAL_UNCERTAINTY_ASSIGNED_CONTEXT((#236))
GLOBAL_UNIT_ASSIGNED_CONTEXT((#239,#242,#241))
REPRESENTATION_CONTEXT('','3D')
);
#239=(
LENGTH_UNIT()
NAMED_UNIT(*)
SI_UNIT(.MILLI.,.METRE.)
);
#240=(
LENGTH_UNIT()
NAMED_UNIT(*)
SI_UNIT(.CENTI.,.METRE.)
);
#241=(
NAMED_UNIT(*)
SI_UNIT($,.STERADIAN.)
SOLID_ANGLE_UNIT()
);
#242=(
NAMED_UNIT(*)
PLANE_ANGLE_UNIT()
SI_UNIT($,.RADIAN.)
);
#243=SHAPE_DEFINITION_REPRESENTATION(#244,#245);
#244=PRODUCT_DEFINITION_SHAPE('',$,#247);
#245=SHAPE_REPRESENTATION('',(#154),#237);
#246=PRODUCT_DEFINITION_CONTEXT('part definition',#251,'design');
#247=PRODUCT_DEFINITION('10151457-2054','10151457-2054',#248,#246);
#248=PRODUCT_DEFINITION_FORMATION('1',$,#253);
#249=PRODUCT_RELATED_PRODUCT_CATEGORY('10151457-2054','10151457-2054',(#253));
#250=APPLICATION_PROTOCOL_DEFINITION('international standard',
'automotive_design',2009,#251);
#251=APPLICATION_CONTEXT(
'Core Data for Automotive Mechanical Design Process');
#252=PRODUCT_CONTEXT('part definition',#251,'mechanical');
#253=PRODUCT('10151457-2054','10151457-2054','ABSORBEUR',(#252));
#254=PRESENTATION_STYLE_ASSIGNMENT((#255));
#255=SURFACE_STYLE_USAGE(.BOTH.,#256);
#256=SURFACE_SIDE_STYLE('',(#257));
#257=SURFACE_STYLE_FILL_AREA(#258);
#258=FILL_AREA_STYLE('',(#259));
#259=FILL_AREA_STYLE_COLOUR('',#260);
#260=COLOUR_RGB('',0.949019607843137,0.949019607843137,1.);
ENDSEC;
END-ISO-10303-21;
