ISO-10303-21;
HEADER;
FILE_DESCRIPTION (( 'STEP AP203' ),
    '1' );
FILE_NAME ('Pièce1.STEP',
    '2019-05-24T18:15:16',
    ( '' ),
    ( '' ),
    'SwSTEP 2.0',
    'SolidWorks 2017',
    '' );
FILE_SCHEMA (( 'CONFIG_CONTROL_DESIGN' ));
ENDSEC;

DATA;
#1 = CARTESIAN_POINT ( 'NONE',  ( 1.249999999999991300, 0.0000000000000000000, 17.00000000000000000 ) ) ;
#2 = DIRECTION ( 'NONE',  ( -0.0000000000000000000, -0.0000000000000000000, 1.000000000000000000 ) ) ;
#3 = LINE ( 'NONE', #298, #50 ) ;
#4 = ORIENTED_EDGE ( 'NONE', *, *, #170, .T. ) ;
#5 = DIRECTION ( 'NONE',  ( -0.0000000000000000000, -0.0000000000000000000, -1.000000000000000000 ) ) ;
#6 = AXIS2_PLACEMENT_3D ( 'NONE', #213, #310, #129 ) ;
#7 = DIRECTION ( 'NONE',  ( 0.0000000000000000000, 0.0000000000000000000, 1.000000000000000000 ) ) ;
#8 = DIRECTION ( 'NONE',  ( -0.0000000000000000000, -0.0000000000000000000, -1.000000000000000000 ) ) ;
#9 = DATE_AND_TIME ( #280, #194 ) ;
#10 = PLANE ( 'NONE',  #153 ) ;
#11 = CARTESIAN_POINT ( 'NONE',  ( 0.0000000000000000000, 0.0000000000000000000, 0.0000000000000000000 ) ) ;
#12 = AXIS2_PLACEMENT_3D ( 'NONE', #101, #303, #25 ) ;
#13 = CARTESIAN_POINT ( 'NONE',  ( 0.0000000000000000000, 0.0000000000000000000, 0.0000000000000000000 ) ) ;
#14 = APPROVAL_ROLE ( '' ) ;
#15 = CIRCLE ( 'NONE', #139, 8.250000000000000000 ) ;
#16 = APPROVAL_STATUS ( 'not_yet_approved' ) ;
#17 = DIRECTION ( 'NONE',  ( 0.0000000000000000000, 0.0000000000000000000, 1.000000000000000000 ) ) ;
#18 = DATE_TIME_ROLE ( 'classification_date' ) ;
#19 = CIRCLE ( 'NONE', #55, 8.250000000000000000 ) ;
#20 = AXIS2_PLACEMENT_3D ( 'NONE', #275, #152, #206 ) ;
#21 = VERTEX_POINT ( 'NONE', #232 ) ;
#22 = AXIS2_PLACEMENT_3D ( 'NONE', #220, #196, #91 ) ;
#23 = COORDINATED_UNIVERSAL_TIME_OFFSET ( 1, 0, .AHEAD. ) ;
#24 = ORGANIZATION ( 'UNSPECIFIED', 'UNSPECIFIED', '' ) ;
#25 = DIRECTION ( 'NONE',  ( 1.000000000000000000, 0.0000000000000000000, -0.0000000000000000000 ) ) ;
#26 = CIRCLE ( 'NONE', #48, 8.250000000000000000 ) ;
#27 = ORIENTED_EDGE ( 'NONE', *, *, #252, .T. ) ;
#28 = CARTESIAN_POINT ( 'NONE',  ( 0.0000000000000000000, 0.0000000000000000000, 13.00000000000000000 ) ) ;
#29 = DIRECTION ( 'NONE',  ( 1.000000000000000000, 0.0000000000000000000, 0.0000000000000000000 ) ) ;
#30 = AXIS2_PLACEMENT_3D ( 'NONE', #264, #17, #160 ) ;
#31 = CALENDAR_DATE ( 2019, 24, 5 ) ;
#32 = ORIENTED_EDGE ( 'NONE', *, *, #227, .T. ) ;
#33 = DIRECTION ( 'NONE',  ( 1.000000000000000000, 0.0000000000000000000, -0.0000000000000000000 ) ) ;
#34 = DIRECTION ( 'NONE',  ( -0.0000000000000000000, -0.0000000000000000000, 1.000000000000000000 ) ) ;
#35 = PERSON_AND_ORGANIZATION ( #231, #24 ) ;
#36 = CIRCLE ( 'NONE', #250, 6.150000000000000400 ) ;
#37 = DIRECTION ( 'NONE',  ( 0.0000000000000000000, 0.0000000000000000000, 1.000000000000000000 ) ) ;
#38 = EDGE_LOOP ( 'NONE', ( #169, #27, #200, #46 ) ) ;
#39 = PERSON_AND_ORGANIZATION_ROLE ( 'design_supplier' ) ;
#40 = ADVANCED_FACE ( 'NONE', ( #283, #150 ), #300, .F. ) ;
#41 = EDGE_LOOP ( 'NONE', ( #176, #277, #32, #237 ) ) ;
#42 = CARTESIAN_POINT ( 'NONE',  ( 0.0000000000000000000, 0.0000000000000000000, 0.0000000000000000000 ) ) ;
#43 =( LENGTH_UNIT ( ) NAMED_UNIT ( * ) SI_UNIT ( .MILLI., .METRE. ) );
#44 = PERSON_AND_ORGANIZATION ( #231, #24 ) ;
#45 = FACE_OUTER_BOUND ( 'NONE', #302, .T. ) ;
#46 = ORIENTED_EDGE ( 'NONE', *, *, #204, .F. ) ;
#47 = APPROVAL_STATUS ( 'not_yet_approved' ) ;
#48 = AXIS2_PLACEMENT_3D ( 'NONE', #147, #173, #98 ) ;
#49 = CLOSED_SHELL ( 'NONE', ( #138, #285, #108, #161, #197, #245, #40, #132, #193 ) ) ;
#50 = VECTOR ( 'NONE', #5, 1000.000000000000000 ) ;
#51 = EDGE_LOOP ( 'NONE', ( #261, #136, #247, #123 ) ) ;
#52 = EDGE_CURVE ( 'NONE', #73, #21, #272, .T. ) ;
#53 = LOCAL_TIME ( 20, 15, 16.00000000000000000, #59 ) ;
#54 = LINE ( 'NONE', #179, #133 ) ;
#55 = AXIS2_PLACEMENT_3D ( 'NONE', #288, #140, #86 ) ;
#56 = CARTESIAN_POINT ( 'NONE',  ( 0.0000000000000000000, 0.0000000000000000000, 15.00000000000000000 ) ) ;
#57 = DIRECTION ( 'NONE',  ( -0.0000000000000000000, -0.0000000000000000000, -1.000000000000000000 ) ) ;
#58 = CARTESIAN_POINT ( 'NONE',  ( -1.249999999999991300, 1.530808498934181000E-016, 17.00000000000000000 ) ) ;
#59 = COORDINATED_UNIVERSAL_TIME_OFFSET ( 1, 0, .AHEAD. ) ;
#60 = CYLINDRICAL_SURFACE ( 'NONE', #6, 1.249999999999991300 ) ;
#61 = VERTEX_POINT ( 'NONE', #178 ) ;
#62 = ORIENTED_EDGE ( 'NONE', *, *, #114, .F. ) ;
#63 = CYLINDRICAL_SURFACE ( 'NONE', #299, 8.250000000000000000 ) ;
#64 = APPROVAL_STATUS ( 'not_yet_approved' ) ;
#65 = CIRCLE ( 'NONE', #294, 1.249999999999991300 ) ;
#66 = DIRECTION ( 'NONE',  ( 1.000000000000000000, 0.0000000000000000000, 0.0000000000000000000 ) ) ;
#67 = PERSON_AND_ORGANIZATION_ROLE ( 'creator' ) ;
#68 = COORDINATED_UNIVERSAL_TIME_OFFSET ( 1, 0, .AHEAD. ) ;
#69 = ADVANCED_BREP_SHAPE_REPRESENTATION ( 'PiÞce1', ( #219, #30 ), #224 ) ;
#70 = EDGE_CURVE ( 'NONE', #73, #226, #65, .T. ) ;
#71 = CC_DESIGN_PERSON_AND_ORGANIZATION_ASSIGNMENT ( #146, #67, ( #92 ) ) ;
#72 = APPROVAL_PERSON_ORGANIZATION ( #207, #75, #314 ) ;
#73 = VERTEX_POINT ( 'NONE', #255 ) ;
#74 = APPROVAL_PERSON_ORGANIZATION ( #44, #182, #325 ) ;
#75 = APPROVAL ( #64, 'UNSPECIFIED' ) ;
#76 = PRODUCT_DEFINITION_SHAPE ( 'NONE', 'NONE',  #92 ) ;
#77 = FACE_OUTER_BOUND ( 'NONE', #121, .T. ) ;
#78 = CYLINDRICAL_SURFACE ( 'NONE', #269, 6.150000000000000400 ) ;
#79 = DIRECTION ( 'NONE',  ( 1.000000000000000000, 0.0000000000000000000, 0.0000000000000000000 ) ) ;
#80 = DATE_AND_TIME ( #205, #268 ) ;
#81 = DIRECTION ( 'NONE',  ( 1.000000000000000000, 0.0000000000000000000, 0.0000000000000000000 ) ) ;
#82 = CARTESIAN_POINT ( 'NONE',  ( 0.0000000000000000000, 0.0000000000000000000, 17.00000000000000000 ) ) ;
#83 = CIRCLE ( 'NONE', #317, 1.249999999999987100 ) ;
#84 = EDGE_CURVE ( 'NONE', #61, #107, #54, .T. ) ;
#85 = ORIENTED_EDGE ( 'NONE', *, *, #175, .T. ) ;
#86 = DIRECTION ( 'NONE',  ( 1.000000000000000000, 0.0000000000000000000, 0.0000000000000000000 ) ) ;
#87 = DIRECTION ( 'NONE',  ( -1.000000000000000000, 0.0000000000000000000, 0.0000000000000000000 ) ) ;
#88 = CARTESIAN_POINT ( 'NONE',  ( 0.0000000000000000000, 0.0000000000000000000, 13.00000000000000000 ) ) ;
#89 = CALENDAR_DATE ( 2019, 24, 5 ) ;
#90 = CIRCLE ( 'NONE', #217, 6.150000000000000400 ) ;
#91 = DIRECTION ( 'NONE',  ( 1.000000000000000000, 0.0000000000000000000, 0.0000000000000000000 ) ) ;
#92 = PRODUCT_DEFINITION ( 'UNKNOWN', '', #323, #270 ) ;
#93 = AXIS2_PLACEMENT_3D ( 'NONE', #56, #8, #104 ) ;
#94 = LOCAL_TIME ( 20, 15, 16.00000000000000000, #23 ) ;
#95 = EDGE_LOOP ( 'NONE', ( #156, #97 ) ) ;
#96 = VERTEX_POINT ( 'NONE', #177 ) ;
#97 = ORIENTED_EDGE ( 'NONE', *, *, #266, .T. ) ;
#98 = DIRECTION ( 'NONE',  ( 1.000000000000000000, 0.0000000000000000000, 0.0000000000000000000 ) ) ;
#99 = DATE_AND_TIME ( #31, #185 ) ;
#100 = EDGE_LOOP ( 'NONE', ( #201, #230 ) ) ;
#101 = CARTESIAN_POINT ( 'NONE',  ( 0.0000000000000000000, 0.0000000000000000000, 13.00000000000000000 ) ) ;
#102 = CC_DESIGN_PERSON_AND_ORGANIZATION_ASSIGNMENT ( #35, #189, ( #323 ) ) ;
#103 = ORIENTED_EDGE ( 'NONE', *, *, #297, .F. ) ;
#104 = DIRECTION ( 'NONE',  ( -1.000000000000000000, 0.0000000000000000000, 0.0000000000000000000 ) ) ;
#105 = DIRECTION ( 'NONE',  ( -1.000000000000000000, 0.0000000000000000000, 0.0000000000000000000 ) ) ;
#106 = CIRCLE ( 'NONE', #22, 6.150000000000000400 ) ;
#107 = VERTEX_POINT ( 'NONE', #304 ) ;
#108 = ADVANCED_FACE ( 'NONE', ( #301 ), #116, .F. ) ;
#109 = DIRECTION ( 'NONE',  ( 1.000000000000000000, 0.0000000000000000000, 0.0000000000000000000 ) ) ;
#110 = ORIENTED_EDGE ( 'NONE', *, *, #321, .T. ) ;
#111 = CARTESIAN_POINT ( 'NONE',  ( -1.249999999999987100, 1.530808498934178300E-016, 17.00000000000000000 ) ) ;
#112 =( NAMED_UNIT ( * ) SI_UNIT ( $, .STERADIAN. ) SOLID_ANGLE_UNIT ( ) );
#113 = ORIENTED_EDGE ( 'NONE', *, *, #181, .F. ) ;
#114 = EDGE_CURVE ( 'NONE', #195, #248, #3, .T. ) ;
#115 = APPROVAL_DATE_TIME ( #99, #182 ) ;
#116 = CYLINDRICAL_SURFACE ( 'NONE', #20, 6.150000000000000400 ) ;
#117 = CC_DESIGN_APPROVAL ( #75, ( #92 ) ) ;
#118 = APPROVAL_DATE_TIME ( #318, #228 ) ;
#119 = LINE ( 'NONE', #308, #273 ) ;
#120 = ORIENTED_EDGE ( 'NONE', *, *, #181, .T. ) ;
#121 = EDGE_LOOP ( 'NONE', ( #62, #113, #292, #295 ) ) ;
#122 = DIRECTION ( 'NONE',  ( 0.0000000000000000000, 0.0000000000000000000, 1.000000000000000000 ) ) ;
#123 = ORIENTED_EDGE ( 'NONE', *, *, #291, .F. ) ;
#124 = EDGE_LOOP ( 'NONE', ( #307, #103 ) ) ;
#125 = CARTESIAN_POINT ( 'NONE',  ( 8.250000000000000000, 1.010333609296566500E-015, 17.00000000000000000 ) ) ;
#126 = PERSON_AND_ORGANIZATION ( #231, #24 ) ;
#127 = PERSON_AND_ORGANIZATION ( #231, #24 ) ;
#128 = DIRECTION ( 'NONE',  ( -0.0000000000000000000, -0.0000000000000000000, -1.000000000000000000 ) ) ;
#129 = DIRECTION ( 'NONE',  ( 1.000000000000000000, 0.0000000000000000000, 0.0000000000000000000 ) ) ;
#130 = APPLICATION_CONTEXT ( 'configuration controlled 3d designs of mechanical parts and assemblies' ) ;
#131 = EDGE_CURVE ( 'NONE', #319, #248, #26, .T. ) ;
#132 = ADVANCED_FACE ( 'NONE', ( #329, #225 ), #274, .T. ) ;
#133 = VECTOR ( 'NONE', #236, 1000.000000000000000 ) ;
#134 = DIRECTION ( 'NONE',  ( -0.0000000000000000000, -0.0000000000000000000, -1.000000000000000000 ) ) ;
#135 = CC_DESIGN_APPROVAL ( #182, ( #145 ) ) ;
#136 = ORIENTED_EDGE ( 'NONE', *, *, #114, .T. ) ;
#137 = DIRECTION ( 'NONE',  ( 0.0000000000000000000, 0.0000000000000000000, 1.000000000000000000 ) ) ;
#138 = ADVANCED_FACE ( 'NONE', ( #241 ), #168, .F. ) ;
#139 = AXIS2_PLACEMENT_3D ( 'NONE', #82, #278, #79 ) ;
#140 = DIRECTION ( 'NONE',  ( 0.0000000000000000000, 0.0000000000000000000, 1.000000000000000000 ) ) ;
#141 = APPLICATION_CONTEXT ( 'configuration controlled 3d designs of mechanical parts and assemblies' ) ;
#142 = COORDINATED_UNIVERSAL_TIME_OFFSET ( 1, 0, .AHEAD. ) ;
#143 = ORIENTED_EDGE ( 'NONE', *, *, #253, .T. ) ;
#144 = VERTEX_POINT ( 'NONE', #183 ) ;
#145 = SECURITY_CLASSIFICATION ( '', '', #191 ) ;
#146 = PERSON_AND_ORGANIZATION ( #231, #24 ) ;
#147 = CARTESIAN_POINT ( 'NONE',  ( 0.0000000000000000000, 0.0000000000000000000, 0.0000000000000000000 ) ) ;
#148 = DIRECTION ( 'NONE',  ( 1.000000000000000000, 0.0000000000000000000, -0.0000000000000000000 ) ) ;
#149 = LINE ( 'NONE', #58, #154 ) ;
#150 = FACE_OUTER_BOUND ( 'NONE', #263, .T. ) ;
#151 = DIRECTION ( 'NONE',  ( 1.000000000000000000, 0.0000000000000000000, 0.0000000000000000000 ) ) ;
#152 = DIRECTION ( 'NONE',  ( -0.0000000000000000000, -0.0000000000000000000, -1.000000000000000000 ) ) ;
#153 = AXIS2_PLACEMENT_3D ( 'NONE', #155, #7, #33 ) ;
#154 = VECTOR ( 'NONE', #239, 1000.000000000000000 ) ;
#155 = CARTESIAN_POINT ( 'NONE',  ( 0.0000000000000000000, 0.0000000000000000000, 0.0000000000000000000 ) ) ;
#156 = ORIENTED_EDGE ( 'NONE', *, *, #70, .T. ) ;
#157 = UNCERTAINTY_MEASURE_WITH_UNIT (LENGTH_MEASURE( 1.000000000000000100E-005 ), #43, 'distance_accuracy_value', 'NONE');
#158 = DATE_TIME_ROLE ( 'creation_date' ) ;
#159 = AXIS2_PLACEMENT_3D ( 'NONE', #256, #180, #29 ) ;
#160 = DIRECTION ( 'NONE',  ( 1.000000000000000000, 0.0000000000000000000, 0.0000000000000000000 ) ) ;
#161 = ADVANCED_FACE ( 'NONE', ( #311 ), #78, .F. ) ;
#162 = CARTESIAN_POINT ( 'NONE',  ( -8.250000000000000000, 0.0000000000000000000, 15.00000000000000000 ) ) ;
#163 = EDGE_CURVE ( 'NONE', #107, #144, #36, .T. ) ;
#164 = DIRECTION ( 'NONE',  ( -0.0000000000000000000, -0.0000000000000000000, -1.000000000000000000 ) ) ;
#165 = PRODUCT_RELATED_PRODUCT_CATEGORY ( 'detail', '', ( #235 ) ) ;
#166 = ORIENTED_EDGE ( 'NONE', *, *, #190, .F. ) ;
#167 = DIRECTION ( 'NONE',  ( 0.0000000000000000000, 0.0000000000000000000, 1.000000000000000000 ) ) ;
#168 = CYLINDRICAL_SURFACE ( 'NONE', #159, 1.249999999999991300 ) ;
#169 = ORIENTED_EDGE ( 'NONE', *, *, #170, .F. ) ;
#170 = EDGE_CURVE ( 'NONE', #96, #144, #119, .T. ) ;
#171 = ORIENTED_EDGE ( 'NONE', *, *, #84, .F. ) ;
#172 = CC_DESIGN_PERSON_AND_ORGANIZATION_ASSIGNMENT ( #174, #215, ( #145 ) ) ;
#173 = DIRECTION ( 'NONE',  ( 0.0000000000000000000, 0.0000000000000000000, 1.000000000000000000 ) ) ;
#174 = PERSON_AND_ORGANIZATION ( #231, #24 ) ;
#175 = EDGE_CURVE ( 'NONE', #21, #287, #83, .T. ) ;
#176 = ORIENTED_EDGE ( 'NONE', *, *, #266, .F. ) ;
#177 = CARTESIAN_POINT ( 'NONE',  ( 6.150000000000000400, 7.531577814756222100E-016, 13.00000000000000000 ) ) ;
#178 = CARTESIAN_POINT ( 'NONE',  ( -6.150000000000000400, 0.0000000000000000000, 13.00000000000000000 ) ) ;
#179 = CARTESIAN_POINT ( 'NONE',  ( -6.150000000000000400, 0.0000000000000000000, 15.00000000000000000 ) ) ;
#180 = DIRECTION ( 'NONE',  ( -0.0000000000000000000, -0.0000000000000000000, 1.000000000000000000 ) ) ;
#181 = EDGE_CURVE ( 'NONE', #312, #195, #15, .T. ) ;
#182 = APPROVAL ( #47, 'UNSPECIFIED' ) ;
#183 = CARTESIAN_POINT ( 'NONE',  ( 6.150000000000000400, 7.531577814756222100E-016, 0.0000000000000000000 ) ) ;
#184 = CARTESIAN_POINT ( 'NONE',  ( 0.0000000000000000000, 0.0000000000000000000, 15.00000000000000000 ) ) ;
#185 = LOCAL_TIME ( 20, 15, 16.00000000000000000, #68 ) ;
#186 = CIRCLE ( 'NONE', #259, 8.250000000000000000 ) ;
#187 = ORIENTED_EDGE ( 'NONE', *, *, #227, .F. ) ;
#188 = DIRECTION ( 'NONE',  ( 1.000000000000000000, 0.0000000000000000000, 0.0000000000000000000 ) ) ;
#189 = PERSON_AND_ORGANIZATION_ROLE ( 'creator' ) ;
#190 = EDGE_CURVE ( 'NONE', #226, #287, #149, .T. ) ;
#191 = SECURITY_CLASSIFICATION_LEVEL ( 'unclassified' ) ;
#192 = CC_DESIGN_PERSON_AND_ORGANIZATION_ASSIGNMENT ( #126, #39, ( #323 ) ) ;
#193 = ADVANCED_FACE ( 'NONE', ( #45 ), #60, .F. ) ;
#194 = LOCAL_TIME ( 20, 15, 16.00000000000000000, #257 ) ;
#195 = VERTEX_POINT ( 'NONE', #125 ) ;
#196 = DIRECTION ( 'NONE',  ( 0.0000000000000000000, 0.0000000000000000000, 1.000000000000000000 ) ) ;
#197 = ADVANCED_FACE ( 'NONE', ( #324, #262 ), #10, .F. ) ;
#198 = PERSON_AND_ORGANIZATION_ROLE ( 'design_owner' ) ;
#199 = LINE ( 'NONE', #162, #276 ) ;
#200 = ORIENTED_EDGE ( 'NONE', *, *, #84, .T. ) ;
#201 = ORIENTED_EDGE ( 'NONE', *, *, #163, .T. ) ;
#202 = CYLINDRICAL_SURFACE ( 'NONE', #93, 8.250000000000000000 ) ;
#203 = ORIENTED_EDGE ( 'NONE', *, *, #70, .F. ) ;
#204 = EDGE_CURVE ( 'NONE', #144, #107, #90, .T. ) ;
#205 = CALENDAR_DATE ( 2019, 24, 5 ) ;
#206 = DIRECTION ( 'NONE',  ( -1.000000000000000000, 0.0000000000000000000, 0.0000000000000000000 ) ) ;
#207 = PERSON_AND_ORGANIZATION ( #231, #24 ) ;
#208 = ORIENTED_EDGE ( 'NONE', *, *, #321, .F. ) ;
#209 = CC_DESIGN_DATE_AND_TIME_ASSIGNMENT ( #289, #18, ( #145 ) ) ;
#210 = AXIS2_PLACEMENT_3D ( 'NONE', #281, #34, #109 ) ;
#211 = CALENDAR_DATE ( 2019, 24, 5 ) ;
#212 = FACE_OUTER_BOUND ( 'NONE', #51, .T. ) ;
#213 = CARTESIAN_POINT ( 'NONE',  ( 0.0000000000000000000, 0.0000000000000000000, 17.00000000000000000 ) ) ;
#214 = CIRCLE ( 'NONE', #328, 6.150000000000000400 ) ;
#215 = PERSON_AND_ORGANIZATION_ROLE ( 'classification_officer' ) ;
#216 = EDGE_LOOP ( 'NONE', ( #254, #187 ) ) ;
#217 = AXIS2_PLACEMENT_3D ( 'NONE', #11, #37, #81 ) ;
#218 = CARTESIAN_POINT ( 'NONE',  ( -8.250000000000000000, 0.0000000000000000000, 17.00000000000000000 ) ) ;
#219 = MANIFOLD_SOLID_BREP ( 'Trou pour taraudage pour trou taraudé M31', #49 ) ;
#220 = CARTESIAN_POINT ( 'NONE',  ( 0.0000000000000000000, 0.0000000000000000000, 13.00000000000000000 ) ) ;
#221 = DIRECTION ( 'NONE',  ( 1.000000000000000000, 0.0000000000000000000, 0.0000000000000000000 ) ) ;
#222 = APPROVAL_DATE_TIME ( #9, #75 ) ;
#223 = APPLICATION_PROTOCOL_DEFINITION ( 'international standard', 'config_control_design', 1994, #130 ) ;
#224 =( GEOMETRIC_REPRESENTATION_CONTEXT ( 3 ) GLOBAL_UNCERTAINTY_ASSIGNED_CONTEXT ( ( #157 ) ) GLOBAL_UNIT_ASSIGNED_CONTEXT ( ( #43, #322, #112 ) ) REPRESENTATION_CONTEXT ( 'NONE', 'WORKASPACE' ) );
#225 = FACE_OUTER_BOUND ( 'NONE', #293, .T. ) ;
#226 = VERTEX_POINT ( 'NONE', #243 ) ;
#227 = EDGE_CURVE ( 'NONE', #287, #21, #260, .T. ) ;
#228 = APPROVAL ( #16, 'UNSPECIFIED' ) ;
#229 = AXIS2_PLACEMENT_3D ( 'NONE', #265, #167, #66 ) ;
#230 = ORIENTED_EDGE ( 'NONE', *, *, #204, .T. ) ;
#231 = PERSON ( 'UNSPECIFIED', 'UNSPECIFIED', 'UNSPECIFIED', ('UNSPECIFIED'), ('UNSPECIFIED'), ('UNSPECIFIED') ) ;
#232 = CARTESIAN_POINT ( 'NONE',  ( 1.249999999999987100, 0.0000000000000000000, 17.00000000000000000 ) ) ;
#233 = CC_DESIGN_APPROVAL ( #228, ( #323 ) ) ;
#234 = ORIENTED_EDGE ( 'NONE', *, *, #252, .F. ) ;
#235 = PRODUCT ( 'Pièce1', 'Pièce1', '', ( #316 ) ) ;
#236 = DIRECTION ( 'NONE',  ( -0.0000000000000000000, -0.0000000000000000000, -1.000000000000000000 ) ) ;
#237 = ORIENTED_EDGE ( 'NONE', *, *, #52, .F. ) ;
#238 = DIRECTION ( 'NONE',  ( 1.000000000000000000, 0.0000000000000000000, 0.0000000000000000000 ) ) ;
#239 = DIRECTION ( 'NONE',  ( -0.0000000000000000000, -0.0000000000000000000, 1.000000000000000000 ) ) ;
#240 = DIRECTION ( 'NONE',  ( 0.0000000000000000000, 0.0000000000000000000, 1.000000000000000000 ) ) ;
#241 = FACE_OUTER_BOUND ( 'NONE', #41, .T. ) ;
#242 = ORIENTED_EDGE ( 'NONE', *, *, #163, .F. ) ;
#243 = CARTESIAN_POINT ( 'NONE',  ( -1.249999999999991300, 1.530808498934181000E-016, 13.00000000000000000 ) ) ;
#244 = DIRECTION ( 'NONE',  ( 0.0000000000000000000, 0.0000000000000000000, 1.000000000000000000 ) ) ;
#245 = ADVANCED_FACE ( 'NONE', ( #77 ), #202, .T. ) ;
#246 = CARTESIAN_POINT ( 'NONE',  ( 8.250000000000000000, 1.010333609296566500E-015, 0.0000000000000000000 ) ) ;
#247 = ORIENTED_EDGE ( 'NONE', *, *, #297, .T. ) ;
#248 = VERTEX_POINT ( 'NONE', #246 ) ;
#249 = AXIS2_PLACEMENT_3D ( 'NONE', #258, #122, #148 ) ;
#250 = AXIS2_PLACEMENT_3D ( 'NONE', #13, #240, #188 ) ;
#251 = EDGE_LOOP ( 'NONE', ( #110, #4, #242, #171 ) ) ;
#252 = EDGE_CURVE ( 'NONE', #96, #61, #106, .T. ) ;
#253 = EDGE_CURVE ( 'NONE', #195, #312, #19, .T. ) ;
#254 = ORIENTED_EDGE ( 'NONE', *, *, #175, .F. ) ;
#255 = CARTESIAN_POINT ( 'NONE',  ( 1.249999999999991300, 0.0000000000000000000, 13.00000000000000000 ) ) ;
#256 = CARTESIAN_POINT ( 'NONE',  ( 0.0000000000000000000, 0.0000000000000000000, 17.00000000000000000 ) ) ;
#257 = COORDINATED_UNIVERSAL_TIME_OFFSET ( 1, 0, .AHEAD. ) ;
#258 = CARTESIAN_POINT ( 'NONE',  ( 0.0000000000000000000, 0.0000000000000000000, 17.00000000000000000 ) ) ;
#259 = AXIS2_PLACEMENT_3D ( 'NONE', #42, #137, #221 ) ;
#260 = CIRCLE ( 'NONE', #210, 1.249999999999987100 ) ;
#261 = ORIENTED_EDGE ( 'NONE', *, *, #253, .F. ) ;
#262 = FACE_BOUND ( 'NONE', #100, .T. ) ;
#263 = EDGE_LOOP ( 'NONE', ( #208, #234 ) ) ;
#264 = CARTESIAN_POINT ( 'NONE',  ( 0.0000000000000000000, 0.0000000000000000000, 0.0000000000000000000 ) ) ;
#265 = CARTESIAN_POINT ( 'NONE',  ( 0.0000000000000000000, 0.0000000000000000000, 13.00000000000000000 ) ) ;
#266 = EDGE_CURVE ( 'NONE', #226, #73, #271, .T. ) ;
#267 = CARTESIAN_POINT ( 'NONE',  ( -8.250000000000000000, 0.0000000000000000000, 0.0000000000000000000 ) ) ;
#268 = LOCAL_TIME ( 20, 15, 16.00000000000000000, #142 ) ;
#269 = AXIS2_PLACEMENT_3D ( 'NONE', #184, #57, #105 ) ;
#270 = DESIGN_CONTEXT ( 'detailed design', #130, 'design' ) ;
#271 = CIRCLE ( 'NONE', #229, 1.249999999999991300 ) ;
#272 = LINE ( 'NONE', #1, #327 ) ;
#273 = VECTOR ( 'NONE', #128, 1000.000000000000000 ) ;
#274 = PLANE ( 'NONE',  #249 ) ;
#275 = CARTESIAN_POINT ( 'NONE',  ( 0.0000000000000000000, 0.0000000000000000000, 15.00000000000000000 ) ) ;
#276 = VECTOR ( 'NONE', #134, 1000.000000000000000 ) ;
#277 = ORIENTED_EDGE ( 'NONE', *, *, #190, .T. ) ;
#278 = DIRECTION ( 'NONE',  ( 0.0000000000000000000, 0.0000000000000000000, 1.000000000000000000 ) ) ;
#279 = CC_DESIGN_DATE_AND_TIME_ASSIGNMENT ( #80, #158, ( #92 ) ) ;
#280 = CALENDAR_DATE ( 2019, 24, 5 ) ;
#281 = CARTESIAN_POINT ( 'NONE',  ( 0.0000000000000000000, 0.0000000000000000000, 17.00000000000000000 ) ) ;
#282 = PERSON_AND_ORGANIZATION ( #231, #24 ) ;
#283 = FACE_BOUND ( 'NONE', #95, .T. ) ;
#284 = DIRECTION ( 'NONE',  ( 1.000000000000000000, 0.0000000000000000000, 0.0000000000000000000 ) ) ;
#285 = ADVANCED_FACE ( 'NONE', ( #212 ), #63, .T. ) ;
#286 = APPLICATION_PROTOCOL_DEFINITION ( 'international standard', 'config_control_design', 1994, #141 ) ;
#287 = VERTEX_POINT ( 'NONE', #111 ) ;
#288 = CARTESIAN_POINT ( 'NONE',  ( 0.0000000000000000000, 0.0000000000000000000, 17.00000000000000000 ) ) ;
#289 = DATE_AND_TIME ( #211, #53 ) ;
#290 = SHAPE_DEFINITION_REPRESENTATION ( #76, #69 ) ;
#291 = EDGE_CURVE ( 'NONE', #312, #319, #199, .T. ) ;
#292 = ORIENTED_EDGE ( 'NONE', *, *, #291, .T. ) ;
#293 = EDGE_LOOP ( 'NONE', ( #120, #143 ) ) ;
#294 = AXIS2_PLACEMENT_3D ( 'NONE', #28, #305, #151 ) ;
#295 = ORIENTED_EDGE ( 'NONE', *, *, #131, .T. ) ;
#296 = CC_DESIGN_SECURITY_CLASSIFICATION ( #145, ( #323 ) ) ;
#297 = EDGE_CURVE ( 'NONE', #248, #319, #186, .T. ) ;
#298 = CARTESIAN_POINT ( 'NONE',  ( 8.250000000000000000, 1.010333609296566500E-015, 15.00000000000000000 ) ) ;
#299 = AXIS2_PLACEMENT_3D ( 'NONE', #320, #164, #87 ) ;
#300 = PLANE ( 'NONE',  #12 ) ;
#301 = FACE_OUTER_BOUND ( 'NONE', #251, .T. ) ;
#302 = EDGE_LOOP ( 'NONE', ( #166, #203, #326, #85 ) ) ;
#303 = DIRECTION ( 'NONE',  ( 0.0000000000000000000, 0.0000000000000000000, 1.000000000000000000 ) ) ;
#304 = CARTESIAN_POINT ( 'NONE',  ( -6.150000000000000400, 0.0000000000000000000, 0.0000000000000000000 ) ) ;
#305 = DIRECTION ( 'NONE',  ( 0.0000000000000000000, 0.0000000000000000000, 1.000000000000000000 ) ) ;
#306 = APPROVAL_PERSON_ORGANIZATION ( #127, #228, #14 ) ;
#307 = ORIENTED_EDGE ( 'NONE', *, *, #131, .F. ) ;
#308 = CARTESIAN_POINT ( 'NONE',  ( 6.150000000000000400, 7.531577814756222100E-016, 15.00000000000000000 ) ) ;
#309 = DIRECTION ( 'NONE',  ( -0.0000000000000000000, -0.0000000000000000000, 1.000000000000000000 ) ) ;
#310 = DIRECTION ( 'NONE',  ( -0.0000000000000000000, -0.0000000000000000000, 1.000000000000000000 ) ) ;
#311 = FACE_OUTER_BOUND ( 'NONE', #38, .T. ) ;
#312 = VERTEX_POINT ( 'NONE', #218 ) ;
#313 = CARTESIAN_POINT ( 'NONE',  ( 0.0000000000000000000, 0.0000000000000000000, 17.00000000000000000 ) ) ;
#314 = APPROVAL_ROLE ( '' ) ;
#315 = CC_DESIGN_PERSON_AND_ORGANIZATION_ASSIGNMENT ( #282, #198, ( #235 ) ) ;
#316 = MECHANICAL_CONTEXT ( 'NONE', #141, 'mechanical' ) ;
#317 = AXIS2_PLACEMENT_3D ( 'NONE', #313, #309, #238 ) ;
#318 = DATE_AND_TIME ( #89, #94 ) ;
#319 = VERTEX_POINT ( 'NONE', #267 ) ;
#320 = CARTESIAN_POINT ( 'NONE',  ( 0.0000000000000000000, 0.0000000000000000000, 15.00000000000000000 ) ) ;
#321 = EDGE_CURVE ( 'NONE', #61, #96, #214, .T. ) ;
#322 =( NAMED_UNIT ( * ) PLANE_ANGLE_UNIT ( ) SI_UNIT ( $, .RADIAN. ) );
#323 = PRODUCT_DEFINITION_FORMATION_WITH_SPECIFIED_SOURCE ( 'ANY', '', #235, .NOT_KNOWN. ) ;
#324 = FACE_OUTER_BOUND ( 'NONE', #124, .T. ) ;
#325 = APPROVAL_ROLE ( '' ) ;
#326 = ORIENTED_EDGE ( 'NONE', *, *, #52, .T. ) ;
#327 = VECTOR ( 'NONE', #2, 1000.000000000000000 ) ;
#328 = AXIS2_PLACEMENT_3D ( 'NONE', #88, #244, #284 ) ;
#329 = FACE_BOUND ( 'NONE', #216, .T. ) ;
ENDSEC;
END-ISO-10303-21;
