ISO-10303-21;
HEADER;
/* Generated by software containing ST-Developer
 * from STEP Tools, Inc. (www.steptools.com) 
 */
/* OPTION: strings as raw bytes, not using required /X/ escapes */

FILE_DESCRIPTION(
/* description */ ('Unknown'),
/* implementation_level */ '2;1');

FILE_NAME(
/* name */ 'PiÃ¨ce2',
/* time_stamp */ '2019-05-22T10:02:17+02:00',
/* author */ ('Unknown'),
/* organization */ ('Unknown'),
/* preprocessor_version */ 'ST-DEVELOPER v16.7',
/* originating_system */ 'DEX',
/* authorisation */ $);

FILE_SCHEMA (('AUTOMOTIVE_DESIGN {1 0 10303 214 3 1 1}'));
ENDSEC;

DATA;
#10=PROPERTY_DEFINITION_REPRESENTATION(#14,#12);
#11=PROPERTY_DEFINITION_REPRESENTATION(#15,#13);
#12=REPRESENTATION('',(#16),#449);
#13=REPRESENTATION('',(#17),#449);
#14=PROPERTY_DEFINITION('pmi validation property','',#454);
#15=PROPERTY_DEFINITION('pmi validation property','',#454);
#16=VALUE_REPRESENTATION_ITEM('number of annotations',COUNT_MEASURE(0.));
#17=VALUE_REPRESENTATION_ITEM('number of views',COUNT_MEASURE(0.));
#18=SHAPE_REPRESENTATION_RELATIONSHIP('','',#276,#19);
#19=ADVANCED_BREP_SHAPE_REPRESENTATION('',(#274),#449);
#20=PLANE('',#287);
#21=PLANE('',#288);
#22=PLANE('',#291);
#23=PLANE('',#292);
#24=PLANE('',#293);
#25=PLANE('',#294);
#26=PLANE('',#297);
#27=PLANE('',#298);
#28=PLANE('',#299);
#29=PLANE('',#302);
#30=PLANE('',#303);
#31=LINE('',#382,#51);
#32=LINE('',#387,#52);
#33=LINE('',#391,#53);
#34=LINE('',#395,#54);
#35=LINE('',#405,#55);
#36=LINE('',#407,#56);
#37=LINE('',#409,#57);
#38=LINE('',#410,#58);
#39=LINE('',#412,#59);
#40=LINE('',#414,#60);
#41=LINE('',#421,#61);
#42=LINE('',#423,#62);
#43=LINE('',#425,#63);
#44=LINE('',#427,#64);
#45=LINE('',#429,#65);
#46=LINE('',#435,#66);
#47=LINE('',#437,#67);
#48=LINE('',#439,#68);
#49=LINE('',#441,#69);
#50=LINE('',#446,#70);
#51=VECTOR('',#310,1000.);
#52=VECTOR('',#313,1000.);
#53=VECTOR('',#316,1000.);
#54=VECTOR('',#319,1000.);
#55=VECTOR('',#332,1000.);
#56=VECTOR('',#333,1000.);
#57=VECTOR('',#334,1000.);
#58=VECTOR('',#335,1000.);
#59=VECTOR('',#336,1000.);
#60=VECTOR('',#337,1000.);
#61=VECTOR('',#346,1000.);
#62=VECTOR('',#347,1000.);
#63=VECTOR('',#350,1000.);
#64=VECTOR('',#351,1000.);
#65=VECTOR('',#354,1000.);
#66=VECTOR('',#363,1000.);
#67=VECTOR('',#364,1000.);
#68=VECTOR('',#367,1000.);
#69=VECTOR('',#368,1000.);
#70=VECTOR('',#375,1000.);
#71=ORIENTED_EDGE('',*,*,#133,.F.);
#72=ORIENTED_EDGE('',*,*,#134,.F.);
#73=ORIENTED_EDGE('',*,*,#135,.T.);
#74=ORIENTED_EDGE('',*,*,#136,.T.);
#75=ORIENTED_EDGE('',*,*,#137,.T.);
#76=ORIENTED_EDGE('',*,*,#138,.F.);
#77=ORIENTED_EDGE('',*,*,#139,.T.);
#78=ORIENTED_EDGE('',*,*,#140,.T.);
#79=ORIENTED_EDGE('',*,*,#141,.T.);
#80=ORIENTED_EDGE('',*,*,#142,.F.);
#81=ORIENTED_EDGE('',*,*,#143,.F.);
#82=ORIENTED_EDGE('',*,*,#133,.T.);
#83=ORIENTED_EDGE('',*,*,#142,.T.);
#84=ORIENTED_EDGE('',*,*,#141,.F.);
#85=ORIENTED_EDGE('',*,*,#144,.T.);
#86=ORIENTED_EDGE('',*,*,#145,.T.);
#87=ORIENTED_EDGE('',*,*,#146,.T.);
#88=ORIENTED_EDGE('',*,*,#137,.F.);
#89=ORIENTED_EDGE('',*,*,#147,.T.);
#90=ORIENTED_EDGE('',*,*,#148,.T.);
#91=ORIENTED_EDGE('',*,*,#149,.T.);
#92=ORIENTED_EDGE('',*,*,#150,.T.);
#93=ORIENTED_EDGE('',*,*,#151,.T.);
#94=ORIENTED_EDGE('',*,*,#143,.T.);
#95=ORIENTED_EDGE('',*,*,#144,.F.);
#96=ORIENTED_EDGE('',*,*,#140,.F.);
#97=ORIENTED_EDGE('',*,*,#152,.T.);
#98=ORIENTED_EDGE('',*,*,#153,.T.);
#99=ORIENTED_EDGE('',*,*,#145,.F.);
#100=ORIENTED_EDGE('',*,*,#153,.F.);
#101=ORIENTED_EDGE('',*,*,#154,.T.);
#102=ORIENTED_EDGE('',*,*,#155,.T.);
#103=ORIENTED_EDGE('',*,*,#146,.F.);
#104=ORIENTED_EDGE('',*,*,#155,.F.);
#105=ORIENTED_EDGE('',*,*,#156,.T.);
#106=ORIENTED_EDGE('',*,*,#138,.T.);
#107=ORIENTED_EDGE('',*,*,#157,.T.);
#108=ORIENTED_EDGE('',*,*,#150,.F.);
#109=ORIENTED_EDGE('',*,*,#157,.F.);
#110=ORIENTED_EDGE('',*,*,#152,.F.);
#111=ORIENTED_EDGE('',*,*,#139,.F.);
#112=ORIENTED_EDGE('',*,*,#156,.F.);
#113=ORIENTED_EDGE('',*,*,#154,.F.);
#114=ORIENTED_EDGE('',*,*,#149,.F.);
#115=ORIENTED_EDGE('',*,*,#158,.F.);
#116=ORIENTED_EDGE('',*,*,#159,.T.);
#117=ORIENTED_EDGE('',*,*,#134,.T.);
#118=ORIENTED_EDGE('',*,*,#147,.F.);
#119=ORIENTED_EDGE('',*,*,#136,.F.);
#120=ORIENTED_EDGE('',*,*,#160,.T.);
#121=ORIENTED_EDGE('',*,*,#161,.T.);
#122=ORIENTED_EDGE('',*,*,#162,.T.);
#123=ORIENTED_EDGE('',*,*,#151,.F.);
#124=ORIENTED_EDGE('',*,*,#148,.F.);
#125=ORIENTED_EDGE('',*,*,#161,.F.);
#126=ORIENTED_EDGE('',*,*,#163,.T.);
#127=ORIENTED_EDGE('',*,*,#158,.T.);
#128=ORIENTED_EDGE('',*,*,#162,.F.);
#129=ORIENTED_EDGE('',*,*,#159,.F.);
#130=ORIENTED_EDGE('',*,*,#163,.F.);
#131=ORIENTED_EDGE('',*,*,#160,.F.);
#132=ORIENTED_EDGE('',*,*,#135,.F.);
#133=EDGE_CURVE('',#164,#164,#187,.T.);
#134=EDGE_CURVE('',#165,#166,#31,.T.);
#135=EDGE_CURVE('',#165,#167,#188,.T.);
#136=EDGE_CURVE('',#167,#168,#32,.T.);
#137=EDGE_CURVE('',#168,#169,#189,.T.);
#138=EDGE_CURVE('',#170,#169,#33,.T.);
#139=EDGE_CURVE('',#170,#171,#190,.T.);
#140=EDGE_CURVE('',#171,#172,#34,.T.);
#141=EDGE_CURVE('',#172,#166,#191,.T.);
#142=EDGE_CURVE('',#173,#173,#192,.T.);
#143=EDGE_CURVE('',#174,#174,#193,.F.);
#144=EDGE_CURVE('',#172,#175,#35,.T.);
#145=EDGE_CURVE('',#175,#176,#36,.T.);
#146=EDGE_CURVE('',#176,#169,#37,.T.);
#147=EDGE_CURVE('',#168,#177,#38,.T.);
#148=EDGE_CURVE('',#177,#178,#39,.T.);
#149=EDGE_CURVE('',#178,#166,#40,.T.);
#150=EDGE_CURVE('',#179,#179,#194,.T.);
#151=EDGE_CURVE('',#180,#180,#195,.T.);
#152=EDGE_CURVE('',#171,#181,#41,.T.);
#153=EDGE_CURVE('',#181,#175,#42,.T.);
#154=EDGE_CURVE('',#181,#182,#43,.T.);
#155=EDGE_CURVE('',#182,#176,#44,.T.);
#156=EDGE_CURVE('',#182,#170,#45,.T.);
#157=EDGE_CURVE('',#183,#183,#196,.T.);
#158=EDGE_CURVE('',#184,#178,#46,.T.);
#159=EDGE_CURVE('',#184,#165,#47,.T.);
#160=EDGE_CURVE('',#167,#185,#48,.T.);
#161=EDGE_CURVE('',#185,#177,#49,.T.);
#162=EDGE_CURVE('',#186,#186,#197,.T.);
#163=EDGE_CURVE('',#185,#184,#50,.T.);
#164=VERTEX_POINT('',#381);
#165=VERTEX_POINT('',#383);
#166=VERTEX_POINT('',#384);
#167=VERTEX_POINT('',#386);
#168=VERTEX_POINT('',#388);
#169=VERTEX_POINT('',#390);
#170=VERTEX_POINT('',#392);
#171=VERTEX_POINT('',#394);
#172=VERTEX_POINT('',#396);
#173=VERTEX_POINT('',#400);
#174=VERTEX_POINT('',#402);
#175=VERTEX_POINT('',#406);
#176=VERTEX_POINT('',#408);
#177=VERTEX_POINT('',#411);
#178=VERTEX_POINT('',#413);
#179=VERTEX_POINT('',#416);
#180=VERTEX_POINT('',#418);
#181=VERTEX_POINT('',#422);
#182=VERTEX_POINT('',#426);
#183=VERTEX_POINT('',#432);
#184=VERTEX_POINT('',#436);
#185=VERTEX_POINT('',#440);
#186=VERTEX_POINT('',#444);
#187=CIRCLE('',#279,8.25);
#188=CIRCLE('',#280,8.25);
#189=CIRCLE('',#281,8.25);
#190=CIRCLE('',#282,8.25);
#191=CIRCLE('',#283,8.25);
#192=CIRCLE('',#285,6.25);
#193=CIRCLE('',#286,6.25);
#194=CIRCLE('',#289,1.75);
#195=CIRCLE('',#290,1.75);
#196=CIRCLE('',#296,1.75);
#197=CIRCLE('',#301,1.75);
#198=EDGE_LOOP('',(#71));
#199=EDGE_LOOP('',(#72,#73,#74,#75,#76,#77,#78,#79));
#200=EDGE_LOOP('',(#80));
#201=EDGE_LOOP('',(#81));
#202=EDGE_LOOP('',(#82));
#203=EDGE_LOOP('',(#83));
#204=EDGE_LOOP('',(#84,#85,#86,#87,#88,#89,#90,#91));
#205=EDGE_LOOP('',(#92));
#206=EDGE_LOOP('',(#93));
#207=EDGE_LOOP('',(#94));
#208=EDGE_LOOP('',(#95,#96,#97,#98));
#209=EDGE_LOOP('',(#99,#100,#101,#102));
#210=EDGE_LOOP('',(#103,#104,#105,#106));
#211=EDGE_LOOP('',(#107));
#212=EDGE_LOOP('',(#108));
#213=EDGE_LOOP('',(#109));
#214=EDGE_LOOP('',(#110,#111,#112,#113));
#215=EDGE_LOOP('',(#114,#115,#116,#117));
#216=EDGE_LOOP('',(#118,#119,#120,#121));
#217=EDGE_LOOP('',(#122));
#218=EDGE_LOOP('',(#123));
#219=EDGE_LOOP('',(#124,#125,#126,#127));
#220=EDGE_LOOP('',(#128));
#221=EDGE_LOOP('',(#129,#130,#131,#132));
#222=FACE_BOUND('',#198,.T.);
#223=FACE_BOUND('',#199,.T.);
#224=FACE_BOUND('',#200,.T.);
#225=FACE_BOUND('',#201,.T.);
#226=FACE_BOUND('',#202,.T.);
#227=FACE_BOUND('',#203,.T.);
#228=FACE_BOUND('',#204,.T.);
#229=FACE_BOUND('',#205,.T.);
#230=FACE_BOUND('',#206,.T.);
#231=FACE_BOUND('',#207,.T.);
#232=FACE_BOUND('',#208,.T.);
#233=FACE_BOUND('',#209,.T.);
#234=FACE_BOUND('',#210,.T.);
#235=FACE_BOUND('',#211,.T.);
#236=FACE_BOUND('',#212,.T.);
#237=FACE_BOUND('',#213,.T.);
#238=FACE_BOUND('',#214,.T.);
#239=FACE_BOUND('',#215,.T.);
#240=FACE_BOUND('',#216,.T.);
#241=FACE_BOUND('',#217,.T.);
#242=FACE_BOUND('',#218,.T.);
#243=FACE_BOUND('',#219,.T.);
#244=FACE_BOUND('',#220,.T.);
#245=FACE_BOUND('',#221,.T.);
#246=CYLINDRICAL_SURFACE('',#278,8.25);
#247=CYLINDRICAL_SURFACE('',#284,6.25);
#248=CYLINDRICAL_SURFACE('',#295,1.75);
#249=CYLINDRICAL_SURFACE('',#300,1.75);
#250=ADVANCED_FACE('',(#222,#223),#246,.T.);
#251=ADVANCED_FACE('',(#224,#225),#247,.F.);
#252=ADVANCED_FACE('',(#226,#227),#20,.T.);
#253=ADVANCED_FACE('',(#228,#229,#230),#21,.F.);
#254=ADVANCED_FACE('',(#231),#22,.F.);
#255=ADVANCED_FACE('',(#232),#23,.T.);
#256=ADVANCED_FACE('',(#233),#24,.T.);
#257=ADVANCED_FACE('',(#234),#25,.T.);
#258=ADVANCED_FACE('',(#235,#236),#248,.F.);
#259=ADVANCED_FACE('',(#237,#238),#26,.T.);
#260=ADVANCED_FACE('',(#239),#27,.T.);
#261=ADVANCED_FACE('',(#240),#28,.T.);
#262=ADVANCED_FACE('',(#241,#242),#249,.F.);
#263=ADVANCED_FACE('',(#243),#29,.T.);
#264=ADVANCED_FACE('',(#244,#245),#30,.T.);
#265=CLOSED_SHELL('',(#250,#251,#252,#253,#254,#255,#256,#257,#258,#259,
#260,#261,#262,#263,#264));
#266=STYLED_ITEM('',(#267),#274);
#267=PRESENTATION_STYLE_ASSIGNMENT((#268));
#268=SURFACE_STYLE_USAGE(.BOTH.,#269);
#269=SURFACE_SIDE_STYLE('',(#270));
#270=SURFACE_STYLE_FILL_AREA(#271);
#271=FILL_AREA_STYLE('',(#272));
#272=FILL_AREA_STYLE_COLOUR('',#273);
#273=COLOUR_RGB('',0.506983280181885,0.531564235687256,0.550000011920929);
#274=MANIFOLD_SOLID_BREP('',#265);
#275=SHAPE_DEFINITION_REPRESENTATION(#454,#276);
#276=SHAPE_REPRESENTATION('Pièce1',(#277),#449);
#277=AXIS2_PLACEMENT_3D('',#378,#304,#305);
#278=AXIS2_PLACEMENT_3D('',#379,#306,#307);
#279=AXIS2_PLACEMENT_3D('',#380,#308,#309);
#280=AXIS2_PLACEMENT_3D('',#385,#311,#312);
#281=AXIS2_PLACEMENT_3D('',#389,#314,#315);
#282=AXIS2_PLACEMENT_3D('',#393,#317,#318);
#283=AXIS2_PLACEMENT_3D('',#397,#320,#321);
#284=AXIS2_PLACEMENT_3D('',#398,#322,#323);
#285=AXIS2_PLACEMENT_3D('',#399,#324,#325);
#286=AXIS2_PLACEMENT_3D('',#401,#326,#327);
#287=AXIS2_PLACEMENT_3D('',#403,#328,#329);
#288=AXIS2_PLACEMENT_3D('',#404,#330,#331);
#289=AXIS2_PLACEMENT_3D('',#415,#338,#339);
#290=AXIS2_PLACEMENT_3D('',#417,#340,#341);
#291=AXIS2_PLACEMENT_3D('',#419,#342,#343);
#292=AXIS2_PLACEMENT_3D('',#420,#344,#345);
#293=AXIS2_PLACEMENT_3D('',#424,#348,#349);
#294=AXIS2_PLACEMENT_3D('',#428,#352,#353);
#295=AXIS2_PLACEMENT_3D('',#430,#355,#356);
#296=AXIS2_PLACEMENT_3D('',#431,#357,#358);
#297=AXIS2_PLACEMENT_3D('',#433,#359,#360);
#298=AXIS2_PLACEMENT_3D('',#434,#361,#362);
#299=AXIS2_PLACEMENT_3D('',#438,#365,#366);
#300=AXIS2_PLACEMENT_3D('',#442,#369,#370);
#301=AXIS2_PLACEMENT_3D('',#443,#371,#372);
#302=AXIS2_PLACEMENT_3D('',#445,#373,#374);
#303=AXIS2_PLACEMENT_3D('',#447,#376,#377);
#304=DIRECTION('',(0.,0.,1.));
#305=DIRECTION('',(1.,0.,0.));
#306=DIRECTION('',(0.,1.,0.));
#307=DIRECTION('',(0.,0.,1.));
#308=DIRECTION('',(0.,-1.,0.));
#309=DIRECTION('',(1.,0.,0.));
#310=DIRECTION('',(0.,1.,0.));
#311=DIRECTION('',(0.,-1.,0.));
#312=DIRECTION('',(-1.,0.,0.));
#313=DIRECTION('',(0.,1.,0.));
#314=DIRECTION('',(0.,-1.,0.));
#315=DIRECTION('',(1.,0.,0.));
#316=DIRECTION('',(0.,1.,0.));
#317=DIRECTION('',(0.,-1.,0.));
#318=DIRECTION('',(1.,0.,0.));
#319=DIRECTION('',(0.,1.,0.));
#320=DIRECTION('',(0.,-1.,0.));
#321=DIRECTION('',(1.,0.,0.));
#322=DIRECTION('',(0.,1.,0.));
#323=DIRECTION('',(0.,0.,1.));
#324=DIRECTION('',(0.,1.,0.));
#325=DIRECTION('',(1.,0.,0.));
#326=DIRECTION('',(0.,1.,0.));
#327=DIRECTION('',(0.,0.,1.));
#328=DIRECTION('',(0.,-1.,0.));
#329=DIRECTION('',(0.,0.,-1.));
#330=DIRECTION('',(0.,-1.,0.));
#331=DIRECTION('',(0.,0.,-1.));
#332=DIRECTION('',(-1.,0.,-2.50106215355426E-16));
#333=DIRECTION('',(0.,0.,1.));
#334=DIRECTION('',(1.,0.,-3.21565134028405E-16));
#335=DIRECTION('',(1.,0.,-3.21565134028405E-16));
#336=DIRECTION('',(0.,0.,-1.));
#337=DIRECTION('',(-1.,0.,-2.50106215355426E-16));
#338=DIRECTION('',(0.,-1.,0.));
#339=DIRECTION('',(1.,0.,0.));
#340=DIRECTION('',(0.,-1.,0.));
#341=DIRECTION('',(1.,0.,0.));
#342=DIRECTION('',(0.,1.,0.));
#343=DIRECTION('',(0.,0.,1.));
#344=DIRECTION('',(2.50106215355426E-16,0.,-1.));
#345=DIRECTION('',(-1.,0.,-2.50106215355426E-16));
#346=DIRECTION('',(-1.,0.,-2.50106215355426E-16));
#347=DIRECTION('',(0.,1.,0.));
#348=DIRECTION('',(-1.,0.,0.));
#349=DIRECTION('',(0.,0.,1.));
#350=DIRECTION('',(0.,0.,1.));
#351=DIRECTION('',(0.,1.,0.));
#352=DIRECTION('',(3.21565134028405E-16,0.,1.));
#353=DIRECTION('',(1.,0.,-3.21565134028405E-16));
#354=DIRECTION('',(1.,0.,-3.21565134028405E-16));
#355=DIRECTION('',(0.,1.,0.));
#356=DIRECTION('',(0.,0.,1.));
#357=DIRECTION('',(0.,-1.,0.));
#358=DIRECTION('',(1.,0.,0.));
#359=DIRECTION('',(0.,-1.,0.));
#360=DIRECTION('',(0.,0.,-1.));
#361=DIRECTION('',(2.50106215355426E-16,0.,-1.));
#362=DIRECTION('',(-1.,0.,-2.50106215355426E-16));
#363=DIRECTION('',(0.,1.,0.));
#364=DIRECTION('',(-1.,0.,-2.50106215355426E-16));
#365=DIRECTION('',(3.21565134028405E-16,0.,1.));
#366=DIRECTION('',(1.,0.,-3.21565134028405E-16));
#367=DIRECTION('',(1.,0.,-3.21565134028405E-16));
#368=DIRECTION('',(0.,1.,0.));
#369=DIRECTION('',(0.,1.,0.));
#370=DIRECTION('',(0.,0.,1.));
#371=DIRECTION('',(0.,-1.,0.));
#372=DIRECTION('',(1.,0.,0.));
#373=DIRECTION('',(1.,0.,0.));
#374=DIRECTION('',(0.,0.,-1.));
#375=DIRECTION('',(0.,0.,-1.));
#376=DIRECTION('',(0.,-1.,0.));
#377=DIRECTION('',(0.,0.,-1.));
#378=CARTESIAN_POINT('',(0.,0.,0.));
#379=CARTESIAN_POINT('',(0.,-17.,0.));
#380=CARTESIAN_POINT('',(0.,-17.,0.));
#381=CARTESIAN_POINT('',(8.25,-17.,0.));
#382=CARTESIAN_POINT('',(7.86209259675819,-2.,-2.5));
#383=CARTESIAN_POINT('',(7.86209259675819,-2.,-2.5));
#384=CARTESIAN_POINT('',(7.86209259675819,0.,-2.5));
#385=CARTESIAN_POINT('',(0.,-2.,0.));
#386=CARTESIAN_POINT('',(7.86209259675819,-2.,2.5));
#387=CARTESIAN_POINT('',(7.8620925967582,-2.,2.49999999999999));
#388=CARTESIAN_POINT('',(7.8620925967582,0.,2.49999999999999));
#389=CARTESIAN_POINT('',(0.,0.,0.));
#390=CARTESIAN_POINT('',(-7.86209259675819,0.,2.5));
#391=CARTESIAN_POINT('',(-7.86209259675819,-2.,2.5));
#392=CARTESIAN_POINT('',(-7.86209259675819,-2.,2.5));
#393=CARTESIAN_POINT('',(0.,-2.,0.));
#394=CARTESIAN_POINT('',(-7.8620925967582,-2.,-2.5));
#395=CARTESIAN_POINT('',(-7.8620925967582,-2.,-2.49999999999999));
#396=CARTESIAN_POINT('',(-7.8620925967582,0.,-2.49999999999999));
#397=CARTESIAN_POINT('',(0.,0.,0.));
#398=CARTESIAN_POINT('',(0.,-17.,0.));
#399=CARTESIAN_POINT('',(0.,-17.,0.));
#400=CARTESIAN_POINT('',(6.25,-17.,0.));
#401=CARTESIAN_POINT('',(0.,-2.,0.));
#402=CARTESIAN_POINT('',(0.,-2.,6.25));
#403=CARTESIAN_POINT('',(0.,-17.,0.));
#404=CARTESIAN_POINT('',(0.,0.,0.));
#405=CARTESIAN_POINT('',(-7.8620925967582,0.,-2.5));
#406=CARTESIAN_POINT('',(-20.,0.,-2.5));
#407=CARTESIAN_POINT('',(-20.,0.,-2.5));
#408=CARTESIAN_POINT('',(-20.,0.,2.5));
#409=CARTESIAN_POINT('',(-20.,0.,2.5));
#410=CARTESIAN_POINT('',(7.8620925967582,0.,2.5));
#411=CARTESIAN_POINT('',(20.,0.,2.49999999999999));
#412=CARTESIAN_POINT('',(20.,0.,2.49999999999999));
#413=CARTESIAN_POINT('',(20.,0.,-2.5));
#414=CARTESIAN_POINT('',(20.,0.,-2.5));
#415=CARTESIAN_POINT('',(-17.5414667920442,0.,4.1057046032062E-15));
#416=CARTESIAN_POINT('',(-15.7914667920442,0.,4.1057046032062E-15));
#417=CARTESIAN_POINT('',(17.4585332079558,0.,0.));
#418=CARTESIAN_POINT('',(19.2085332079558,0.,0.));
#419=CARTESIAN_POINT('',(0.,-2.,0.));
#420=CARTESIAN_POINT('',(-7.8620925967582,-2.,-2.5));
#421=CARTESIAN_POINT('',(-7.8620925967582,-2.,-2.5));
#422=CARTESIAN_POINT('',(-20.,-2.,-2.5));
#423=CARTESIAN_POINT('',(-20.,-2.,-2.5));
#424=CARTESIAN_POINT('',(-20.,-2.,-2.5));
#425=CARTESIAN_POINT('',(-20.,-2.,-2.5));
#426=CARTESIAN_POINT('',(-20.,-2.,2.5));
#427=CARTESIAN_POINT('',(-20.,-2.,2.5));
#428=CARTESIAN_POINT('',(-20.,-2.,2.5));
#429=CARTESIAN_POINT('',(-20.,-2.,2.5));
#430=CARTESIAN_POINT('',(-17.5414667920442,-2.,4.1057046032062E-15));
#431=CARTESIAN_POINT('',(-17.5414667920442,-2.,4.1057046032062E-15));
#432=CARTESIAN_POINT('',(-15.7914667920442,-2.,4.1057046032062E-15));
#433=CARTESIAN_POINT('',(0.,-2.,0.));
#434=CARTESIAN_POINT('',(20.,-2.,-2.5));
#435=CARTESIAN_POINT('',(20.,-2.,-2.5));
#436=CARTESIAN_POINT('',(20.,-2.,-2.5));
#437=CARTESIAN_POINT('',(20.,-2.,-2.5));
#438=CARTESIAN_POINT('',(7.8620925967582,-2.,2.5));
#439=CARTESIAN_POINT('',(7.8620925967582,-2.,2.5));
#440=CARTESIAN_POINT('',(20.,-2.,2.49999999999999));
#441=CARTESIAN_POINT('',(20.,-2.,2.49999999999999));
#442=CARTESIAN_POINT('',(17.4585332079558,-2.,0.));
#443=CARTESIAN_POINT('',(17.4585332079558,-2.,0.));
#444=CARTESIAN_POINT('',(19.2085332079558,-2.,0.));
#445=CARTESIAN_POINT('',(20.,-2.,2.49999999999999));
#446=CARTESIAN_POINT('',(20.,-2.,2.49999999999999));
#447=CARTESIAN_POINT('',(0.,-2.,0.));
#448=MECHANICAL_DESIGN_GEOMETRIC_PRESENTATION_REPRESENTATION('',(#266),
#449);
#449=(
GEOMETRIC_REPRESENTATION_CONTEXT(3)
GLOBAL_UNCERTAINTY_ASSIGNED_CONTEXT((#450))
GLOBAL_UNIT_ASSIGNED_CONTEXT((#453,#452,#451))
REPRESENTATION_CONTEXT('Pièce1','TOP_LEVEL_ASSEMBLY_PART')
);
#450=UNCERTAINTY_MEASURE_WITH_UNIT(LENGTH_MEASURE(0.005),#453,
'DISTANCE_ACCURACY_VALUE','Maximum Tolerance applied to model');
#451=(
NAMED_UNIT(*)
SI_UNIT($,.STERADIAN.)
SOLID_ANGLE_UNIT()
);
#452=(
NAMED_UNIT(*)
PLANE_ANGLE_UNIT()
SI_UNIT($,.RADIAN.)
);
#453=(
LENGTH_UNIT()
NAMED_UNIT(*)
SI_UNIT(.MILLI.,.METRE.)
);
#454=PRODUCT_DEFINITION_SHAPE('','',#455);
#455=PRODUCT_DEFINITION('','',#457,#456);
#456=PRODUCT_DEFINITION_CONTEXT('',#463,'design');
#457=PRODUCT_DEFINITION_FORMATION_WITH_SPECIFIED_SOURCE('','',#459,
 .NOT_KNOWN.);
#458=PRODUCT_RELATED_PRODUCT_CATEGORY('','',(#459));
#459=PRODUCT('Pièce1','Pièce1','Pièce1',(#461));
#460=PRODUCT_CATEGORY('','');
#461=PRODUCT_CONTEXT('',#463,'mechanical');
#462=APPLICATION_PROTOCOL_DEFINITION('international standard',
'automotive_design',2010,#463);
#463=APPLICATION_CONTEXT(
'core data for automotive mechanical design processes');
ENDSEC;
END-ISO-10303-21;
