ISO-10303-21;
HEADER;
/* Generated by software containing ST-Developer
 * from STEP Tools, Inc. (www.steptools.com) 
 */

FILE_DESCRIPTION(
/* description */ ('AXE'),
/* implementation_level */ '2;1');

FILE_NAME(
/* name */ 'C:\\Users\\angue\\Desktop\\10151457-2049.stp',
/* time_stamp */ '2019-04-30T10:14:20+02:00',
/* author */ ('angue'),
/* organization */ (''),
/* preprocessor_version */ 'ST-DEVELOPER v17',
/* originating_system */ 'Autodesk Inventor 2019',
/* authorisation */ '');

FILE_SCHEMA (('AUTOMOTIVE_DESIGN { 1 0 10303 214 3 1 1 }'));
ENDSEC;

DATA;
#10=MECHANICAL_DESIGN_GEOMETRIC_PRESENTATION_REPRESENTATION('',(#13),#402);
#11=SHAPE_REPRESENTATION_RELATIONSHIP('SRR','None',#409,#12);
#12=ADVANCED_BREP_SHAPE_REPRESENTATION('',(#14),#401);
#13=STYLED_ITEM('',(#418),#14);
#14=MANIFOLD_SOLID_BREP('Solide1',#210);
#15=FACE_BOUND('',#48,.T.);
#16=FACE_BOUND('',#50,.T.);
#17=FACE_BOUND('',#56,.T.);
#18=FACE_BOUND('',#58,.T.);
#19=PLANE('',#236);
#20=PLANE('',#242);
#21=PLANE('',#245);
#22=PLANE('',#252);
#23=PLANE('',#258);
#24=PLANE('',#261);
#25=CYLINDRICAL_SURFACE('',#233,1.5);
#26=CYLINDRICAL_SURFACE('',#237,1.4);
#27=CYLINDRICAL_SURFACE('',#249,1.5);
#28=CYLINDRICAL_SURFACE('',#253,1.4);
#29=CYLINDRICAL_SURFACE('',#262,1.5);
#30=FACE_OUTER_BOUND('',#43,.T.);
#31=FACE_OUTER_BOUND('',#44,.T.);
#32=FACE_OUTER_BOUND('',#45,.T.);
#33=FACE_OUTER_BOUND('',#46,.T.);
#34=FACE_OUTER_BOUND('',#47,.T.);
#35=FACE_OUTER_BOUND('',#49,.T.);
#36=FACE_OUTER_BOUND('',#51,.T.);
#37=FACE_OUTER_BOUND('',#52,.T.);
#38=FACE_OUTER_BOUND('',#53,.T.);
#39=FACE_OUTER_BOUND('',#54,.T.);
#40=FACE_OUTER_BOUND('',#55,.T.);
#41=FACE_OUTER_BOUND('',#57,.T.);
#42=FACE_OUTER_BOUND('',#59,.T.);
#43=EDGE_LOOP('',(#141,#142,#143,#144));
#44=EDGE_LOOP('',(#145,#146,#147,#148,#149));
#45=EDGE_LOOP('',(#150));
#46=EDGE_LOOP('',(#151,#152,#153,#154,#155,#156));
#47=EDGE_LOOP('',(#157,#158));
#48=EDGE_LOOP('',(#159,#160));
#49=EDGE_LOOP('',(#161,#162));
#50=EDGE_LOOP('',(#163,#164));
#51=EDGE_LOOP('',(#165,#166,#167,#168));
#52=EDGE_LOOP('',(#169,#170,#171,#172,#173));
#53=EDGE_LOOP('',(#174));
#54=EDGE_LOOP('',(#175,#176,#177,#178,#179,#180));
#55=EDGE_LOOP('',(#181,#182));
#56=EDGE_LOOP('',(#183,#184));
#57=EDGE_LOOP('',(#185,#186));
#58=EDGE_LOOP('',(#187,#188));
#59=EDGE_LOOP('',(#189,#190,#191,#192,#193,#194));
#60=LINE('',#343,#67);
#61=LINE('',#347,#68);
#62=LINE('',#358,#69);
#63=LINE('',#372,#70);
#64=LINE('',#376,#71);
#65=LINE('',#386,#72);
#66=LINE('',#398,#73);
#67=VECTOR('',#269,1.45);
#68=VECTOR('',#274,1.5);
#69=VECTOR('',#287,1.4);
#70=VECTOR('',#304,1.45);
#71=VECTOR('',#309,1.5);
#72=VECTOR('',#320,1.4);
#73=VECTOR('',#337,1.5);
#74=CIRCLE('',#231,1.4);
#75=CIRCLE('',#232,1.5);
#76=CIRCLE('',#234,1.5);
#77=CIRCLE('',#235,1.5);
#78=CIRCLE('',#238,1.4);
#79=CIRCLE('',#239,1.4);
#80=CIRCLE('',#240,1.4);
#81=CIRCLE('',#241,1.4);
#82=CIRCLE('',#243,1.5);
#83=CIRCLE('',#244,1.5);
#84=CIRCLE('',#247,1.4);
#85=CIRCLE('',#248,1.5);
#86=CIRCLE('',#250,1.5);
#87=CIRCLE('',#251,1.5);
#88=CIRCLE('',#254,1.4);
#89=CIRCLE('',#255,1.4);
#90=CIRCLE('',#256,1.4);
#91=CIRCLE('',#257,1.4);
#92=CIRCLE('',#259,1.5);
#93=CIRCLE('',#260,1.5);
#94=VERTEX_POINT('',#340);
#95=VERTEX_POINT('',#342);
#96=VERTEX_POINT('',#346);
#97=VERTEX_POINT('',#348);
#98=VERTEX_POINT('',#353);
#99=VERTEX_POINT('',#354);
#100=VERTEX_POINT('',#357);
#101=VERTEX_POINT('',#359);
#102=VERTEX_POINT('',#363);
#103=VERTEX_POINT('',#364);
#104=VERTEX_POINT('',#369);
#105=VERTEX_POINT('',#371);
#106=VERTEX_POINT('',#375);
#107=VERTEX_POINT('',#377);
#108=VERTEX_POINT('',#382);
#109=VERTEX_POINT('',#383);
#110=VERTEX_POINT('',#385);
#111=VERTEX_POINT('',#387);
#112=VERTEX_POINT('',#392);
#113=VERTEX_POINT('',#393);
#114=EDGE_CURVE('',#94,#94,#74,.T.);
#115=EDGE_CURVE('',#94,#95,#60,.T.);
#116=EDGE_CURVE('',#95,#95,#75,.T.);
#117=EDGE_CURVE('',#95,#96,#61,.T.);
#118=EDGE_CURVE('',#97,#96,#76,.T.);
#119=EDGE_CURVE('',#96,#97,#77,.T.);
#120=EDGE_CURVE('',#98,#99,#78,.T.);
#121=EDGE_CURVE('',#99,#98,#79,.T.);
#122=EDGE_CURVE('',#99,#100,#62,.T.);
#123=EDGE_CURVE('',#100,#101,#80,.T.);
#124=EDGE_CURVE('',#101,#100,#81,.T.);
#125=EDGE_CURVE('',#102,#103,#82,.T.);
#126=EDGE_CURVE('',#103,#102,#83,.T.);
#127=EDGE_CURVE('',#104,#104,#84,.T.);
#128=EDGE_CURVE('',#104,#105,#63,.T.);
#129=EDGE_CURVE('',#105,#105,#85,.T.);
#130=EDGE_CURVE('',#105,#106,#64,.T.);
#131=EDGE_CURVE('',#106,#107,#86,.T.);
#132=EDGE_CURVE('',#107,#106,#87,.T.);
#133=EDGE_CURVE('',#108,#109,#88,.T.);
#134=EDGE_CURVE('',#109,#110,#65,.T.);
#135=EDGE_CURVE('',#111,#110,#89,.T.);
#136=EDGE_CURVE('',#110,#111,#90,.T.);
#137=EDGE_CURVE('',#109,#108,#91,.T.);
#138=EDGE_CURVE('',#112,#113,#92,.T.);
#139=EDGE_CURVE('',#113,#112,#93,.T.);
#140=EDGE_CURVE('',#113,#103,#66,.T.);
#141=ORIENTED_EDGE('',*,*,#114,.F.);
#142=ORIENTED_EDGE('',*,*,#115,.T.);
#143=ORIENTED_EDGE('',*,*,#116,.F.);
#144=ORIENTED_EDGE('',*,*,#115,.F.);
#145=ORIENTED_EDGE('',*,*,#116,.T.);
#146=ORIENTED_EDGE('',*,*,#117,.T.);
#147=ORIENTED_EDGE('',*,*,#118,.F.);
#148=ORIENTED_EDGE('',*,*,#119,.F.);
#149=ORIENTED_EDGE('',*,*,#117,.F.);
#150=ORIENTED_EDGE('',*,*,#114,.T.);
#151=ORIENTED_EDGE('',*,*,#120,.F.);
#152=ORIENTED_EDGE('',*,*,#121,.F.);
#153=ORIENTED_EDGE('',*,*,#122,.T.);
#154=ORIENTED_EDGE('',*,*,#123,.T.);
#155=ORIENTED_EDGE('',*,*,#124,.T.);
#156=ORIENTED_EDGE('',*,*,#122,.F.);
#157=ORIENTED_EDGE('',*,*,#125,.T.);
#158=ORIENTED_EDGE('',*,*,#126,.T.);
#159=ORIENTED_EDGE('',*,*,#120,.T.);
#160=ORIENTED_EDGE('',*,*,#121,.T.);
#161=ORIENTED_EDGE('',*,*,#118,.T.);
#162=ORIENTED_EDGE('',*,*,#119,.T.);
#163=ORIENTED_EDGE('',*,*,#124,.F.);
#164=ORIENTED_EDGE('',*,*,#123,.F.);
#165=ORIENTED_EDGE('',*,*,#127,.T.);
#166=ORIENTED_EDGE('',*,*,#128,.T.);
#167=ORIENTED_EDGE('',*,*,#129,.T.);
#168=ORIENTED_EDGE('',*,*,#128,.F.);
#169=ORIENTED_EDGE('',*,*,#129,.F.);
#170=ORIENTED_EDGE('',*,*,#130,.T.);
#171=ORIENTED_EDGE('',*,*,#131,.T.);
#172=ORIENTED_EDGE('',*,*,#132,.T.);
#173=ORIENTED_EDGE('',*,*,#130,.F.);
#174=ORIENTED_EDGE('',*,*,#127,.F.);
#175=ORIENTED_EDGE('',*,*,#133,.T.);
#176=ORIENTED_EDGE('',*,*,#134,.T.);
#177=ORIENTED_EDGE('',*,*,#135,.F.);
#178=ORIENTED_EDGE('',*,*,#136,.F.);
#179=ORIENTED_EDGE('',*,*,#134,.F.);
#180=ORIENTED_EDGE('',*,*,#137,.T.);
#181=ORIENTED_EDGE('',*,*,#138,.F.);
#182=ORIENTED_EDGE('',*,*,#139,.F.);
#183=ORIENTED_EDGE('',*,*,#133,.F.);
#184=ORIENTED_EDGE('',*,*,#137,.F.);
#185=ORIENTED_EDGE('',*,*,#132,.F.);
#186=ORIENTED_EDGE('',*,*,#131,.F.);
#187=ORIENTED_EDGE('',*,*,#135,.T.);
#188=ORIENTED_EDGE('',*,*,#136,.T.);
#189=ORIENTED_EDGE('',*,*,#138,.T.);
#190=ORIENTED_EDGE('',*,*,#140,.T.);
#191=ORIENTED_EDGE('',*,*,#125,.F.);
#192=ORIENTED_EDGE('',*,*,#126,.F.);
#193=ORIENTED_EDGE('',*,*,#140,.F.);
#194=ORIENTED_EDGE('',*,*,#139,.T.);
#195=CONICAL_SURFACE('',#230,1.45,0.785398163397448);
#196=CONICAL_SURFACE('',#246,1.45,0.785398163397448);
#197=ADVANCED_FACE('',(#30),#195,.T.);
#198=ADVANCED_FACE('',(#31),#25,.T.);
#199=ADVANCED_FACE('',(#32),#19,.F.);
#200=ADVANCED_FACE('',(#33),#26,.T.);
#201=ADVANCED_FACE('',(#34,#15),#20,.T.);
#202=ADVANCED_FACE('',(#35,#16),#21,.T.);
#203=ADVANCED_FACE('',(#36),#196,.T.);
#204=ADVANCED_FACE('',(#37),#27,.T.);
#205=ADVANCED_FACE('',(#38),#22,.T.);
#206=ADVANCED_FACE('',(#39),#28,.T.);
#207=ADVANCED_FACE('',(#40,#17),#23,.F.);
#208=ADVANCED_FACE('',(#41,#18),#24,.F.);
#209=ADVANCED_FACE('',(#42),#29,.T.);
#210=CLOSED_SHELL('',(#197,#198,#199,#200,#201,#202,#203,#204,#205,#206,
#207,#208,#209));
#211=DERIVED_UNIT_ELEMENT(#213,1.);
#212=DERIVED_UNIT_ELEMENT(#404,3.);
#213=(
MASS_UNIT()
NAMED_UNIT(*)
SI_UNIT($,.GRAM.)
);
#214=DERIVED_UNIT((#211,#212));
#215=MEASURE_REPRESENTATION_ITEM('density measure',
POSITIVE_RATIO_MEASURE(1.),#214);
#216=PROPERTY_DEFINITION_REPRESENTATION(#221,#218);
#217=PROPERTY_DEFINITION_REPRESENTATION(#222,#219);
#218=REPRESENTATION('material name',(#220),#401);
#219=REPRESENTATION('density',(#215),#401);
#220=DESCRIPTIVE_REPRESENTATION_ITEM('ACIER','ACIER');
#221=PROPERTY_DEFINITION('material property','material name',#411);
#222=PROPERTY_DEFINITION('material property','density of part',#411);
#223=DATE_TIME_ROLE('creation_date');
#224=APPLIED_DATE_AND_TIME_ASSIGNMENT(#225,#223,(#411));
#225=DATE_AND_TIME(#226,#227);
#226=CALENDAR_DATE(2017,11,1);
#227=LOCAL_TIME(20,39,35.,#228);
#228=COORDINATED_UNIVERSAL_TIME_OFFSET(0,0,.BEHIND.);
#229=AXIS2_PLACEMENT_3D('placement',#338,#263,#264);
#230=AXIS2_PLACEMENT_3D('',#339,#265,#266);
#231=AXIS2_PLACEMENT_3D('',#341,#267,#268);
#232=AXIS2_PLACEMENT_3D('',#344,#270,#271);
#233=AXIS2_PLACEMENT_3D('',#345,#272,#273);
#234=AXIS2_PLACEMENT_3D('',#349,#275,#276);
#235=AXIS2_PLACEMENT_3D('',#350,#277,#278);
#236=AXIS2_PLACEMENT_3D('',#351,#279,#280);
#237=AXIS2_PLACEMENT_3D('',#352,#281,#282);
#238=AXIS2_PLACEMENT_3D('',#355,#283,#284);
#239=AXIS2_PLACEMENT_3D('',#356,#285,#286);
#240=AXIS2_PLACEMENT_3D('',#360,#288,#289);
#241=AXIS2_PLACEMENT_3D('',#361,#290,#291);
#242=AXIS2_PLACEMENT_3D('',#362,#292,#293);
#243=AXIS2_PLACEMENT_3D('',#365,#294,#295);
#244=AXIS2_PLACEMENT_3D('',#366,#296,#297);
#245=AXIS2_PLACEMENT_3D('',#367,#298,#299);
#246=AXIS2_PLACEMENT_3D('',#368,#300,#301);
#247=AXIS2_PLACEMENT_3D('',#370,#302,#303);
#248=AXIS2_PLACEMENT_3D('',#373,#305,#306);
#249=AXIS2_PLACEMENT_3D('',#374,#307,#308);
#250=AXIS2_PLACEMENT_3D('',#378,#310,#311);
#251=AXIS2_PLACEMENT_3D('',#379,#312,#313);
#252=AXIS2_PLACEMENT_3D('',#380,#314,#315);
#253=AXIS2_PLACEMENT_3D('',#381,#316,#317);
#254=AXIS2_PLACEMENT_3D('',#384,#318,#319);
#255=AXIS2_PLACEMENT_3D('',#388,#321,#322);
#256=AXIS2_PLACEMENT_3D('',#389,#323,#324);
#257=AXIS2_PLACEMENT_3D('',#390,#325,#326);
#258=AXIS2_PLACEMENT_3D('',#391,#327,#328);
#259=AXIS2_PLACEMENT_3D('',#394,#329,#330);
#260=AXIS2_PLACEMENT_3D('',#395,#331,#332);
#261=AXIS2_PLACEMENT_3D('',#396,#333,#334);
#262=AXIS2_PLACEMENT_3D('',#397,#335,#336);
#263=DIRECTION('axis',(0.,0.,1.));
#264=DIRECTION('refdir',(1.,0.,0.));
#265=DIRECTION('center_axis',(0.,0.,1.));
#266=DIRECTION('ref_axis',(-1.,0.,0.));
#267=DIRECTION('center_axis',(0.,0.,-1.));
#268=DIRECTION('ref_axis',(-1.,0.,0.));
#269=DIRECTION('',(0.707106781186547,8.65956056235493E-17,0.707106781186547));
#270=DIRECTION('center_axis',(0.,0.,1.));
#271=DIRECTION('ref_axis',(-1.,0.,0.));
#272=DIRECTION('center_axis',(0.,0.,1.));
#273=DIRECTION('ref_axis',(-1.,0.,0.));
#274=DIRECTION('',(0.,0.,1.));
#275=DIRECTION('center_axis',(0.,0.,1.));
#276=DIRECTION('ref_axis',(-1.,0.,0.));
#277=DIRECTION('center_axis',(0.,0.,1.));
#278=DIRECTION('ref_axis',(-1.,0.,0.));
#279=DIRECTION('center_axis',(0.,0.,1.));
#280=DIRECTION('ref_axis',(1.,0.,0.));
#281=DIRECTION('center_axis',(0.,0.,1.));
#282=DIRECTION('ref_axis',(0.,1.,0.));
#283=DIRECTION('center_axis',(0.,0.,1.));
#284=DIRECTION('ref_axis',(1.,0.,0.));
#285=DIRECTION('center_axis',(0.,0.,1.));
#286=DIRECTION('ref_axis',(1.,0.,0.));
#287=DIRECTION('',(0.,0.,-1.));
#288=DIRECTION('center_axis',(0.,0.,1.));
#289=DIRECTION('ref_axis',(1.,0.,0.));
#290=DIRECTION('center_axis',(0.,0.,1.));
#291=DIRECTION('ref_axis',(1.,0.,0.));
#292=DIRECTION('center_axis',(0.,0.,-1.));
#293=DIRECTION('ref_axis',(-1.,0.,0.));
#294=DIRECTION('center_axis',(0.,0.,-1.));
#295=DIRECTION('ref_axis',(-1.,0.,0.));
#296=DIRECTION('center_axis',(0.,0.,-1.));
#297=DIRECTION('ref_axis',(-1.,0.,0.));
#298=DIRECTION('center_axis',(0.,0.,1.));
#299=DIRECTION('ref_axis',(1.,0.,0.));
#300=DIRECTION('center_axis',(0.,0.,-1.));
#301=DIRECTION('ref_axis',(-1.,0.,0.));
#302=DIRECTION('center_axis',(0.,0.,-1.));
#303=DIRECTION('ref_axis',(-1.,0.,0.));
#304=DIRECTION('',(0.707106781186547,8.65956056235493E-17,-0.707106781186547));
#305=DIRECTION('center_axis',(0.,0.,1.));
#306=DIRECTION('ref_axis',(-1.,0.,0.));
#307=DIRECTION('center_axis',(0.,0.,1.));
#308=DIRECTION('ref_axis',(-1.,0.,0.));
#309=DIRECTION('',(0.,0.,-1.));
#310=DIRECTION('center_axis',(0.,0.,1.));
#311=DIRECTION('ref_axis',(-1.,0.,0.));
#312=DIRECTION('center_axis',(0.,0.,1.));
#313=DIRECTION('ref_axis',(-1.,0.,0.));
#314=DIRECTION('center_axis',(0.,0.,1.));
#315=DIRECTION('ref_axis',(1.,0.,0.));
#316=DIRECTION('center_axis',(0.,0.,1.));
#317=DIRECTION('ref_axis',(0.,1.,0.));
#318=DIRECTION('center_axis',(0.,0.,1.));
#319=DIRECTION('ref_axis',(1.,0.,0.));
#320=DIRECTION('',(0.,0.,1.));
#321=DIRECTION('center_axis',(0.,0.,1.));
#322=DIRECTION('ref_axis',(1.,0.,0.));
#323=DIRECTION('center_axis',(0.,0.,1.));
#324=DIRECTION('ref_axis',(1.,0.,0.));
#325=DIRECTION('center_axis',(0.,0.,1.));
#326=DIRECTION('ref_axis',(1.,0.,0.));
#327=DIRECTION('center_axis',(0.,0.,-1.));
#328=DIRECTION('ref_axis',(-1.,0.,0.));
#329=DIRECTION('center_axis',(0.,0.,-1.));
#330=DIRECTION('ref_axis',(-1.,0.,0.));
#331=DIRECTION('center_axis',(0.,0.,-1.));
#332=DIRECTION('ref_axis',(-1.,0.,0.));
#333=DIRECTION('center_axis',(0.,0.,1.));
#334=DIRECTION('ref_axis',(1.,0.,0.));
#335=DIRECTION('center_axis',(0.,0.,1.));
#336=DIRECTION('ref_axis',(-1.,0.,0.));
#337=DIRECTION('',(0.,0.,-1.));
#338=CARTESIAN_POINT('',(0.,0.,0.));
#339=CARTESIAN_POINT('Origin',(0.,0.,-9.05));
#340=CARTESIAN_POINT('',(1.4,-1.71450551880629E-16,-9.1));
#341=CARTESIAN_POINT('Origin',(0.,0.,-9.1));
#342=CARTESIAN_POINT('',(1.5,1.83697019872103E-16,-9.));
#343=CARTESIAN_POINT('',(1.45,1.77573785876366E-16,-9.05));
#344=CARTESIAN_POINT('Origin',(0.,0.,-9.));
#345=CARTESIAN_POINT('Origin',(0.,0.,0.));
#346=CARTESIAN_POINT('',(1.5,1.83697019872103E-16,-8.8));
#347=CARTESIAN_POINT('',(1.5,1.83697019872103E-16,0.));
#348=CARTESIAN_POINT('',(0.,1.5,-8.8));
#349=CARTESIAN_POINT('Origin',(0.,0.,-8.8));
#350=CARTESIAN_POINT('Origin',(0.,0.,-8.8));
#351=CARTESIAN_POINT('Origin',(-1.69505727298391E-16,3.85494105772624E-17,
-9.1));
#352=CARTESIAN_POINT('Origin',(0.,0.,-8.55));
#353=CARTESIAN_POINT('',(0.,1.4,-8.3));
#354=CARTESIAN_POINT('',(1.71450551880629E-16,-1.4,-8.3));
#355=CARTESIAN_POINT('Origin',(0.,0.,-8.3));
#356=CARTESIAN_POINT('Origin',(0.,0.,-8.3));
#357=CARTESIAN_POINT('',(1.71450551880629E-16,-1.4,-8.8));
#358=CARTESIAN_POINT('',(1.71450551880629E-16,-1.4,-8.55));
#359=CARTESIAN_POINT('',(0.,1.4,-8.8));
#360=CARTESIAN_POINT('Origin',(0.,0.,-8.8));
#361=CARTESIAN_POINT('Origin',(0.,0.,-8.8));
#362=CARTESIAN_POINT('Origin',(0.,1.5,-8.3));
#363=CARTESIAN_POINT('',(0.,1.5,-8.3));
#364=CARTESIAN_POINT('',(1.5,1.83697019872103E-16,-8.3));
#365=CARTESIAN_POINT('Origin',(0.,0.,-8.3));
#366=CARTESIAN_POINT('Origin',(0.,0.,-8.3));
#367=CARTESIAN_POINT('Origin',(0.,1.4,-8.8));
#368=CARTESIAN_POINT('Origin',(0.,0.,9.05));
#369=CARTESIAN_POINT('',(1.4,-1.71450551880629E-16,9.1));
#370=CARTESIAN_POINT('Origin',(0.,0.,9.1));
#371=CARTESIAN_POINT('',(1.5,1.83697019872103E-16,9.));
#372=CARTESIAN_POINT('',(1.45,1.77573785876366E-16,9.05));
#373=CARTESIAN_POINT('Origin',(0.,0.,9.));
#374=CARTESIAN_POINT('Origin',(0.,0.,0.));
#375=CARTESIAN_POINT('',(1.5,1.83697019872103E-16,8.8));
#376=CARTESIAN_POINT('',(1.5,1.83697019872103E-16,0.));
#377=CARTESIAN_POINT('',(0.,1.5,8.8));
#378=CARTESIAN_POINT('Origin',(0.,0.,8.8));
#379=CARTESIAN_POINT('Origin',(0.,0.,8.8));
#380=CARTESIAN_POINT('Origin',(-1.69505727298391E-16,3.85494105772624E-17,
9.1));
#381=CARTESIAN_POINT('Origin',(0.,0.,8.55));
#382=CARTESIAN_POINT('',(0.,1.4,8.3));
#383=CARTESIAN_POINT('',(1.71450551880629E-16,-1.4,8.3));
#384=CARTESIAN_POINT('Origin',(0.,0.,8.3));
#385=CARTESIAN_POINT('',(1.71450551880629E-16,-1.4,8.8));
#386=CARTESIAN_POINT('',(1.71450551880629E-16,-1.4,8.55));
#387=CARTESIAN_POINT('',(0.,1.4,8.8));
#388=CARTESIAN_POINT('Origin',(0.,0.,8.8));
#389=CARTESIAN_POINT('Origin',(0.,0.,8.8));
#390=CARTESIAN_POINT('Origin',(0.,0.,8.3));
#391=CARTESIAN_POINT('Origin',(0.,1.5,8.3));
#392=CARTESIAN_POINT('',(0.,1.5,8.3));
#393=CARTESIAN_POINT('',(1.5,1.83697019872103E-16,8.3));
#394=CARTESIAN_POINT('Origin',(0.,0.,8.3));
#395=CARTESIAN_POINT('Origin',(0.,0.,8.3));
#396=CARTESIAN_POINT('Origin',(0.,1.4,8.8));
#397=CARTESIAN_POINT('Origin',(0.,0.,0.));
#398=CARTESIAN_POINT('',(1.5,1.83697019872103E-16,0.));
#399=UNCERTAINTY_MEASURE_WITH_UNIT(LENGTH_MEASURE(0.01),#403,
'DISTANCE_ACCURACY_VALUE',
'Maximum model space distance between geometric entities at asserted c
onnectivities');
#400=UNCERTAINTY_MEASURE_WITH_UNIT(LENGTH_MEASURE(0.01),#403,
'DISTANCE_ACCURACY_VALUE',
'Maximum model space distance between geometric entities at asserted c
onnectivities');
#401=(
GEOMETRIC_REPRESENTATION_CONTEXT(3)
GLOBAL_UNCERTAINTY_ASSIGNED_CONTEXT((#399))
GLOBAL_UNIT_ASSIGNED_CONTEXT((#403,#406,#405))
REPRESENTATION_CONTEXT('','3D')
);
#402=(
GEOMETRIC_REPRESENTATION_CONTEXT(3)
GLOBAL_UNCERTAINTY_ASSIGNED_CONTEXT((#400))
GLOBAL_UNIT_ASSIGNED_CONTEXT((#403,#406,#405))
REPRESENTATION_CONTEXT('','3D')
);
#403=(
LENGTH_UNIT()
NAMED_UNIT(*)
SI_UNIT(.MILLI.,.METRE.)
);
#404=(
LENGTH_UNIT()
NAMED_UNIT(*)
SI_UNIT(.CENTI.,.METRE.)
);
#405=(
NAMED_UNIT(*)
SI_UNIT($,.STERADIAN.)
SOLID_ANGLE_UNIT()
);
#406=(
NAMED_UNIT(*)
PLANE_ANGLE_UNIT()
SI_UNIT($,.RADIAN.)
);
#407=SHAPE_DEFINITION_REPRESENTATION(#408,#409);
#408=PRODUCT_DEFINITION_SHAPE('',$,#411);
#409=SHAPE_REPRESENTATION('',(#229),#401);
#410=PRODUCT_DEFINITION_CONTEXT('part definition',#415,'design');
#411=PRODUCT_DEFINITION('10151457-2049','10151457-2049',#412,#410);
#412=PRODUCT_DEFINITION_FORMATION('1',$,#417);
#413=PRODUCT_RELATED_PRODUCT_CATEGORY('10151457-2049','10151457-2049',(#417));
#414=APPLICATION_PROTOCOL_DEFINITION('international standard',
'automotive_design',2009,#415);
#415=APPLICATION_CONTEXT(
'Core Data for Automotive Mechanical Design Process');
#416=PRODUCT_CONTEXT('part definition',#415,'mechanical');
#417=PRODUCT('10151457-2049','10151457-2049','AXE',(#416));
#418=PRESENTATION_STYLE_ASSIGNMENT((#419));
#419=SURFACE_STYLE_USAGE(.BOTH.,#420);
#420=SURFACE_SIDE_STYLE('',(#421));
#421=SURFACE_STYLE_FILL_AREA(#422);
#422=FILL_AREA_STYLE('',(#423));
#423=FILL_AREA_STYLE_COLOUR('',#424);
#424=COLOUR_RGB('',0.745098039215686,0.737254901960784,0.729411764705882);
ENDSEC;
END-ISO-10303-21;
