ISO-10303-21;
HEADER;
/* Generated by software containing ST-Developer
 * from STEP Tools, Inc. (www.steptools.com) 
 */
/* OPTION: strings as raw bytes, not using required /X/ escapes */

FILE_DESCRIPTION(
/* description */ ('Unknown'),
/* implementation_level */ '2;1');

FILE_NAME(
/* name */ 'support buse',
/* time_stamp */ '2019-05-31T09:08:50+02:00',
/* author */ ('Unknown'),
/* organization */ ('Unknown'),
/* preprocessor_version */ 'ST-DEVELOPER v16.7',
/* originating_system */ 'DEX',
/* authorisation */ $);

FILE_SCHEMA (('AUTOMOTIVE_DESIGN {1 0 10303 214 3 1 1}'));
ENDSEC;

DATA;
#10=PROPERTY_DEFINITION_REPRESENTATION(#14,#12);
#11=PROPERTY_DEFINITION_REPRESENTATION(#15,#13);
#12=REPRESENTATION('',(#16),#360);
#13=REPRESENTATION('',(#17),#360);
#14=PROPERTY_DEFINITION('pmi validation property','',#365);
#15=PROPERTY_DEFINITION('pmi validation property','',#365);
#16=VALUE_REPRESENTATION_ITEM('number of annotations',COUNT_MEASURE(0.));
#17=VALUE_REPRESENTATION_ITEM('number of views',COUNT_MEASURE(0.));
#18=SHAPE_REPRESENTATION_RELATIONSHIP('','',#238,#19);
#19=ADVANCED_BREP_SHAPE_REPRESENTATION('',(#236),#360);
#20=CONICAL_SURFACE('',#255,15.,0.785398163397448);
#21=B_SPLINE_CURVE_WITH_KNOTS('',3,(#331,#332,#333,#334,#335,#336,#337,
#338,#339,#340,#341,#342,#343,#344,#345,#346,#347,#348,#349),
 .UNSPECIFIED.,.T.,.F.,(1,1,1,1,1,1,1,1,1,1,1,1,1,1,1,1,1,1,1,1,1,1,1),
(-0.0109235600352987,-0.0072823733568658,-0.0036411866784329,3.46944695195361E-18,
0.0036411866784329,0.0072823733568658,0.0109235600352987,0.0145647467137316,
0.0182059333921645,0.0218471200705974,0.0254883067490303,0.0291294934274632,
0.0327706801058961,0.036411866784329,0.0400530534627619,0.0436942401411948,
0.0473354268196277,0.0509766134980606,0.0546178001764935,0.0582589868549264,
0.0619001735333593,0.0655413602117922,0.0691825468902251),.UNSPECIFIED.);
#22=CYLINDRICAL_SURFACE('',#246,15.);
#23=CYLINDRICAL_SURFACE('',#249,137.5);
#24=CYLINDRICAL_SURFACE('',#250,9.3155);
#25=CIRCLE('',#243,137.5);
#26=CIRCLE('',#245,137.5);
#27=CIRCLE('',#247,15.);
#28=CIRCLE('',#248,15.);
#29=CIRCLE('',#251,9.3155);
#30=CIRCLE('',#254,16.);
#31=ORIENTED_EDGE('',*,*,#65,.T.);
#32=ORIENTED_EDGE('',*,*,#66,.F.);
#33=ORIENTED_EDGE('',*,*,#67,.F.);
#34=ORIENTED_EDGE('',*,*,#68,.T.);
#35=ORIENTED_EDGE('',*,*,#69,.T.);
#36=ORIENTED_EDGE('',*,*,#70,.T.);
#37=ORIENTED_EDGE('',*,*,#71,.F.);
#38=ORIENTED_EDGE('',*,*,#72,.T.);
#39=ORIENTED_EDGE('',*,*,#67,.T.);
#40=ORIENTED_EDGE('',*,*,#73,.F.);
#41=ORIENTED_EDGE('',*,*,#69,.F.);
#42=ORIENTED_EDGE('',*,*,#74,.T.);
#43=ORIENTED_EDGE('',*,*,#71,.T.);
#44=ORIENTED_EDGE('',*,*,#75,.F.);
#45=ORIENTED_EDGE('',*,*,#65,.F.);
#46=ORIENTED_EDGE('',*,*,#76,.T.);
#47=ORIENTED_EDGE('',*,*,#77,.T.);
#48=ORIENTED_EDGE('',*,*,#78,.T.);
#49=ORIENTED_EDGE('',*,*,#79,.F.);
#50=ORIENTED_EDGE('',*,*,#74,.F.);
#51=ORIENTED_EDGE('',*,*,#72,.F.);
#52=ORIENTED_EDGE('',*,*,#76,.F.);
#53=ORIENTED_EDGE('',*,*,#68,.F.);
#54=ORIENTED_EDGE('',*,*,#80,.T.);
#55=ORIENTED_EDGE('',*,*,#79,.T.);
#56=ORIENTED_EDGE('',*,*,#78,.F.);
#57=ORIENTED_EDGE('',*,*,#80,.F.);
#58=ORIENTED_EDGE('',*,*,#81,.T.);
#59=ORIENTED_EDGE('',*,*,#73,.T.);
#60=ORIENTED_EDGE('',*,*,#66,.T.);
#61=ORIENTED_EDGE('',*,*,#75,.T.);
#62=ORIENTED_EDGE('',*,*,#70,.F.);
#63=ORIENTED_EDGE('',*,*,#81,.F.);
#64=ORIENTED_EDGE('',*,*,#77,.F.);
#65=EDGE_CURVE('',#82,#83,#95,.T.);
#66=EDGE_CURVE('',#84,#83,#96,.T.);
#67=EDGE_CURVE('',#85,#84,#97,.T.);
#68=EDGE_CURVE('',#85,#82,#98,.F.);
#69=EDGE_CURVE('',#86,#87,#99,.T.);
#70=EDGE_CURVE('',#87,#88,#100,.T.);
#71=EDGE_CURVE('',#89,#88,#101,.T.);
#72=EDGE_CURVE('',#89,#86,#102,.T.);
#73=EDGE_CURVE('',#87,#84,#103,.T.);
#74=EDGE_CURVE('',#86,#85,#25,.T.);
#75=EDGE_CURVE('',#83,#88,#104,.T.);
#76=EDGE_CURVE('',#82,#89,#26,.F.);
#77=EDGE_CURVE('',#90,#90,#27,.T.);
#78=EDGE_CURVE('',#91,#91,#28,.T.);
#79=EDGE_CURVE('',#92,#92,#21,.T.);
#80=EDGE_CURVE('',#93,#93,#29,.F.);
#81=EDGE_CURVE('',#94,#94,#30,.F.);
#82=VERTEX_POINT('',#303);
#83=VERTEX_POINT('',#304);
#84=VERTEX_POINT('',#306);
#85=VERTEX_POINT('',#308);
#86=VERTEX_POINT('',#312);
#87=VERTEX_POINT('',#313);
#88=VERTEX_POINT('',#315);
#89=VERTEX_POINT('',#317);
#90=VERTEX_POINT('',#327);
#91=VERTEX_POINT('',#329);
#92=VERTEX_POINT('',#350);
#93=VERTEX_POINT('',#353);
#94=VERTEX_POINT('',#357);
#95=LINE('',#302,#105);
#96=LINE('',#305,#106);
#97=LINE('',#307,#107);
#98=LINE('',#309,#108);
#99=LINE('',#311,#109);
#100=LINE('',#314,#110);
#101=LINE('',#316,#111);
#102=LINE('',#318,#112);
#103=LINE('',#320,#113);
#104=LINE('',#323,#114);
#105=VECTOR('',#260,1000.);
#106=VECTOR('',#261,1000.);
#107=VECTOR('',#262,1000.);
#108=VECTOR('',#263,1000.);
#109=VECTOR('',#266,1000.);
#110=VECTOR('',#267,1000.);
#111=VECTOR('',#268,1000.);
#112=VECTOR('',#269,1000.);
#113=VECTOR('',#272,1000.);
#114=VECTOR('',#277,1000.);
#115=EDGE_LOOP('',(#31,#32,#33,#34));
#116=EDGE_LOOP('',(#35,#36,#37,#38));
#117=EDGE_LOOP('',(#39,#40,#41,#42));
#118=EDGE_LOOP('',(#43,#44,#45,#46));
#119=EDGE_LOOP('',(#47));
#120=EDGE_LOOP('',(#48));
#121=EDGE_LOOP('',(#49));
#122=EDGE_LOOP('',(#50,#51,#52,#53));
#123=EDGE_LOOP('',(#54));
#124=EDGE_LOOP('',(#55));
#125=EDGE_LOOP('',(#56));
#126=EDGE_LOOP('',(#57));
#127=EDGE_LOOP('',(#58));
#128=EDGE_LOOP('',(#59,#60,#61,#62));
#129=EDGE_LOOP('',(#63));
#130=EDGE_LOOP('',(#64));
#131=FACE_BOUND('',#115,.T.);
#132=FACE_BOUND('',#116,.T.);
#133=FACE_BOUND('',#117,.T.);
#134=FACE_BOUND('',#118,.T.);
#135=FACE_BOUND('',#119,.T.);
#136=FACE_BOUND('',#120,.T.);
#137=FACE_BOUND('',#121,.T.);
#138=FACE_BOUND('',#122,.T.);
#139=FACE_BOUND('',#123,.T.);
#140=FACE_BOUND('',#124,.T.);
#141=FACE_BOUND('',#125,.T.);
#142=FACE_BOUND('',#126,.T.);
#143=FACE_BOUND('',#127,.T.);
#144=FACE_BOUND('',#128,.T.);
#145=FACE_BOUND('',#129,.T.);
#146=FACE_BOUND('',#130,.T.);
#147=PLANE('',#240);
#148=PLANE('',#241);
#149=PLANE('',#242);
#150=PLANE('',#244);
#151=PLANE('',#252);
#152=PLANE('',#253);
#153=STYLED_ITEM('',(#163),#225);
#154=STYLED_ITEM('',(#164),#226);
#155=STYLED_ITEM('',(#165),#227);
#156=STYLED_ITEM('',(#166),#228);
#157=STYLED_ITEM('',(#167),#229);
#158=STYLED_ITEM('',(#168),#230);
#159=STYLED_ITEM('',(#169),#231);
#160=STYLED_ITEM('',(#170),#232);
#161=STYLED_ITEM('',(#171),#233);
#162=STYLED_ITEM('',(#172),#234);
#163=PRESENTATION_STYLE_ASSIGNMENT((#173));
#164=PRESENTATION_STYLE_ASSIGNMENT((#174));
#165=PRESENTATION_STYLE_ASSIGNMENT((#175));
#166=PRESENTATION_STYLE_ASSIGNMENT((#176));
#167=PRESENTATION_STYLE_ASSIGNMENT((#177));
#168=PRESENTATION_STYLE_ASSIGNMENT((#178));
#169=PRESENTATION_STYLE_ASSIGNMENT((#179));
#170=PRESENTATION_STYLE_ASSIGNMENT((#180));
#171=PRESENTATION_STYLE_ASSIGNMENT((#181));
#172=PRESENTATION_STYLE_ASSIGNMENT((#182));
#173=SURFACE_STYLE_USAGE(.BOTH.,#183);
#174=SURFACE_STYLE_USAGE(.BOTH.,#184);
#175=SURFACE_STYLE_USAGE(.BOTH.,#185);
#176=SURFACE_STYLE_USAGE(.BOTH.,#186);
#177=SURFACE_STYLE_USAGE(.BOTH.,#187);
#178=SURFACE_STYLE_USAGE(.BOTH.,#188);
#179=SURFACE_STYLE_USAGE(.BOTH.,#189);
#180=SURFACE_STYLE_USAGE(.BOTH.,#190);
#181=SURFACE_STYLE_USAGE(.BOTH.,#191);
#182=SURFACE_STYLE_USAGE(.BOTH.,#192);
#183=SURFACE_SIDE_STYLE('',(#193));
#184=SURFACE_SIDE_STYLE('',(#194));
#185=SURFACE_SIDE_STYLE('',(#195));
#186=SURFACE_SIDE_STYLE('',(#196));
#187=SURFACE_SIDE_STYLE('',(#197));
#188=SURFACE_SIDE_STYLE('',(#198));
#189=SURFACE_SIDE_STYLE('',(#199));
#190=SURFACE_SIDE_STYLE('',(#200));
#191=SURFACE_SIDE_STYLE('',(#201));
#192=SURFACE_SIDE_STYLE('',(#202));
#193=SURFACE_STYLE_FILL_AREA(#203);
#194=SURFACE_STYLE_FILL_AREA(#204);
#195=SURFACE_STYLE_FILL_AREA(#205);
#196=SURFACE_STYLE_FILL_AREA(#206);
#197=SURFACE_STYLE_FILL_AREA(#207);
#198=SURFACE_STYLE_FILL_AREA(#208);
#199=SURFACE_STYLE_FILL_AREA(#209);
#200=SURFACE_STYLE_FILL_AREA(#210);
#201=SURFACE_STYLE_FILL_AREA(#211);
#202=SURFACE_STYLE_FILL_AREA(#212);
#203=FILL_AREA_STYLE('',(#213));
#204=FILL_AREA_STYLE('',(#214));
#205=FILL_AREA_STYLE('',(#215));
#206=FILL_AREA_STYLE('',(#216));
#207=FILL_AREA_STYLE('',(#217));
#208=FILL_AREA_STYLE('',(#218));
#209=FILL_AREA_STYLE('',(#219));
#210=FILL_AREA_STYLE('',(#220));
#211=FILL_AREA_STYLE('',(#221));
#212=FILL_AREA_STYLE('',(#222));
#213=FILL_AREA_STYLE_COLOUR('',#223);
#214=FILL_AREA_STYLE_COLOUR('',#223);
#215=FILL_AREA_STYLE_COLOUR('',#223);
#216=FILL_AREA_STYLE_COLOUR('',#223);
#217=FILL_AREA_STYLE_COLOUR('',#223);
#218=FILL_AREA_STYLE_COLOUR('',#223);
#219=FILL_AREA_STYLE_COLOUR('',#224);
#220=FILL_AREA_STYLE_COLOUR('',#223);
#221=FILL_AREA_STYLE_COLOUR('',#223);
#222=FILL_AREA_STYLE_COLOUR('',#223);
#223=COLOUR_RGB('',0.331739127635956,0.340869575738907,0.349999994039536);
#224=COLOUR_RGB('',0.1875,0.75,0.581249892711639);
#225=ADVANCED_FACE('',(#131),#147,.T.);
#226=ADVANCED_FACE('',(#132),#148,.T.);
#227=ADVANCED_FACE('',(#133),#149,.T.);
#228=ADVANCED_FACE('',(#134),#150,.T.);
#229=ADVANCED_FACE('',(#135,#136),#22,.F.);
#230=ADVANCED_FACE('',(#137,#138),#23,.F.);
#231=ADVANCED_FACE('',(#139,#140),#24,.F.);
#232=ADVANCED_FACE('',(#141,#142),#151,.F.);
#233=ADVANCED_FACE('',(#143,#144),#152,.T.);
#234=ADVANCED_FACE('',(#145,#146),#20,.F.);
#235=CLOSED_SHELL('',(#225,#226,#227,#228,#229,#230,#231,#232,#233,#234));
#236=MANIFOLD_SOLID_BREP('',#235);
#237=SHAPE_DEFINITION_REPRESENTATION(#365,#238);
#238=SHAPE_REPRESENTATION('support buse',(#239),#360);
#239=AXIS2_PLACEMENT_3D('',#300,#256,#257);
#240=AXIS2_PLACEMENT_3D('',#301,#258,#259);
#241=AXIS2_PLACEMENT_3D('',#310,#264,#265);
#242=AXIS2_PLACEMENT_3D('',#319,#270,#271);
#243=AXIS2_PLACEMENT_3D('',#321,#273,#274);
#244=AXIS2_PLACEMENT_3D('',#322,#275,#276);
#245=AXIS2_PLACEMENT_3D('',#324,#278,#279);
#246=AXIS2_PLACEMENT_3D('',#325,#280,#281);
#247=AXIS2_PLACEMENT_3D('',#326,#282,#283);
#248=AXIS2_PLACEMENT_3D('',#328,#284,#285);
#249=AXIS2_PLACEMENT_3D('',#330,#286,#287);
#250=AXIS2_PLACEMENT_3D('',#351,#288,#289);
#251=AXIS2_PLACEMENT_3D('',#352,#290,#291);
#252=AXIS2_PLACEMENT_3D('',#354,#292,#293);
#253=AXIS2_PLACEMENT_3D('',#355,#294,#295);
#254=AXIS2_PLACEMENT_3D('',#356,#296,#297);
#255=AXIS2_PLACEMENT_3D('',#358,#298,#299);
#256=DIRECTION('',(0.,0.,1.));
#257=DIRECTION('',(1.,0.,0.));
#258=DIRECTION('',(0.,0.,-1.));
#259=DIRECTION('',(-1.,0.,0.));
#260=DIRECTION('',(0.,-1.,0.));
#261=DIRECTION('',(1.,0.,0.));
#262=DIRECTION('',(0.,-1.,0.));
#263=DIRECTION('',(-1.,0.,8.67361737988404E-17));
#264=DIRECTION('',(0.,0.,1.));
#265=DIRECTION('',(1.,0.,0.));
#266=DIRECTION('',(0.,-1.,0.));
#267=DIRECTION('',(1.,0.,0.));
#268=DIRECTION('',(0.,-1.,0.));
#269=DIRECTION('',(-1.,0.,8.67361737988404E-17));
#270=DIRECTION('',(-1.,0.,8.67361737988404E-17));
#271=DIRECTION('',(8.67361737988404E-17,0.,1.));
#272=DIRECTION('',(-8.67361737988404E-17,1.0842021724855E-16,-1.));
#273=DIRECTION('',(1.,0.,-8.67361737988404E-17));
#274=DIRECTION('',(0.,1.,0.));
#275=DIRECTION('',(1.,0.,0.));
#276=DIRECTION('',(0.,0.,-1.));
#277=DIRECTION('',(0.,-1.0842021724855E-16,1.));
#278=DIRECTION('',(1.,0.,0.));
#279=DIRECTION('',(0.,0.,-1.));
#280=DIRECTION('',(0.,-1.,0.));
#281=DIRECTION('',(0.,0.,-1.));
#282=DIRECTION('',(0.,-1.,0.));
#283=DIRECTION('',(0.,0.,-1.));
#284=DIRECTION('',(0.,1.,0.));
#285=DIRECTION('',(1.,0.,0.));
#286=DIRECTION('',(-1.,0.,8.67361737988404E-17));
#287=DIRECTION('',(8.67361737988404E-17,0.,1.));
#288=DIRECTION('',(0.,-1.,0.));
#289=DIRECTION('',(0.,0.,-1.));
#290=DIRECTION('',(0.,1.,0.));
#291=DIRECTION('',(0.,0.,1.));
#292=DIRECTION('',(0.,1.,0.));
#293=DIRECTION('',(0.,0.,1.));
#294=DIRECTION('',(0.,-1.,-1.0842021724855E-16));
#295=DIRECTION('',(0.,1.0842021724855E-16,-1.));
#296=DIRECTION('',(0.,-1.,-1.0842021724855E-16));
#297=DIRECTION('',(0.,1.0842021724855E-16,-1.));
#298=DIRECTION('',(0.,-1.,0.));
#299=DIRECTION('',(0.,0.,-1.));
#300=CARTESIAN_POINT('',(0.,0.,0.));
#301=CARTESIAN_POINT('',(-3.17360000000001,47.6,8.31759999999998));
#302=CARTESIAN_POINT('',(36.8264,47.6,8.31759999999998));
#303=CARTESIAN_POINT('',(36.8264,43.4751223480713,8.31759999999998));
#304=CARTESIAN_POINT('',(36.8264,17.0128009521992,8.31759999999998));
#305=CARTESIAN_POINT('',(-43.1736,17.0128009521992,8.31759999999998));
#306=CARTESIAN_POINT('',(-3.17360000000001,17.0128009521992,8.31759999999998));
#307=CARTESIAN_POINT('',(-3.17360000000001,47.6,8.31759999999998));
#308=CARTESIAN_POINT('',(-3.17360000000001,43.4751223480713,8.31759999999998));
#309=CARTESIAN_POINT('',(43.4380986933049,43.4751223480713,8.31759999999998));
#310=CARTESIAN_POINT('',(36.8264,47.6,48.3176));
#311=CARTESIAN_POINT('',(-3.17360000000001,47.6,48.3176));
#312=CARTESIAN_POINT('',(-3.17360000000001,43.4751223480713,48.3176));
#313=CARTESIAN_POINT('',(-3.17360000000001,17.0128009521992,48.3176));
#314=CARTESIAN_POINT('',(-43.1736,17.0128009521992,48.3176));
#315=CARTESIAN_POINT('',(36.8264,17.0128009521992,48.3176));
#316=CARTESIAN_POINT('',(36.8264,47.6,48.3176));
#317=CARTESIAN_POINT('',(36.8264,43.4751223480713,48.3176));
#318=CARTESIAN_POINT('',(43.4380986933049,43.4751223480713,48.3176));
#319=CARTESIAN_POINT('',(-3.17360000000001,47.6,48.3176));
#320=CARTESIAN_POINT('',(-3.17360000000001,17.0128009521992,48.3176));
#321=CARTESIAN_POINT('',(-3.17360000000001,179.512800952199,28.3176));
#322=CARTESIAN_POINT('',(36.8264,47.6,8.31759999999998));
#323=CARTESIAN_POINT('',(36.8264,17.0128009521992,48.3176));
#324=CARTESIAN_POINT('',(36.8264,179.512800952199,28.3176));
#325=CARTESIAN_POINT('',(16.8264,22.01,28.3176));
#326=CARTESIAN_POINT('',(16.8264,18.0128009521992,28.3176));
#327=CARTESIAN_POINT('',(16.8264,18.0128009521992,13.3176));
#328=CARTESIAN_POINT('',(16.8264,22.01,28.3176));
#329=CARTESIAN_POINT('',(31.8264,22.01,28.3176));
#330=CARTESIAN_POINT('',(43.4380986933049,179.512800952199,28.3176));
#331=CARTESIAN_POINT('',(20.4989581259511,42.2941392186288,19.4924483833166));
#332=CARTESIAN_POINT('',(16.8234032170041,42.3459539439975,18.7578244971725));
#333=CARTESIAN_POINT('',(13.1658290060326,42.2943782784129,19.4888536279935));
#334=CARTESIAN_POINT('',(10.0672278085916,42.170606776197,21.5602310435087));
#335=CARTESIAN_POINT('',(7.9975860543815,42.0470390140667,24.6572576181496));
#336=CARTESIAN_POINT('',(7.26857621737226,41.9957490311913,28.3121793658065));
#337=CARTESIAN_POINT('',(7.99351716786904,42.0467711225714,31.9695492949705));
#338=CARTESIAN_POINT('',(10.064330600019,42.1704777979737,35.0730743520677));
#339=CARTESIAN_POINT('',(13.1664007403088,42.2944383388489,37.1472232612039));
#340=CARTESIAN_POINT('',(16.8231951579353,42.345821406953,37.8754232983356));
#341=CARTESIAN_POINT('',(20.4791002603637,42.2946090605037,37.1496799247074));
#342=CARTESIAN_POINT('',(23.5778396638251,42.1709955844516,35.0823915151345));
#343=CARTESIAN_POINT('',(25.6519969132877,42.0472673366638,31.9868998185754));
#344=CARTESIAN_POINT('',(26.3850357011392,41.9956855823342,28.3274415379831));
#345=CARTESIAN_POINT('',(25.6592328313422,42.0467979069618,24.6643291182949));
#346=CARTESIAN_POINT('',(23.588468220926,42.1703958593755,21.5644681440608));
#347=CARTESIAN_POINT('',(20.4989581259511,42.2941392186288,19.4924483833166));
#348=CARTESIAN_POINT('',(16.8234032170041,42.3459539439975,18.7578244971725));
#349=CARTESIAN_POINT('',(13.1658290060326,42.2943782784129,19.4888536279935));
#350=CARTESIAN_POINT('',(16.8264,42.3287222121719,19.0021));
#351=CARTESIAN_POINT('',(16.8264,71.3448404804424,28.3176));
#352=CARTESIAN_POINT('',(16.8264,22.01,28.3176));
#353=CARTESIAN_POINT('',(16.8264,22.01,37.6331));
#354=CARTESIAN_POINT('',(16.8264,22.01,28.3176));
#355=CARTESIAN_POINT('',(-43.1736,17.0128009521992,48.3176));
#356=CARTESIAN_POINT('',(16.8264,17.0128009521992,28.3176));
#357=CARTESIAN_POINT('',(16.8264,17.0128009521992,12.3176));
#358=CARTESIAN_POINT('',(16.8264,18.0128009521992,28.3176));
#359=MECHANICAL_DESIGN_GEOMETRIC_PRESENTATION_REPRESENTATION('',(#153,#154,
#155,#156,#157,#158,#159,#160,#161,#162),#360);
#360=(
GEOMETRIC_REPRESENTATION_CONTEXT(3)
GLOBAL_UNCERTAINTY_ASSIGNED_CONTEXT((#361))
GLOBAL_UNIT_ASSIGNED_CONTEXT((#364,#363,#362))
REPRESENTATION_CONTEXT('support buse','TOP_LEVEL_ASSEMBLY_PART')
);
#361=UNCERTAINTY_MEASURE_WITH_UNIT(LENGTH_MEASURE(0.005),#364,
'DISTANCE_ACCURACY_VALUE','Maximum Tolerance applied to model');
#362=(
NAMED_UNIT(*)
SI_UNIT($,.STERADIAN.)
SOLID_ANGLE_UNIT()
);
#363=(
NAMED_UNIT(*)
PLANE_ANGLE_UNIT()
SI_UNIT($,.RADIAN.)
);
#364=(
LENGTH_UNIT()
NAMED_UNIT(*)
SI_UNIT(.MILLI.,.METRE.)
);
#365=PRODUCT_DEFINITION_SHAPE('','',#366);
#366=PRODUCT_DEFINITION('','',#368,#367);
#367=PRODUCT_DEFINITION_CONTEXT('',#374,'design');
#368=PRODUCT_DEFINITION_FORMATION_WITH_SPECIFIED_SOURCE('','',#370,
 .NOT_KNOWN.);
#369=PRODUCT_RELATED_PRODUCT_CATEGORY('','',(#370));
#370=PRODUCT('support buse','support buse','support buse',(#372));
#371=PRODUCT_CATEGORY('','');
#372=PRODUCT_CONTEXT('',#374,'mechanical');
#373=APPLICATION_PROTOCOL_DEFINITION('international standard',
'automotive_design',2010,#374);
#374=APPLICATION_CONTEXT(
'core data for automotive mechanical design processes');
ENDSEC;
END-ISO-10303-21;
