ISO-10303-21;
HEADER;
FILE_DESCRIPTION (( 'STEP AP203' ),
    '1' );
FILE_NAME ('Pièce1.STEP',
    '2019-05-21T19:42:49',
    ( '' ),
    ( '' ),
    'SwSTEP 2.0',
    'SolidWorks 2017',
    '' );
FILE_SCHEMA (( 'CONFIG_CONTROL_DESIGN' ));
ENDSEC;

DATA;
#1 = AXIS2_PLACEMENT_3D ( 'NONE', #61, #259, #209 ) ;
#2 = PERSON_AND_ORGANIZATION ( #132, #200 ) ;
#3 = ORIENTED_EDGE ( 'NONE', *, *, #126, .T. ) ;
#4 = CC_DESIGN_APPROVAL ( #74, ( #273 ) ) ;
#5 = AXIS2_PLACEMENT_3D ( 'NONE', #311, #10, #192 ) ;
#6 = DIRECTION ( 'NONE',  ( -1.000000000000000000, 0.0000000000000000000, 0.0000000000000000000 ) ) ;
#7 = AXIS2_PLACEMENT_3D ( 'NONE', #284, #30, #161 ) ;
#8 = VERTEX_POINT ( 'NONE', #282 ) ;
#9 = DIRECTION ( 'NONE',  ( 1.000000000000000000, 0.0000000000000000000, 0.0000000000000000000 ) ) ;
#10 = DIRECTION ( 'NONE',  ( -0.0000000000000000000, -0.0000000000000000000, -1.000000000000000000 ) ) ;
#11 = DIRECTION ( 'NONE',  ( 0.0000000000000000000, 0.0000000000000000000, 1.000000000000000000 ) ) ;
#12 = CARTESIAN_POINT ( 'NONE',  ( 0.0000000000000000000, 0.0000000000000000000, 17.00000000000000000 ) ) ;
#13 = PERSON_AND_ORGANIZATION ( #132, #200 ) ;
#14 = CYLINDRICAL_SURFACE ( 'NONE', #159, 1.249999999999988900 ) ;
#15 = EDGE_CURVE ( 'NONE', #180, #73, #130, .T. ) ;
#16 = PERSON_AND_ORGANIZATION ( #132, #200 ) ;
#17 =( NAMED_UNIT ( * ) PLANE_ANGLE_UNIT ( ) SI_UNIT ( $, .RADIAN. ) );
#18 = EDGE_LOOP ( 'NONE', ( #140, #29, #181, #43 ) ) ;
#19 = CC_DESIGN_APPROVAL ( #133, ( #121 ) ) ;
#20 = CARTESIAN_POINT ( 'NONE',  ( 0.0000000000000000000, 0.0000000000000000000, 0.0000000000000000000 ) ) ;
#21 = APPROVAL_DATE_TIME ( #278, #133 ) ;
#22 = VERTEX_POINT ( 'NONE', #32 ) ;
#23 = ORIENTED_EDGE ( 'NONE', *, *, #120, .T. ) ;
#24 = PRODUCT_RELATED_PRODUCT_CATEGORY ( 'detail', '', ( #57 ) ) ;
#25 = APPROVAL_ROLE ( '' ) ;
#26 = CC_DESIGN_PERSON_AND_ORGANIZATION_ASSIGNMENT ( #55, #179, ( #273 ) ) ;
#27 = APPROVAL_PERSON_ORGANIZATION ( #312, #74, #220 ) ;
#28 = FACE_OUTER_BOUND ( 'NONE', #158, .T. ) ;
#29 = ORIENTED_EDGE ( 'NONE', *, *, #197, .F. ) ;
#30 = DIRECTION ( 'NONE',  ( 0.0000000000000000000, 0.0000000000000000000, 1.000000000000000000 ) ) ;
#31 = DIRECTION ( 'NONE',  ( 0.0000000000000000000, 0.0000000000000000000, 1.000000000000000000 ) ) ;
#32 = CARTESIAN_POINT ( 'NONE',  ( -1.249999999999987100, 1.530808498934177000E-016, 17.00000000000000000 ) ) ;
#33 = DIRECTION ( 'NONE',  ( -0.0000000000000000000, -0.0000000000000000000, 1.000000000000000000 ) ) ;
#34 = VECTOR ( 'NONE', #193, 1000.000000000000000 ) ;
#35 = DIRECTION ( 'NONE',  ( -0.0000000000000000000, -0.0000000000000000000, -1.000000000000000000 ) ) ;
#36 = CARTESIAN_POINT ( 'NONE',  ( 0.0000000000000000000, 0.0000000000000000000, 15.00000000000000000 ) ) ;
#37 = AXIS2_PLACEMENT_3D ( 'NONE', #64, #169, #114 ) ;
#38 = ORIENTED_EDGE ( 'NONE', *, *, #276, .T. ) ;
#39 = CARTESIAN_POINT ( 'NONE',  ( 0.0000000000000000000, 0.0000000000000000000, 15.00000000000000000 ) ) ;
#40 = ADVANCED_FACE ( 'NONE', ( #281, #45 ), #210, .T. ) ;
#41 = CARTESIAN_POINT ( 'NONE',  ( 0.0000000000000000000, 0.0000000000000000000, 17.00000000000000000 ) ) ;
#42 = APPROVAL_STATUS ( 'not_yet_approved' ) ;
#43 = ORIENTED_EDGE ( 'NONE', *, *, #240, .T. ) ;
#44 = CARTESIAN_POINT ( 'NONE',  ( -8.250000000000000000, 0.0000000000000000000, 15.00000000000000000 ) ) ;
#45 = FACE_OUTER_BOUND ( 'NONE', #328, .T. ) ;
#46 = LOCAL_TIME ( 21, 42, 49.00000000000000000, #321 ) ;
#47 = APPLICATION_CONTEXT ( 'configuration controlled 3d designs of mechanical parts and assemblies' ) ;
#48 = VECTOR ( 'NONE', #216, 1000.000000000000000 ) ;
#49 = VERTEX_POINT ( 'NONE', #234 ) ;
#50 = AXIS2_PLACEMENT_3D ( 'NONE', #41, #247, #117 ) ;
#51 = APPROVAL_ROLE ( '' ) ;
#52 = FACE_OUTER_BOUND ( 'NONE', #279, .T. ) ;
#53 = DATE_TIME_ROLE ( 'classification_date' ) ;
#54 = APPLICATION_PROTOCOL_DEFINITION ( 'international standard', 'config_control_design', 1994, #155 ) ;
#55 = PERSON_AND_ORGANIZATION ( #132, #200 ) ;
#56 = ORIENTED_EDGE ( 'NONE', *, *, #276, .F. ) ;
#57 = PRODUCT ( 'Pièce1', 'Pièce1', '', ( #301 ) ) ;
#58 = FACE_OUTER_BOUND ( 'NONE', #152, .T. ) ;
#59 = CARTESIAN_POINT ( 'NONE',  ( 8.250000000000000000, 1.010333609296566500E-015, 0.0000000000000000000 ) ) ;
#60 = CARTESIAN_POINT ( 'NONE',  ( -6.250000000000000000, 0.0000000000000000000, 15.00000000000000000 ) ) ;
#61 = CARTESIAN_POINT ( 'NONE',  ( 0.0000000000000000000, 0.0000000000000000000, 15.00000000000000000 ) ) ;
#62 = APPROVAL_DATE_TIME ( #135, #74 ) ;
#63 = VERTEX_POINT ( 'NONE', #59 ) ;
#64 = CARTESIAN_POINT ( 'NONE',  ( 0.0000000000000000000, 0.0000000000000000000, 15.00000000000000000 ) ) ;
#65 = CARTESIAN_POINT ( 'NONE',  ( 0.0000000000000000000, 0.0000000000000000000, 17.00000000000000000 ) ) ;
#66 = CARTESIAN_POINT ( 'NONE',  ( 8.250000000000000000, 1.010333609296566500E-015, 15.00000000000000000 ) ) ;
#67 = AXIS2_PLACEMENT_3D ( 'NONE', #71, #141, #265 ) ;
#68 = CYLINDRICAL_SURFACE ( 'NONE', #206, 6.250000000000000000 ) ;
#69 = DIRECTION ( 'NONE',  ( -0.0000000000000000000, -0.0000000000000000000, -1.000000000000000000 ) ) ;
#70 = ADVANCED_FACE ( 'NONE', ( #201 ), #123, .F. ) ;
#71 = CARTESIAN_POINT ( 'NONE',  ( 0.0000000000000000000, 0.0000000000000000000, 15.00000000000000000 ) ) ;
#72 = CALENDAR_DATE ( 2019, 21, 5 ) ;
#73 = VERTEX_POINT ( 'NONE', #236 ) ;
#74 = APPROVAL ( #42, 'UNSPECIFIED' ) ;
#75 = ORIENTED_EDGE ( 'NONE', *, *, #167, .T. ) ;
#76 = DIRECTION ( 'NONE',  ( 0.0000000000000000000, 0.0000000000000000000, 1.000000000000000000 ) ) ;
#77 = AXIS2_PLACEMENT_3D ( 'NONE', #189, #84, #187 ) ;
#78 = ORIENTED_EDGE ( 'NONE', *, *, #107, .F. ) ;
#79 = LINE ( 'NONE', #108, #166 ) ;
#80 = APPROVAL_PERSON_ORGANIZATION ( #16, #133, #25 ) ;
#81 = CC_DESIGN_PERSON_AND_ORGANIZATION_ASSIGNMENT ( #195, #227, ( #128 ) ) ;
#82 = COORDINATED_UNIVERSAL_TIME_OFFSET ( 1, 0, .AHEAD. ) ;
#83 = CIRCLE ( 'NONE', #257, 8.250000000000000000 ) ;
#84 = DIRECTION ( 'NONE',  ( -0.0000000000000000000, -0.0000000000000000000, 1.000000000000000000 ) ) ;
#85 = DIRECTION ( 'NONE',  ( 1.000000000000000000, 0.0000000000000000000, 0.0000000000000000000 ) ) ;
#86 = CARTESIAN_POINT ( 'NONE',  ( -8.250000000000000000, 0.0000000000000000000, 0.0000000000000000000 ) ) ;
#87 = DIRECTION ( 'NONE',  ( -0.0000000000000000000, -0.0000000000000000000, 1.000000000000000000 ) ) ;
#88 = CC_DESIGN_DATE_AND_TIME_ASSIGNMENT ( #270, #226, ( #121 ) ) ;
#89 = ADVANCED_FACE ( 'NONE', ( #101, #52 ), #287, .F. ) ;
#90 = CARTESIAN_POINT ( 'NONE',  ( 0.0000000000000000000, 0.0000000000000000000, 17.00000000000000000 ) ) ;
#91 = ORIENTED_EDGE ( 'NONE', *, *, #309, .F. ) ;
#92 = PERSON_AND_ORGANIZATION ( #132, #200 ) ;
#93 = VERTEX_POINT ( 'NONE', #86 ) ;
#94 = VERTEX_POINT ( 'NONE', #262 ) ;
#95 = ADVANCED_FACE ( 'NONE', ( #228 ), #68, .F. ) ;
#96 = APPROVAL ( #250, 'UNSPECIFIED' ) ;
#97 = AXIS2_PLACEMENT_3D ( 'NONE', #211, #310, #9 ) ;
#98 = DIRECTION ( 'NONE',  ( 1.000000000000000000, 0.0000000000000000000, 0.0000000000000000000 ) ) ;
#99 = EDGE_CURVE ( 'NONE', #94, #172, #177, .T. ) ;
#100 = COORDINATED_UNIVERSAL_TIME_OFFSET ( 1, 0, .AHEAD. ) ;
#101 = FACE_BOUND ( 'NONE', #225, .T. ) ;
#102 = CC_DESIGN_PERSON_AND_ORGANIZATION_ASSIGNMENT ( #327, #326, ( #128 ) ) ;
#103 = APPROVAL_STATUS ( 'not_yet_approved' ) ;
#104 = LINE ( 'NONE', #292, #34 ) ;
#105 = CC_DESIGN_DATE_AND_TIME_ASSIGNMENT ( #324, #53, ( #273 ) ) ;
#106 = PLANE ( 'NONE',  #124 ) ;
#107 = EDGE_CURVE ( 'NONE', #172, #22, #79, .T. ) ;
#108 = CARTESIAN_POINT ( 'NONE',  ( -1.249999999999988900, 1.530808498934178000E-016, 17.00000000000000000 ) ) ;
#109 = ORIENTED_EDGE ( 'NONE', *, *, #253, .T. ) ;
#110 = ORIENTED_EDGE ( 'NONE', *, *, #174, .F. ) ;
#111 = AXIS2_PLACEMENT_3D ( 'NONE', #314, #11, #198 ) ;
#112 = DIRECTION ( 'NONE',  ( 1.000000000000000000, 0.0000000000000000000, 0.0000000000000000000 ) ) ;
#113 = VECTOR ( 'NONE', #168, 1000.000000000000000 ) ;
#114 = DIRECTION ( 'NONE',  ( 1.000000000000000000, 0.0000000000000000000, 0.0000000000000000000 ) ) ;
#115 = ADVANCED_FACE ( 'NONE', ( #300, #127 ), #106, .F. ) ;
#116 = DIRECTION ( 'NONE',  ( -0.0000000000000000000, -0.0000000000000000000, 1.000000000000000000 ) ) ;
#117 = DIRECTION ( 'NONE',  ( 1.000000000000000000, 0.0000000000000000000, 0.0000000000000000000 ) ) ;
#118 = DIRECTION ( 'NONE',  ( 0.0000000000000000000, 0.0000000000000000000, 1.000000000000000000 ) ) ;
#119 = EDGE_LOOP ( 'NONE', ( #260, #75, #23, #277 ) ) ;
#120 = EDGE_CURVE ( 'NONE', #63, #93, #303, .T. ) ;
#121 = PRODUCT_DEFINITION ( 'UNKNOWN', '', #128, #318 ) ;
#122 = CALENDAR_DATE ( 2019, 21, 5 ) ;
#123 = CYLINDRICAL_SURFACE ( 'NONE', #77, 1.249999999999988900 ) ;
#124 = AXIS2_PLACEMENT_3D ( 'NONE', #184, #185, #139 ) ;
#125 = ORIENTED_EDGE ( 'NONE', *, *, #146, .F. ) ;
#126 = EDGE_CURVE ( 'NONE', #94, #8, #256, .T. ) ;
#127 = FACE_BOUND ( 'NONE', #134, .T. ) ;
#128 = PRODUCT_DEFINITION_FORMATION_WITH_SPECIFIED_SOURCE ( 'ANY', '', #57, .NOT_KNOWN. ) ;
#129 = PERSON_AND_ORGANIZATION_ROLE ( 'design_owner' ) ;
#130 = CIRCLE ( 'NONE', #294, 6.250000000000000000 ) ;
#131 = LINE ( 'NONE', #44, #191 ) ;
#132 = PERSON ( 'UNSPECIFIED', 'UNSPECIFIED', 'UNSPECIFIED', ('UNSPECIFIED'), ('UNSPECIFIED'), ('UNSPECIFIED') ) ;
#133 = APPROVAL ( #103, 'UNSPECIFIED' ) ;
#134 = EDGE_LOOP ( 'NONE', ( #305, #136 ) ) ;
#135 = DATE_AND_TIME ( #72, #231 ) ;
#136 = ORIENTED_EDGE ( 'NONE', *, *, #162, .T. ) ;
#137 = CARTESIAN_POINT ( 'NONE',  ( 0.0000000000000000000, 0.0000000000000000000, 15.00000000000000000 ) ) ;
#138 = DIRECTION ( 'NONE',  ( 1.000000000000000000, 0.0000000000000000000, -0.0000000000000000000 ) ) ;
#139 = DIRECTION ( 'NONE',  ( 1.000000000000000000, 0.0000000000000000000, -0.0000000000000000000 ) ) ;
#140 = ORIENTED_EDGE ( 'NONE', *, *, #167, .F. ) ;
#141 = DIRECTION ( 'NONE',  ( 0.0000000000000000000, 0.0000000000000000000, 1.000000000000000000 ) ) ;
#142 = DIRECTION ( 'NONE',  ( 1.000000000000000000, 0.0000000000000000000, 0.0000000000000000000 ) ) ;
#143 = CARTESIAN_POINT ( 'NONE',  ( -6.250000000000000000, 0.0000000000000000000, 15.00000000000000000 ) ) ;
#144 = ORIENTED_EDGE ( 'NONE', *, *, #223, .F. ) ;
#145 = CARTESIAN_POINT ( 'NONE',  ( 0.0000000000000000000, 0.0000000000000000000, 0.0000000000000000000 ) ) ;
#146 = EDGE_CURVE ( 'NONE', #172, #94, #232, .T. ) ;
#147 = DIRECTION ( 'NONE',  ( -0.0000000000000000000, -0.0000000000000000000, -1.000000000000000000 ) ) ;
#148 = ADVANCED_FACE ( 'NONE', ( #28 ), #317, .F. ) ;
#149 = VERTEX_POINT ( 'NONE', #60 ) ;
#150 = UNCERTAINTY_MEASURE_WITH_UNIT (LENGTH_MEASURE( 1.000000000000000100E-005 ), #175, 'distance_accuracy_value', 'NONE');
#151 = EDGE_CURVE ( 'NONE', #22, #8, #313, .T. ) ;
#152 = EDGE_LOOP ( 'NONE', ( #125, #233, #329, #242 ) ) ;
#153 = APPROVAL_PERSON_ORGANIZATION ( #2, #96, #51 ) ;
#154 = CIRCLE ( 'NONE', #67, 6.250000000000000000 ) ;
#155 = APPLICATION_CONTEXT ( 'configuration controlled 3d designs of mechanical parts and assemblies' ) ;
#156 = AXIS2_PLACEMENT_3D ( 'NONE', #137, #306, #164 ) ;
#157 = DATE_AND_TIME ( #274, #241 ) ;
#158 = EDGE_LOOP ( 'NONE', ( #38, #178, #271, #91 ) ) ;
#159 = AXIS2_PLACEMENT_3D ( 'NONE', #90, #194, #316 ) ;
#160 = ORIENTED_EDGE ( 'NONE', *, *, #99, .T. ) ;
#161 = DIRECTION ( 'NONE',  ( 1.000000000000000000, 0.0000000000000000000, -0.0000000000000000000 ) ) ;
#162 = EDGE_CURVE ( 'NONE', #73, #180, #215, .T. ) ;
#163 = DIRECTION ( 'NONE',  ( 0.0000000000000000000, 0.0000000000000000000, 1.000000000000000000 ) ) ;
#164 = DIRECTION ( 'NONE',  ( 1.000000000000000000, 0.0000000000000000000, 0.0000000000000000000 ) ) ;
#165 = CARTESIAN_POINT ( 'NONE',  ( 1.249999999999988900, 0.0000000000000000000, 17.00000000000000000 ) ) ;
#166 = VECTOR ( 'NONE', #87, 1000.000000000000000 ) ;
#167 = EDGE_CURVE ( 'NONE', #49, #63, #325, .T. ) ;
#168 = DIRECTION ( 'NONE',  ( -0.0000000000000000000, -0.0000000000000000000, -1.000000000000000000 ) ) ;
#169 = DIRECTION ( 'NONE',  ( 0.0000000000000000000, 0.0000000000000000000, 1.000000000000000000 ) ) ;
#170 = AXIS2_PLACEMENT_3D ( 'NONE', #39, #147, #171 ) ;
#171 = DIRECTION ( 'NONE',  ( -1.000000000000000000, 0.0000000000000000000, 0.0000000000000000000 ) ) ;
#172 = VERTEX_POINT ( 'NONE', #219 ) ;
#173 = ADVANCED_FACE ( 'NONE', ( #58 ), #14, .F. ) ;
#174 = EDGE_CURVE ( 'NONE', #322, #149, #239, .T. ) ;
#175 =( LENGTH_UNIT ( ) NAMED_UNIT ( * ) SI_UNIT ( .MILLI., .METRE. ) );
#176 = COORDINATED_UNIVERSAL_TIME_OFFSET ( 1, 0, .AHEAD. ) ;
#177 = CIRCLE ( 'NONE', #97, 1.249999999999988900 ) ;
#178 = ORIENTED_EDGE ( 'NONE', *, *, #223, .T. ) ;
#179 = PERSON_AND_ORGANIZATION_ROLE ( 'classification_officer' ) ;
#180 = VERTEX_POINT ( 'NONE', #289 ) ;
#181 = ORIENTED_EDGE ( 'NONE', *, *, #245, .T. ) ;
#182 = CC_DESIGN_APPROVAL ( #96, ( #128 ) ) ;
#183 = VECTOR ( 'NONE', #33, 1000.000000000000000 ) ;
#184 = CARTESIAN_POINT ( 'NONE',  ( 0.0000000000000000000, 0.0000000000000000000, 0.0000000000000000000 ) ) ;
#185 = DIRECTION ( 'NONE',  ( 0.0000000000000000000, 0.0000000000000000000, 1.000000000000000000 ) ) ;
#186 = LINE ( 'NONE', #143, #113 ) ;
#187 = DIRECTION ( 'NONE',  ( 1.000000000000000000, 0.0000000000000000000, 0.0000000000000000000 ) ) ;
#188 = DIRECTION ( 'NONE',  ( 0.0000000000000000000, 0.0000000000000000000, 1.000000000000000000 ) ) ;
#189 = CARTESIAN_POINT ( 'NONE',  ( 0.0000000000000000000, 0.0000000000000000000, 17.00000000000000000 ) ) ;
#190 = CALENDAR_DATE ( 2019, 21, 5 ) ;
#191 = VECTOR ( 'NONE', #69, 1000.000000000000000 ) ;
#192 = DIRECTION ( 'NONE',  ( -1.000000000000000000, 0.0000000000000000000, 0.0000000000000000000 ) ) ;
#193 = DIRECTION ( 'NONE',  ( -0.0000000000000000000, -0.0000000000000000000, -1.000000000000000000 ) ) ;
#194 = DIRECTION ( 'NONE',  ( -0.0000000000000000000, -0.0000000000000000000, 1.000000000000000000 ) ) ;
#195 = PERSON_AND_ORGANIZATION ( #132, #200 ) ;
#196 = ORIENTED_EDGE ( 'NONE', *, *, #309, .T. ) ;
#197 = EDGE_CURVE ( 'NONE', #213, #49, #295, .T. ) ;
#198 = DIRECTION ( 'NONE',  ( 1.000000000000000000, 0.0000000000000000000, 0.0000000000000000000 ) ) ;
#199 =( NAMED_UNIT ( * ) SI_UNIT ( $, .STERADIAN. ) SOLID_ANGLE_UNIT ( ) );
#200 = ORGANIZATION ( 'UNSPECIFIED', 'UNSPECIFIED', '' ) ;
#201 = FACE_OUTER_BOUND ( 'NONE', #323, .T. ) ;
#202 = ORIENTED_EDGE ( 'NONE', *, *, #146, .T. ) ;
#203 = FACE_OUTER_BOUND ( 'NONE', #18, .T. ) ;
#204 = AXIS2_PLACEMENT_3D ( 'NONE', #65, #116, #98 ) ;
#205 = SECURITY_CLASSIFICATION_LEVEL ( 'unclassified' ) ;
#206 = AXIS2_PLACEMENT_3D ( 'NONE', #261, #35, #6 ) ;
#207 = CIRCLE ( 'NONE', #320, 8.250000000000000000 ) ;
#208 = PRODUCT_DEFINITION_SHAPE ( 'NONE', 'NONE',  #121 ) ;
#209 = DIRECTION ( 'NONE',  ( -1.000000000000000000, 0.0000000000000000000, 0.0000000000000000000 ) ) ;
#210 = PLANE ( 'NONE',  #7 ) ;
#211 = CARTESIAN_POINT ( 'NONE',  ( 0.0000000000000000000, 0.0000000000000000000, 15.00000000000000000 ) ) ;
#212 = LOCAL_TIME ( 21, 42, 49.00000000000000000, #82 ) ;
#213 = VERTEX_POINT ( 'NONE', #267 ) ;
#214 = COORDINATED_UNIVERSAL_TIME_OFFSET ( 1, 0, .AHEAD. ) ;
#215 = CIRCLE ( 'NONE', #251, 6.250000000000000000 ) ;
#216 = DIRECTION ( 'NONE',  ( -0.0000000000000000000, -0.0000000000000000000, -1.000000000000000000 ) ) ;
#217 = CC_DESIGN_PERSON_AND_ORGANIZATION_ASSIGNMENT ( #13, #249, ( #121 ) ) ;
#218 = DIRECTION ( 'NONE',  ( 0.0000000000000000000, 0.0000000000000000000, 1.000000000000000000 ) ) ;
#219 = CARTESIAN_POINT ( 'NONE',  ( -1.249999999999988900, 1.530808498934178000E-016, 15.00000000000000000 ) ) ;
#220 = APPROVAL_ROLE ( '' ) ;
#221 = EDGE_LOOP ( 'NONE', ( #255, #302 ) ) ;
#222 = CYLINDRICAL_SURFACE ( 'NONE', #5, 8.250000000000000000 ) ;
#223 = EDGE_CURVE ( 'NONE', #322, #73, #104, .T. ) ;
#224 = APPLICATION_PROTOCOL_DEFINITION ( 'international standard', 'config_control_design', 1994, #47 ) ;
#225 = EDGE_LOOP ( 'NONE', ( #160, #202 ) ) ;
#226 = DATE_TIME_ROLE ( 'creation_date' ) ;
#227 = PERSON_AND_ORGANIZATION_ROLE ( 'creator' ) ;
#228 = FACE_OUTER_BOUND ( 'NONE', #308, .T. ) ;
#229 = CC_DESIGN_PERSON_AND_ORGANIZATION_ASSIGNMENT ( #92, #129, ( #57 ) ) ;
#230 = AXIS2_PLACEMENT_3D ( 'NONE', #20, #76, #252 ) ;
#231 = LOCAL_TIME ( 21, 42, 49.00000000000000000, #176 ) ;
#232 = CIRCLE ( 'NONE', #156, 1.249999999999988900 ) ;
#233 = ORIENTED_EDGE ( 'NONE', *, *, #107, .T. ) ;
#234 = CARTESIAN_POINT ( 'NONE',  ( 8.250000000000000000, 1.010333609296566500E-015, 17.00000000000000000 ) ) ;
#235 = CARTESIAN_POINT ( 'NONE',  ( 0.0000000000000000000, 0.0000000000000000000, 0.0000000000000000000 ) ) ;
#236 = CARTESIAN_POINT ( 'NONE',  ( 6.250000000000000000, 7.654042494670957600E-016, 0.0000000000000000000 ) ) ;
#237 = AXIS2_PLACEMENT_3D ( 'NONE', #36, #163, #138 ) ;
#238 = ORIENTED_EDGE ( 'NONE', *, *, #315, .T. ) ;
#239 = CIRCLE ( 'NONE', #37, 6.250000000000000000 ) ;
#240 = EDGE_CURVE ( 'NONE', #93, #63, #83, .T. ) ;
#241 = LOCAL_TIME ( 21, 42, 49.00000000000000000, #214 ) ;
#242 = ORIENTED_EDGE ( 'NONE', *, *, #126, .F. ) ;
#243 = CARTESIAN_POINT ( 'NONE',  ( 0.0000000000000000000, 0.0000000000000000000, 0.0000000000000000000 ) ) ;
#244 = ORIENTED_EDGE ( 'NONE', *, *, #151, .F. ) ;
#245 = EDGE_CURVE ( 'NONE', #213, #93, #131, .T. ) ;
#246 = EDGE_LOOP ( 'NONE', ( #290, #244 ) ) ;
#247 = DIRECTION ( 'NONE',  ( -0.0000000000000000000, -0.0000000000000000000, 1.000000000000000000 ) ) ;
#248 = CYLINDRICAL_SURFACE ( 'NONE', #170, 8.250000000000000000 ) ;
#249 = PERSON_AND_ORGANIZATION_ROLE ( 'creator' ) ;
#250 = APPROVAL_STATUS ( 'not_yet_approved' ) ;
#251 = AXIS2_PLACEMENT_3D ( 'NONE', #243, #218, #142 ) ;
#252 = DIRECTION ( 'NONE',  ( 1.000000000000000000, 0.0000000000000000000, 0.0000000000000000000 ) ) ;
#253 = EDGE_CURVE ( 'NONE', #49, #213, #207, .T. ) ;
#254 = MANIFOLD_SOLID_BREP ( 'Trou pour taraudage pour trou taraudé M31', #258 ) ;
#255 = ORIENTED_EDGE ( 'NONE', *, *, #240, .F. ) ;
#256 = LINE ( 'NONE', #165, #183 ) ;
#257 = AXIS2_PLACEMENT_3D ( 'NONE', #145, #264, #293 ) ;
#258 = CLOSED_SHELL ( 'NONE', ( #173, #148, #269, #115, #319, #95, #89, #40, #70 ) ) ;
#259 = DIRECTION ( 'NONE',  ( -0.0000000000000000000, -0.0000000000000000000, -1.000000000000000000 ) ) ;
#260 = ORIENTED_EDGE ( 'NONE', *, *, #253, .F. ) ;
#261 = CARTESIAN_POINT ( 'NONE',  ( 0.0000000000000000000, 0.0000000000000000000, 15.00000000000000000 ) ) ;
#262 = CARTESIAN_POINT ( 'NONE',  ( 1.249999999999988900, 0.0000000000000000000, 15.00000000000000000 ) ) ;
#263 = CALENDAR_DATE ( 2019, 21, 5 ) ;
#264 = DIRECTION ( 'NONE',  ( 0.0000000000000000000, 0.0000000000000000000, 1.000000000000000000 ) ) ;
#265 = DIRECTION ( 'NONE',  ( 1.000000000000000000, 0.0000000000000000000, 0.0000000000000000000 ) ) ;
#266 = FACE_OUTER_BOUND ( 'NONE', #119, .T. ) ;
#267 = CARTESIAN_POINT ( 'NONE',  ( -8.250000000000000000, 0.0000000000000000000, 17.00000000000000000 ) ) ;
#268 =( GEOMETRIC_REPRESENTATION_CONTEXT ( 3 ) GLOBAL_UNCERTAINTY_ASSIGNED_CONTEXT ( ( #150 ) ) GLOBAL_UNIT_ASSIGNED_CONTEXT ( ( #175, #17, #199 ) ) REPRESENTATION_CONTEXT ( 'NONE', 'WORKASPACE' ) );
#269 = ADVANCED_FACE ( 'NONE', ( #266 ), #248, .T. ) ;
#270 = DATE_AND_TIME ( #122, #46 ) ;
#271 = ORIENTED_EDGE ( 'NONE', *, *, #15, .F. ) ;
#272 = ORIENTED_EDGE ( 'NONE', *, *, #197, .T. ) ;
#273 = SECURITY_CLASSIFICATION ( '', '', #205 ) ;
#274 = CALENDAR_DATE ( 2019, 21, 5 ) ;
#275 = CIRCLE ( 'NONE', #204, 1.249999999999987100 ) ;
#276 = EDGE_CURVE ( 'NONE', #149, #322, #154, .T. ) ;
#277 = ORIENTED_EDGE ( 'NONE', *, *, #245, .F. ) ;
#278 = DATE_AND_TIME ( #190, #304 ) ;
#279 = EDGE_LOOP ( 'NONE', ( #56, #110 ) ) ;
#280 = APPROVAL_DATE_TIME ( #157, #96 ) ;
#281 = FACE_BOUND ( 'NONE', #246, .T. ) ;
#282 = CARTESIAN_POINT ( 'NONE',  ( 1.249999999999987100, 0.0000000000000000000, 17.00000000000000000 ) ) ;
#283 = ADVANCED_BREP_SHAPE_REPRESENTATION ( 'PiÞce1', ( #254, #230 ), #268 ) ;
#284 = CARTESIAN_POINT ( 'NONE',  ( 0.0000000000000000000, 0.0000000000000000000, 17.00000000000000000 ) ) ;
#285 = DIRECTION ( 'NONE',  ( 1.000000000000000000, 0.0000000000000000000, 0.0000000000000000000 ) ) ;
#286 = ORIENTED_EDGE ( 'NONE', *, *, #162, .F. ) ;
#287 = PLANE ( 'NONE',  #237 ) ;
#288 = CARTESIAN_POINT ( 'NONE',  ( 0.0000000000000000000, 0.0000000000000000000, 0.0000000000000000000 ) ) ;
#289 = CARTESIAN_POINT ( 'NONE',  ( -6.250000000000000000, 0.0000000000000000000, 0.0000000000000000000 ) ) ;
#290 = ORIENTED_EDGE ( 'NONE', *, *, #315, .F. ) ;
#291 = ORIENTED_EDGE ( 'NONE', *, *, #99, .F. ) ;
#292 = CARTESIAN_POINT ( 'NONE',  ( 6.250000000000000000, 7.654042494670957600E-016, 15.00000000000000000 ) ) ;
#293 = DIRECTION ( 'NONE',  ( 1.000000000000000000, 0.0000000000000000000, 0.0000000000000000000 ) ) ;
#294 = AXIS2_PLACEMENT_3D ( 'NONE', #235, #188, #85 ) ;
#295 = CIRCLE ( 'NONE', #111, 8.250000000000000000 ) ;
#296 = CARTESIAN_POINT ( 'NONE',  ( 6.250000000000000000, 7.654042494670957600E-016, 15.00000000000000000 ) ) ;
#297 = CC_DESIGN_SECURITY_CLASSIFICATION ( #273, ( #128 ) ) ;
#298 = AXIS2_PLACEMENT_3D ( 'NONE', #288, #31, #285 ) ;
#299 = SHAPE_DEFINITION_REPRESENTATION ( #208, #283 ) ;
#300 = FACE_OUTER_BOUND ( 'NONE', #221, .T. ) ;
#301 = MECHANICAL_CONTEXT ( 'NONE', #47, 'mechanical' ) ;
#302 = ORIENTED_EDGE ( 'NONE', *, *, #120, .F. ) ;
#303 = CIRCLE ( 'NONE', #298, 8.250000000000000000 ) ;
#304 = LOCAL_TIME ( 21, 42, 49.00000000000000000, #100 ) ;
#305 = ORIENTED_EDGE ( 'NONE', *, *, #15, .T. ) ;
#306 = DIRECTION ( 'NONE',  ( 0.0000000000000000000, 0.0000000000000000000, 1.000000000000000000 ) ) ;
#307 = ORIENTED_EDGE ( 'NONE', *, *, #174, .T. ) ;
#308 = EDGE_LOOP ( 'NONE', ( #144, #307, #196, #286 ) ) ;
#309 = EDGE_CURVE ( 'NONE', #149, #180, #186, .T. ) ;
#310 = DIRECTION ( 'NONE',  ( 0.0000000000000000000, 0.0000000000000000000, 1.000000000000000000 ) ) ;
#311 = CARTESIAN_POINT ( 'NONE',  ( 0.0000000000000000000, 0.0000000000000000000, 15.00000000000000000 ) ) ;
#312 = PERSON_AND_ORGANIZATION ( #132, #200 ) ;
#313 = CIRCLE ( 'NONE', #50, 1.249999999999987100 ) ;
#314 = CARTESIAN_POINT ( 'NONE',  ( 0.0000000000000000000, 0.0000000000000000000, 17.00000000000000000 ) ) ;
#315 = EDGE_CURVE ( 'NONE', #8, #22, #275, .T. ) ;
#316 = DIRECTION ( 'NONE',  ( 1.000000000000000000, 0.0000000000000000000, 0.0000000000000000000 ) ) ;
#317 = CYLINDRICAL_SURFACE ( 'NONE', #1, 6.250000000000000000 ) ;
#318 = DESIGN_CONTEXT ( 'detailed design', #155, 'design' ) ;
#319 = ADVANCED_FACE ( 'NONE', ( #203 ), #222, .T. ) ;
#320 = AXIS2_PLACEMENT_3D ( 'NONE', #12, #118, #112 ) ;
#321 = COORDINATED_UNIVERSAL_TIME_OFFSET ( 1, 0, .AHEAD. ) ;
#322 = VERTEX_POINT ( 'NONE', #296 ) ;
#323 = EDGE_LOOP ( 'NONE', ( #78, #291, #3, #238 ) ) ;
#324 = DATE_AND_TIME ( #263, #212 ) ;
#325 = LINE ( 'NONE', #66, #48 ) ;
#326 = PERSON_AND_ORGANIZATION_ROLE ( 'design_supplier' ) ;
#327 = PERSON_AND_ORGANIZATION ( #132, #200 ) ;
#328 = EDGE_LOOP ( 'NONE', ( #272, #109 ) ) ;
#329 = ORIENTED_EDGE ( 'NONE', *, *, #151, .T. ) ;
ENDSEC;
END-ISO-10303-21;
