ISO-10303-21;
HEADER;
FILE_DESCRIPTION(('CATIA V5 STEP Exchange'),'2;1');

FILE_NAME('\\\\Srvad\\users\\julien.ragot\\Mes documents\\CATIA\\Guide demarreur.stp','2019-05-17T06:12:22+00:00',('none'),('none'),'CATIA Version 5 Release 20 GA (IN-10)','CATIA V5 STEP AP203','none');

FILE_SCHEMA(('CONFIG_CONTROL_DESIGN'));

ENDSEC;
/* file written by CATIA V5R20 */
DATA;
#5=PRODUCT('Guide demarreur','','',(#2)) ;
#1=APPLICATION_CONTEXT('configuration controlled 3D design of mechanical parts and assemblies') ;
#14=PRODUCT_DEFINITION('',' ',#6,#3) ;
#16=SECURITY_CLASSIFICATION(' ',' ',#15) ;
#15=SECURITY_CLASSIFICATION_LEVEL('unclassified') ;
#47=CARTESIAN_POINT(' ',(0.,0.,0.)) ;
#52=CARTESIAN_POINT('Axis2P3D Location',(0.,0.,10.75)) ;
#57=CARTESIAN_POINT('Axis2P3D Location',(0.,0.,5.75)) ;
#61=CARTESIAN_POINT('Vertex',(7.,0.,5.75)) ;
#63=CARTESIAN_POINT('Vertex',(-7.,8.57224447676E-016,5.75)) ;
#66=CARTESIAN_POINT('Line Origine',(-7.,8.57224447676E-016,10.75)) ;
#70=CARTESIAN_POINT('Vertex',(-7.,8.57224447676E-016,15.75)) ;
#73=CARTESIAN_POINT('Axis2P3D Location',(0.,0.,15.75)) ;
#77=CARTESIAN_POINT('Vertex',(7.,0.,15.75)) ;
#80=CARTESIAN_POINT('Line Origine',(7.,0.,10.75)) ;
#92=CARTESIAN_POINT('Axis2P3D Location',(0.,0.,5.75)) ;
#97=CARTESIAN_POINT('Axis2P3D Location',(0.,0.,15.75)) ;
#109=CARTESIAN_POINT('Axis2P3D Location',(0.,0.,10.75)) ;
#114=CARTESIAN_POINT('Line Origine',(-5.725,7.01087137563E-016,10.75)) ;
#118=CARTESIAN_POINT('Vertex',(-5.725,7.01087137563E-016,15.75)) ;
#120=CARTESIAN_POINT('Vertex',(-5.725,7.01087137563E-016,5.75)) ;
#123=CARTESIAN_POINT('Axis2P3D Location',(0.,0.,15.75)) ;
#127=CARTESIAN_POINT('Vertex',(5.725,0.,15.75)) ;
#130=CARTESIAN_POINT('Line Origine',(5.725,-1.40217427513E-015,10.75)) ;
#134=CARTESIAN_POINT('Vertex',(5.725,0.,5.75)) ;
#137=CARTESIAN_POINT('Axis2P3D Location',(0.,0.,5.75)) ;
#149=CARTESIAN_POINT('Axis2P3D Location',(0.,0.,15.75)) ;
#154=CARTESIAN_POINT('Axis2P3D Location',(0.,0.,5.75)) ;
#166=CARTESIAN_POINT('Axis2P3D Location',(0.,7.01,15.75)) ;
#180=CARTESIAN_POINT('Axis2P3D Location',(0.,0.,5.75)) ;
#198=CARTESIAN_POINT('Axis2P3D Location',(0.,0.,0.)) ;
#203=CARTESIAN_POINT('Line Origine',(3.36077302562,-6.15185375885,10.75)) ;
#207=CARTESIAN_POINT('Vertex',(3.36077302562,-6.15185375885,15.75)) ;
#209=CARTESIAN_POINT('Vertex',(3.36077302562,-6.15185375885,5.75)) ;
#212=CARTESIAN_POINT('Axis2P3D Location',(0.,0.,5.75)) ;
#216=CARTESIAN_POINT('Vertex',(-3.36077302562,6.15185375885,5.75)) ;
#219=CARTESIAN_POINT('Line Origine',(-3.36077302562,6.15185375885,10.75)) ;
#223=CARTESIAN_POINT('Vertex',(-3.36077302562,6.15185375885,15.75)) ;
#226=CARTESIAN_POINT('Axis2P3D Location',(0.,0.,15.75)) ;
#238=CARTESIAN_POINT('Axis2P3D Location',(0.,0.,5.75)) ;
#243=CARTESIAN_POINT('Axis2P3D Location',(0.,0.,15.75)) ;
#255=CARTESIAN_POINT('Axis2P3D Location',(0.,0.,1.70277461298)) ;
#260=CARTESIAN_POINT('Line Origine',(1.68038651281,-3.07592687943,3.72638730649)) ;
#264=CARTESIAN_POINT('Vertex',(0.,0.,1.70277461298)) ;
#267=CARTESIAN_POINT('Line Origine',(-1.68038651281,3.07592687943,3.72638730649)) ;
#284=CARTESIAN_POINT('Axis2P3D Location',(0.,0.,0.)) ;
#289=CARTESIAN_POINT('Line Origine',(2.87655323163,-5.26549537134,-10.)) ;
#293=CARTESIAN_POINT('Vertex',(2.87655323163,-5.26549537134,-15.75)) ;
#295=CARTESIAN_POINT('Vertex',(2.87655323163,-5.26549537134,-4.25)) ;
#298=CARTESIAN_POINT('Axis2P3D Location',(0.,0.,-4.25)) ;
#302=CARTESIAN_POINT('Vertex',(-2.87655323163,5.26549537134,-4.25)) ;
#305=CARTESIAN_POINT('Line Origine',(-2.87655323163,5.26549537134,-10.)) ;
#309=CARTESIAN_POINT('Vertex',(-2.87655323163,5.26549537134,-15.75)) ;
#312=CARTESIAN_POINT('Axis2P3D Location',(0.,0.,-15.75)) ;
#324=CARTESIAN_POINT('Axis2P3D Location',(0.,0.,-4.25)) ;
#329=CARTESIAN_POINT('Axis2P3D Location',(0.,0.,-15.75)) ;
#341=CARTESIAN_POINT('Axis2P3D Location',(0.,0.,0.)) ;
#346=CARTESIAN_POINT('Line Origine',(5.75310646325,-10.5309907427,5.75)) ;
#350=CARTESIAN_POINT('Vertex',(5.75310646325,-10.5309907427,-4.25)) ;
#352=CARTESIAN_POINT('Vertex',(5.75310646325,-10.5309907427,15.75)) ;
#355=CARTESIAN_POINT('Axis2P3D Location',(0.,0.,15.75)) ;
#359=CARTESIAN_POINT('Vertex',(-5.75310646325,10.5309907427,15.75)) ;
#362=CARTESIAN_POINT('Line Origine',(-5.75310646325,10.5309907427,5.75)) ;
#366=CARTESIAN_POINT('Vertex',(-5.75310646325,10.5309907427,-4.25)) ;
#369=CARTESIAN_POINT('Axis2P3D Location',(0.,0.,-4.25)) ;
#381=CARTESIAN_POINT('Axis2P3D Location',(0.,0.,15.75)) ;
#386=CARTESIAN_POINT('Axis2P3D Location',(0.,0.,-4.25)) ;
#398=CARTESIAN_POINT('Axis2P3D Location',(0.,6.,-15.75)) ;
#408=CARTESIAN_POINT('Axis2P3D Location',(0.,12.,-4.25)) ;
#53=DIRECTION('Axis2P3D Direction',(0.,0.,1.)) ;
#54=DIRECTION('Axis2P3D XDirection',(1.,0.,0.)) ;
#58=DIRECTION('Axis2P3D Direction',(0.,0.,1.)) ;
#67=DIRECTION('Vector Direction',(0.,0.,1.)) ;
#74=DIRECTION('Axis2P3D Direction',(0.,0.,1.)) ;
#81=DIRECTION('Vector Direction',(0.,0.,1.)) ;
#93=DIRECTION('Axis2P3D Direction',(0.,0.,1.)) ;
#98=DIRECTION('Axis2P3D Direction',(0.,0.,1.)) ;
#110=DIRECTION('Axis2P3D Direction',(0.,0.,1.)) ;
#111=DIRECTION('Axis2P3D XDirection',(1.,0.,0.)) ;
#115=DIRECTION('Vector Direction',(0.,0.,1.)) ;
#124=DIRECTION('Axis2P3D Direction',(0.,0.,1.)) ;
#131=DIRECTION('Vector Direction',(0.,0.,1.)) ;
#138=DIRECTION('Axis2P3D Direction',(0.,0.,1.)) ;
#150=DIRECTION('Axis2P3D Direction',(0.,0.,1.)) ;
#155=DIRECTION('Axis2P3D Direction',(0.,0.,1.)) ;
#167=DIRECTION('Axis2P3D Direction',(0.,0.,1.)) ;
#168=DIRECTION('Axis2P3D XDirection',(1.,0.,0.)) ;
#181=DIRECTION('Axis2P3D Direction',(0.,0.,1.)) ;
#182=DIRECTION('Axis2P3D XDirection',(1.,0.,0.)) ;
#199=DIRECTION('Axis2P3D Direction',(0.,0.,1.)) ;
#200=DIRECTION('Axis2P3D XDirection',(-0.479425538604,0.87758256189,0.)) ;
#204=DIRECTION('Vector Direction',(0.,0.,1.)) ;
#213=DIRECTION('Axis2P3D Direction',(0.,0.,1.)) ;
#220=DIRECTION('Vector Direction',(0.,0.,1.)) ;
#227=DIRECTION('Axis2P3D Direction',(0.,0.,1.)) ;
#239=DIRECTION('Axis2P3D Direction',(0.,0.,1.)) ;
#244=DIRECTION('Axis2P3D Direction',(0.,0.,1.)) ;
#256=DIRECTION('Axis2P3D Direction',(0.,0.,1.)) ;
#257=DIRECTION('Axis2P3D XDirection',(-0.479425538604,0.87758256189,0.)) ;
#261=DIRECTION('Vector Direction',(0.415194695654,-0.760008792515,0.5)) ;
#268=DIRECTION('Vector Direction',(-0.415194695654,0.760008792515,0.5)) ;
#285=DIRECTION('Axis2P3D Direction',(0.,0.,1.)) ;
#286=DIRECTION('Axis2P3D XDirection',(-0.479425538604,0.87758256189,0.)) ;
#290=DIRECTION('Vector Direction',(0.,0.,1.)) ;
#299=DIRECTION('Axis2P3D Direction',(0.,0.,1.)) ;
#306=DIRECTION('Vector Direction',(0.,0.,1.)) ;
#313=DIRECTION('Axis2P3D Direction',(0.,0.,1.)) ;
#325=DIRECTION('Axis2P3D Direction',(0.,0.,1.)) ;
#330=DIRECTION('Axis2P3D Direction',(0.,0.,1.)) ;
#342=DIRECTION('Axis2P3D Direction',(0.,0.,1.)) ;
#343=DIRECTION('Axis2P3D XDirection',(-0.479425538604,0.87758256189,0.)) ;
#347=DIRECTION('Vector Direction',(0.,0.,1.)) ;
#356=DIRECTION('Axis2P3D Direction',(0.,0.,1.)) ;
#363=DIRECTION('Vector Direction',(0.,0.,1.)) ;
#370=DIRECTION('Axis2P3D Direction',(0.,0.,1.)) ;
#382=DIRECTION('Axis2P3D Direction',(0.,0.,1.)) ;
#387=DIRECTION('Axis2P3D Direction',(0.,0.,1.)) ;
#399=DIRECTION('Axis2P3D Direction',(0.,0.,1.)) ;
#400=DIRECTION('Axis2P3D XDirection',(1.,0.,0.)) ;
#409=DIRECTION('Axis2P3D Direction',(0.,0.,1.)) ;
#410=DIRECTION('Axis2P3D XDirection',(1.,0.,0.)) ;
#48=AXIS2_PLACEMENT_3D(' ',#47,$,$) ;
#55=AXIS2_PLACEMENT_3D('Cylinder Axis2P3D',#52,#53,#54) ;
#59=AXIS2_PLACEMENT_3D('Circle Axis2P3D',#57,#58,$) ;
#75=AXIS2_PLACEMENT_3D('Circle Axis2P3D',#73,#74,$) ;
#94=AXIS2_PLACEMENT_3D('Circle Axis2P3D',#92,#93,$) ;
#99=AXIS2_PLACEMENT_3D('Circle Axis2P3D',#97,#98,$) ;
#112=AXIS2_PLACEMENT_3D('Cylinder Axis2P3D',#109,#110,#111) ;
#125=AXIS2_PLACEMENT_3D('Circle Axis2P3D',#123,#124,$) ;
#139=AXIS2_PLACEMENT_3D('Circle Axis2P3D',#137,#138,$) ;
#151=AXIS2_PLACEMENT_3D('Circle Axis2P3D',#149,#150,$) ;
#156=AXIS2_PLACEMENT_3D('Circle Axis2P3D',#154,#155,$) ;
#169=AXIS2_PLACEMENT_3D('Plane Axis2P3D',#166,#167,#168) ;
#183=AXIS2_PLACEMENT_3D('Plane Axis2P3D',#180,#181,#182) ;
#201=AXIS2_PLACEMENT_3D('Cylinder Axis2P3D',#198,#199,#200) ;
#214=AXIS2_PLACEMENT_3D('Circle Axis2P3D',#212,#213,$) ;
#228=AXIS2_PLACEMENT_3D('Circle Axis2P3D',#226,#227,$) ;
#240=AXIS2_PLACEMENT_3D('Circle Axis2P3D',#238,#239,$) ;
#245=AXIS2_PLACEMENT_3D('Circle Axis2P3D',#243,#244,$) ;
#258=AXIS2_PLACEMENT_3D('Cone Axis2P3D',#255,#256,#257) ;
#287=AXIS2_PLACEMENT_3D('Cylinder Axis2P3D',#284,#285,#286) ;
#300=AXIS2_PLACEMENT_3D('Circle Axis2P3D',#298,#299,$) ;
#314=AXIS2_PLACEMENT_3D('Circle Axis2P3D',#312,#313,$) ;
#326=AXIS2_PLACEMENT_3D('Circle Axis2P3D',#324,#325,$) ;
#331=AXIS2_PLACEMENT_3D('Circle Axis2P3D',#329,#330,$) ;
#344=AXIS2_PLACEMENT_3D('Cylinder Axis2P3D',#341,#342,#343) ;
#357=AXIS2_PLACEMENT_3D('Circle Axis2P3D',#355,#356,$) ;
#371=AXIS2_PLACEMENT_3D('Circle Axis2P3D',#369,#370,$) ;
#383=AXIS2_PLACEMENT_3D('Circle Axis2P3D',#381,#382,$) ;
#388=AXIS2_PLACEMENT_3D('Circle Axis2P3D',#386,#387,$) ;
#401=AXIS2_PLACEMENT_3D('Plane Axis2P3D',#398,#399,#400) ;
#411=AXIS2_PLACEMENT_3D('Plane Axis2P3D',#408,#409,#410) ;
#40=PRODUCT_DEFINITION_SHAPE(' ',' ',#14) ;
#31=APPROVAL_PERSON_ORGANIZATION(#25,#21,#19) ;
#25=PERSON_AND_ORGANIZATION(#22,#23) ;
#22=PERSON(' ',' ',' ',$,$,$) ;
#23=ORGANIZATION(' ',' ',' ') ;
#21=APPROVAL(#20,' ') ;
#20=APPROVAL_STATUS('not_yet_approved') ;
#19=APPROVAL_ROLE('APPROVER') ;
#13=DATE_AND_TIME(#11,#12) ;
#12=LOCAL_TIME(8,12,21.,#10) ;
#10=COORDINATED_UNIVERSAL_TIME_OFFSET(0,0,.AHEAD.) ;
#86=ORIENTED_EDGE('',*,*,#65,.T.) ;
#87=ORIENTED_EDGE('',*,*,#72,.F.) ;
#88=ORIENTED_EDGE('',*,*,#79,.F.) ;
#89=ORIENTED_EDGE('',*,*,#84,.T.) ;
#103=ORIENTED_EDGE('',*,*,#96,.T.) ;
#104=ORIENTED_EDGE('',*,*,#84,.F.) ;
#105=ORIENTED_EDGE('',*,*,#101,.F.) ;
#106=ORIENTED_EDGE('',*,*,#72,.T.) ;
#143=ORIENTED_EDGE('',*,*,#122,.F.) ;
#144=ORIENTED_EDGE('',*,*,#129,.T.) ;
#145=ORIENTED_EDGE('',*,*,#136,.T.) ;
#146=ORIENTED_EDGE('',*,*,#141,.F.) ;
#160=ORIENTED_EDGE('',*,*,#136,.F.) ;
#161=ORIENTED_EDGE('',*,*,#153,.T.) ;
#162=ORIENTED_EDGE('',*,*,#122,.T.) ;
#163=ORIENTED_EDGE('',*,*,#158,.F.) ;
#172=ORIENTED_EDGE('',*,*,#79,.T.) ;
#173=ORIENTED_EDGE('',*,*,#101,.T.) ;
#176=ORIENTED_EDGE('',*,*,#129,.F.) ;
#177=ORIENTED_EDGE('',*,*,#153,.F.) ;
#186=ORIENTED_EDGE('',*,*,#96,.F.) ;
#187=ORIENTED_EDGE('',*,*,#65,.F.) ;
#190=ORIENTED_EDGE('',*,*,#158,.T.) ;
#191=ORIENTED_EDGE('',*,*,#141,.T.) ;
#232=ORIENTED_EDGE('',*,*,#211,.T.) ;
#233=ORIENTED_EDGE('',*,*,#218,.F.) ;
#234=ORIENTED_EDGE('',*,*,#225,.F.) ;
#235=ORIENTED_EDGE('',*,*,#230,.T.) ;
#249=ORIENTED_EDGE('',*,*,#225,.T.) ;
#250=ORIENTED_EDGE('',*,*,#242,.F.) ;
#251=ORIENTED_EDGE('',*,*,#211,.F.) ;
#252=ORIENTED_EDGE('',*,*,#247,.T.) ;
#273=ORIENTED_EDGE('',*,*,#266,.T.) ;
#274=ORIENTED_EDGE('',*,*,#271,.F.) ;
#275=ORIENTED_EDGE('',*,*,#218,.T.) ;
#279=ORIENTED_EDGE('',*,*,#271,.T.) ;
#280=ORIENTED_EDGE('',*,*,#266,.F.) ;
#281=ORIENTED_EDGE('',*,*,#242,.T.) ;
#318=ORIENTED_EDGE('',*,*,#297,.T.) ;
#319=ORIENTED_EDGE('',*,*,#304,.F.) ;
#320=ORIENTED_EDGE('',*,*,#311,.F.) ;
#321=ORIENTED_EDGE('',*,*,#316,.T.) ;
#335=ORIENTED_EDGE('',*,*,#311,.T.) ;
#336=ORIENTED_EDGE('',*,*,#328,.F.) ;
#337=ORIENTED_EDGE('',*,*,#297,.F.) ;
#338=ORIENTED_EDGE('',*,*,#333,.T.) ;
#375=ORIENTED_EDGE('',*,*,#354,.T.) ;
#376=ORIENTED_EDGE('',*,*,#361,.F.) ;
#377=ORIENTED_EDGE('',*,*,#368,.F.) ;
#378=ORIENTED_EDGE('',*,*,#373,.T.) ;
#392=ORIENTED_EDGE('',*,*,#368,.T.) ;
#393=ORIENTED_EDGE('',*,*,#385,.F.) ;
#394=ORIENTED_EDGE('',*,*,#354,.F.) ;
#395=ORIENTED_EDGE('',*,*,#390,.T.) ;
#404=ORIENTED_EDGE('',*,*,#333,.F.) ;
#405=ORIENTED_EDGE('',*,*,#316,.F.) ;
#414=ORIENTED_EDGE('',*,*,#373,.F.) ;
#415=ORIENTED_EDGE('',*,*,#390,.F.) ;
#418=ORIENTED_EDGE('',*,*,#328,.T.) ;
#419=ORIENTED_EDGE('',*,*,#304,.T.) ;
#423=ORIENTED_EDGE('',*,*,#385,.T.) ;
#424=ORIENTED_EDGE('',*,*,#361,.T.) ;
#427=ORIENTED_EDGE('',*,*,#230,.F.) ;
#428=ORIENTED_EDGE('',*,*,#247,.F.) ;
#178=FACE_BOUND('',#175,.T.) ;
#192=FACE_BOUND('',#189,.T.) ;
#420=FACE_BOUND('',#417,.T.) ;
#429=FACE_BOUND('',#426,.T.) ;
#51=CLOSED_SHELL('Closed Shell',(#91,#108,#148,#165,#179,#193)) ;
#197=CLOSED_SHELL('Closed Shell',(#237,#254,#277,#283,#323,#340,#380,#397,#407,#421,#430)) ;
#68=VECTOR('Line Direction',#67,1.) ;
#82=VECTOR('Line Direction',#81,1.) ;
#116=VECTOR('Line Direction',#115,1.) ;
#132=VECTOR('Line Direction',#131,1.) ;
#205=VECTOR('Line Direction',#204,1.) ;
#221=VECTOR('Line Direction',#220,1.) ;
#262=VECTOR('Line Direction',#261,1.) ;
#269=VECTOR('Line Direction',#268,1.) ;
#291=VECTOR('Line Direction',#290,1.) ;
#307=VECTOR('Line Direction',#306,1.) ;
#348=VECTOR('Line Direction',#347,1.) ;
#364=VECTOR('Line Direction',#363,1.) ;
#195=ADVANCED_BREP_SHAPE_REPRESENTATION('NONE',(#194,#431),#46) ;
#49=SHAPE_REPRESENTATION(' ',(#48),#46) ;
#91=ADVANCED_FACE('Corps principal',(#90),#56,.T.) ;
#108=ADVANCED_FACE('Corps principal',(#107),#56,.T.) ;
#148=ADVANCED_FACE('Corps principal',(#147),#113,.F.) ;
#165=ADVANCED_FACE('Corps principal',(#164),#113,.F.) ;
#179=ADVANCED_FACE('Corps principal',(#174,#178),#170,.T.) ;
#193=ADVANCED_FACE('Corps principal',(#188,#192),#184,.F.) ;
#237=ADVANCED_FACE('Corps principal',(#236),#202,.F.) ;
#254=ADVANCED_FACE('Corps principal',(#253),#202,.F.) ;
#277=ADVANCED_FACE('Corps principal',(#276),#259,.F.) ;
#283=ADVANCED_FACE('Corps principal',(#282),#259,.F.) ;
#323=ADVANCED_FACE('Corps principal',(#322),#288,.T.) ;
#340=ADVANCED_FACE('Corps principal',(#339),#288,.T.) ;
#380=ADVANCED_FACE('Corps principal',(#379),#345,.T.) ;
#397=ADVANCED_FACE('Corps principal',(#396),#345,.T.) ;
#407=ADVANCED_FACE('Corps principal',(#406),#402,.F.) ;
#421=ADVANCED_FACE('Corps principal',(#416,#420),#412,.F.) ;
#430=ADVANCED_FACE('Corps principal',(#425,#429),#170,.T.) ;
#4=APPLICATION_PROTOCOL_DEFINITION('international standard','config_control_design',1994,#1) ;
#32=APPROVAL_DATE_TIME(#13,#21) ;
#194=MANIFOLD_SOLID_BREP('Corps principal.1',#51) ;
#431=MANIFOLD_SOLID_BREP('Corps principal.2',#197) ;
#11=CALENDAR_DATE(2019,17,5) ;
#30=CC_DESIGN_APPROVAL(#21,(#16,#6,#14)) ;
#18=CC_DESIGN_DATE_AND_TIME_ASSIGNMENT(#13,#17,(#16)) ;
#29=CC_DESIGN_DATE_AND_TIME_ASSIGNMENT(#13,#28,(#14)) ;
#17=DATE_TIME_ROLE('classification_date') ;
#28=DATE_TIME_ROLE('creation_date') ;
#27=CC_DESIGN_PERSON_AND_ORGANIZATION_ASSIGNMENT(#25,#26,(#16)) ;
#33=CC_DESIGN_PERSON_AND_ORGANIZATION_ASSIGNMENT(#25,#34,(#6)) ;
#35=CC_DESIGN_PERSON_AND_ORGANIZATION_ASSIGNMENT(#25,#36,(#6,#14)) ;
#37=CC_DESIGN_PERSON_AND_ORGANIZATION_ASSIGNMENT(#25,#38,(#5)) ;
#26=PERSON_AND_ORGANIZATION_ROLE('classification_officer') ;
#34=PERSON_AND_ORGANIZATION_ROLE('design_supplier') ;
#36=PERSON_AND_ORGANIZATION_ROLE('creator') ;
#38=PERSON_AND_ORGANIZATION_ROLE('design_owner') ;
#39=CC_DESIGN_SECURITY_CLASSIFICATION(#16,(#6)) ;
#60=CIRCLE('generated circle',#59,7.) ;
#76=CIRCLE('generated circle',#75,7.) ;
#95=CIRCLE('generated circle',#94,7.) ;
#100=CIRCLE('generated circle',#99,7.) ;
#126=CIRCLE('generated circle',#125,5.725) ;
#140=CIRCLE('generated circle',#139,5.725) ;
#152=CIRCLE('generated circle',#151,5.725) ;
#157=CIRCLE('generated circle',#156,5.725) ;
#215=CIRCLE('generated circle',#214,7.01) ;
#229=CIRCLE('generated circle',#228,7.01) ;
#241=CIRCLE('generated circle',#240,7.01) ;
#246=CIRCLE('generated circle',#245,7.01) ;
#301=CIRCLE('generated circle',#300,6.) ;
#315=CIRCLE('generated circle',#314,6.) ;
#327=CIRCLE('generated circle',#326,6.) ;
#332=CIRCLE('generated circle',#331,6.) ;
#358=CIRCLE('generated circle',#357,12.) ;
#372=CIRCLE('generated circle',#371,12.) ;
#384=CIRCLE('generated circle',#383,12.) ;
#389=CIRCLE('generated circle',#388,12.) ;
#259=CONICAL_SURFACE('Cone',#258,0.,1.0471975512) ;
#196=SHAPE_REPRESENTATION_RELATIONSHIP(' ',' ',#49,#195) ;
#56=CYLINDRICAL_SURFACE('generated cylinder',#55,7.) ;
#113=CYLINDRICAL_SURFACE('generated cylinder',#112,5.725) ;
#202=CYLINDRICAL_SURFACE('generated cylinder',#201,7.01) ;
#288=CYLINDRICAL_SURFACE('generated cylinder',#287,6.) ;
#345=CYLINDRICAL_SURFACE('generated cylinder',#344,12.) ;
#3=DESIGN_CONTEXT(' ',#1,'design') ;
#65=EDGE_CURVE('',#62,#64,#60,.T.) ;
#72=EDGE_CURVE('',#71,#64,#69,.F.) ;
#79=EDGE_CURVE('',#78,#71,#76,.T.) ;
#84=EDGE_CURVE('',#78,#62,#83,.F.) ;
#96=EDGE_CURVE('',#64,#62,#95,.T.) ;
#101=EDGE_CURVE('',#71,#78,#100,.T.) ;
#122=EDGE_CURVE('',#119,#121,#117,.F.) ;
#129=EDGE_CURVE('',#119,#128,#126,.T.) ;
#136=EDGE_CURVE('',#128,#135,#133,.F.) ;
#141=EDGE_CURVE('',#121,#135,#140,.T.) ;
#153=EDGE_CURVE('',#128,#119,#152,.T.) ;
#158=EDGE_CURVE('',#135,#121,#157,.T.) ;
#211=EDGE_CURVE('',#208,#210,#206,.F.) ;
#218=EDGE_CURVE('',#217,#210,#215,.T.) ;
#225=EDGE_CURVE('',#224,#217,#222,.F.) ;
#230=EDGE_CURVE('',#224,#208,#229,.T.) ;
#242=EDGE_CURVE('',#210,#217,#241,.T.) ;
#247=EDGE_CURVE('',#208,#224,#246,.T.) ;
#266=EDGE_CURVE('',#210,#265,#263,.F.) ;
#271=EDGE_CURVE('',#217,#265,#270,.F.) ;
#297=EDGE_CURVE('',#294,#296,#292,.T.) ;
#304=EDGE_CURVE('',#303,#296,#301,.T.) ;
#311=EDGE_CURVE('',#310,#303,#308,.T.) ;
#316=EDGE_CURVE('',#310,#294,#315,.T.) ;
#328=EDGE_CURVE('',#296,#303,#327,.T.) ;
#333=EDGE_CURVE('',#294,#310,#332,.T.) ;
#354=EDGE_CURVE('',#351,#353,#349,.T.) ;
#361=EDGE_CURVE('',#360,#353,#358,.T.) ;
#368=EDGE_CURVE('',#367,#360,#365,.T.) ;
#373=EDGE_CURVE('',#367,#351,#372,.T.) ;
#385=EDGE_CURVE('',#353,#360,#384,.T.) ;
#390=EDGE_CURVE('',#351,#367,#389,.T.) ;
#85=EDGE_LOOP('',(#86,#87,#88,#89)) ;
#102=EDGE_LOOP('',(#103,#104,#105,#106)) ;
#142=EDGE_LOOP('',(#143,#144,#145,#146)) ;
#159=EDGE_LOOP('',(#160,#161,#162,#163)) ;
#171=EDGE_LOOP('',(#172,#173)) ;
#175=EDGE_LOOP('',(#176,#177)) ;
#185=EDGE_LOOP('',(#186,#187)) ;
#189=EDGE_LOOP('',(#190,#191)) ;
#231=EDGE_LOOP('',(#232,#233,#234,#235)) ;
#248=EDGE_LOOP('',(#249,#250,#251,#252)) ;
#272=EDGE_LOOP('',(#273,#274,#275)) ;
#278=EDGE_LOOP('',(#279,#280,#281)) ;
#317=EDGE_LOOP('',(#318,#319,#320,#321)) ;
#334=EDGE_LOOP('',(#335,#336,#337,#338)) ;
#374=EDGE_LOOP('',(#375,#376,#377,#378)) ;
#391=EDGE_LOOP('',(#392,#393,#394,#395)) ;
#403=EDGE_LOOP('',(#404,#405)) ;
#413=EDGE_LOOP('',(#414,#415)) ;
#417=EDGE_LOOP('',(#418,#419)) ;
#422=EDGE_LOOP('',(#423,#424)) ;
#426=EDGE_LOOP('',(#427,#428)) ;
#90=FACE_OUTER_BOUND('',#85,.T.) ;
#107=FACE_OUTER_BOUND('',#102,.T.) ;
#147=FACE_OUTER_BOUND('',#142,.T.) ;
#164=FACE_OUTER_BOUND('',#159,.T.) ;
#174=FACE_OUTER_BOUND('',#171,.T.) ;
#188=FACE_OUTER_BOUND('',#185,.T.) ;
#236=FACE_OUTER_BOUND('',#231,.T.) ;
#253=FACE_OUTER_BOUND('',#248,.T.) ;
#276=FACE_OUTER_BOUND('',#272,.T.) ;
#282=FACE_OUTER_BOUND('',#278,.T.) ;
#322=FACE_OUTER_BOUND('',#317,.T.) ;
#339=FACE_OUTER_BOUND('',#334,.T.) ;
#379=FACE_OUTER_BOUND('',#374,.T.) ;
#396=FACE_OUTER_BOUND('',#391,.T.) ;
#406=FACE_OUTER_BOUND('',#403,.T.) ;
#416=FACE_OUTER_BOUND('',#413,.T.) ;
#425=FACE_OUTER_BOUND('',#422,.T.) ;
#45=UNCERTAINTY_MEASURE_WITH_UNIT(LENGTH_MEASURE(0.005),#41,'distance_accuracy_value','CONFUSED CURVE UNCERTAINTY') ;
#69=LINE('Line',#66,#68) ;
#83=LINE('Line',#80,#82) ;
#117=LINE('Line',#114,#116) ;
#133=LINE('Line',#130,#132) ;
#206=LINE('Line',#203,#205) ;
#222=LINE('Line',#219,#221) ;
#263=LINE('Line',#260,#262) ;
#270=LINE('Line',#267,#269) ;
#292=LINE('Line',#289,#291) ;
#308=LINE('Line',#305,#307) ;
#349=LINE('Line',#346,#348) ;
#365=LINE('Line',#362,#364) ;
#2=MECHANICAL_CONTEXT(' ',#1,'mechanical') ;
#24=PERSONAL_ADDRESS(' ',' ',' ',' ',' ',' ',' ',' ',' ',' ',' ',' ',(#22),' ') ;
#170=PLANE('Plane',#169) ;
#184=PLANE('Plane',#183) ;
#402=PLANE('Plane',#401) ;
#412=PLANE('Plane',#411) ;
#43=PLANE_ANGLE_MEASURE_WITH_UNIT(PLANE_ANGLE_MEASURE(0.0174532925199),#42) ;
#7=PRODUCT_CATEGORY('part',$) ;
#9=PRODUCT_CATEGORY_RELATIONSHIP(' ',' ',#7,#8) ;
#6=PRODUCT_DEFINITION_FORMATION_WITH_SPECIFIED_SOURCE('',' ',#5,.NOT_KNOWN.) ;
#8=PRODUCT_RELATED_PRODUCT_CATEGORY('detail',$,(#5)) ;
#50=SHAPE_DEFINITION_REPRESENTATION(#40,#49) ;
#62=VERTEX_POINT('',#61) ;
#64=VERTEX_POINT('',#63) ;
#71=VERTEX_POINT('',#70) ;
#78=VERTEX_POINT('',#77) ;
#119=VERTEX_POINT('',#118) ;
#121=VERTEX_POINT('',#120) ;
#128=VERTEX_POINT('',#127) ;
#135=VERTEX_POINT('',#134) ;
#208=VERTEX_POINT('',#207) ;
#210=VERTEX_POINT('',#209) ;
#217=VERTEX_POINT('',#216) ;
#224=VERTEX_POINT('',#223) ;
#265=VERTEX_POINT('',#264) ;
#294=VERTEX_POINT('',#293) ;
#296=VERTEX_POINT('',#295) ;
#303=VERTEX_POINT('',#302) ;
#310=VERTEX_POINT('',#309) ;
#351=VERTEX_POINT('',#350) ;
#353=VERTEX_POINT('',#352) ;
#360=VERTEX_POINT('',#359) ;
#367=VERTEX_POINT('',#366) ;
#41=(LENGTH_UNIT()NAMED_UNIT(*)SI_UNIT(.MILLI.,.METRE.)) ;
#42=(NAMED_UNIT(*)PLANE_ANGLE_UNIT()SI_UNIT($,.RADIAN.)) ;
#44=(NAMED_UNIT(*)SI_UNIT($,.STERADIAN.)SOLID_ANGLE_UNIT()) ;
#46=(GEOMETRIC_REPRESENTATION_CONTEXT(3)GLOBAL_UNCERTAINTY_ASSIGNED_CONTEXT((#45))GLOBAL_UNIT_ASSIGNED_CONTEXT((#41,#42,#44))REPRESENTATION_CONTEXT(' ',' ')) ;
ENDSEC;
END-ISO-10303-21;
