ISO-10303-21;
HEADER;
/* Generated by software containing ST-Developer
 * from STEP Tools, Inc. (www.steptools.com) 
 */
/* OPTION: strings as raw bytes, not using required /X/ escapes */

FILE_DESCRIPTION(
/* description */ ('Unknown'),
/* implementation_level */ '2;1');

FILE_NAME(
/* name */ 'SupportRoulement',
/* time_stamp */ '2019-05-09T08:39:50+02:00',
/* author */ ('Unknown'),
/* organization */ ('Unknown'),
/* preprocessor_version */ 'ST-DEVELOPER v16.7',
/* originating_system */ 'DEX',
/* authorisation */ $);

FILE_SCHEMA (('AUTOMOTIVE_DESIGN {1 0 10303 214 3 1 1}'));
ENDSEC;

DATA;
#10=PROPERTY_DEFINITION_REPRESENTATION(#14,#12);
#11=PROPERTY_DEFINITION_REPRESENTATION(#15,#13);
#12=REPRESENTATION('',(#16),#625);
#13=REPRESENTATION('',(#17),#625);
#14=PROPERTY_DEFINITION('pmi validation property','',#630);
#15=PROPERTY_DEFINITION('pmi validation property','',#630);
#16=VALUE_REPRESENTATION_ITEM('number of annotations',COUNT_MEASURE(0.));
#17=VALUE_REPRESENTATION_ITEM('number of views',COUNT_MEASURE(0.));
#18=SHAPE_REPRESENTATION_RELATIONSHIP('','',#421,#19);
#19=ADVANCED_BREP_SHAPE_REPRESENTATION('',(#419),#625);
#20=CYLINDRICAL_SURFACE('',#425,4.188);
#21=CYLINDRICAL_SURFACE('',#427,4.188);
#22=CYLINDRICAL_SURFACE('',#431,4.188);
#23=CYLINDRICAL_SURFACE('',#433,4.188);
#24=CYLINDRICAL_SURFACE('',#437,4.188);
#25=CYLINDRICAL_SURFACE('',#439,4.188);
#26=CYLINDRICAL_SURFACE('',#441,4.188);
#27=CYLINDRICAL_SURFACE('',#447,61.);
#28=CYLINDRICAL_SURFACE('',#452,31.);
#29=CYLINDRICAL_SURFACE('',#456,28.);
#30=CYLINDRICAL_SURFACE('',#460,25.);
#31=CYLINDRICAL_SURFACE('',#464,28.);
#32=CYLINDRICAL_SURFACE('',#466,4.188);
#33=ORIENTED_EDGE('',*,*,#77,.T.);
#34=ORIENTED_EDGE('',*,*,#77,.F.);
#35=ORIENTED_EDGE('',*,*,#78,.T.);
#36=ORIENTED_EDGE('',*,*,#78,.F.);
#37=ORIENTED_EDGE('',*,*,#79,.F.);
#38=ORIENTED_EDGE('',*,*,#80,.T.);
#39=ORIENTED_EDGE('',*,*,#80,.F.);
#40=ORIENTED_EDGE('',*,*,#81,.T.);
#41=ORIENTED_EDGE('',*,*,#81,.F.);
#42=ORIENTED_EDGE('',*,*,#82,.F.);
#43=ORIENTED_EDGE('',*,*,#83,.T.);
#44=ORIENTED_EDGE('',*,*,#83,.F.);
#45=ORIENTED_EDGE('',*,*,#84,.T.);
#46=ORIENTED_EDGE('',*,*,#84,.F.);
#47=ORIENTED_EDGE('',*,*,#85,.F.);
#48=ORIENTED_EDGE('',*,*,#86,.F.);
#49=ORIENTED_EDGE('',*,*,#87,.T.);
#50=ORIENTED_EDGE('',*,*,#88,.F.);
#51=ORIENTED_EDGE('',*,*,#89,.T.);
#52=ORIENTED_EDGE('',*,*,#90,.F.);
#53=ORIENTED_EDGE('',*,*,#88,.T.);
#54=ORIENTED_EDGE('',*,*,#79,.T.);
#55=ORIENTED_EDGE('',*,*,#82,.T.);
#56=ORIENTED_EDGE('',*,*,#85,.T.);
#57=ORIENTED_EDGE('',*,*,#91,.T.);
#58=ORIENTED_EDGE('',*,*,#92,.F.);
#59=ORIENTED_EDGE('',*,*,#90,.T.);
#60=ORIENTED_EDGE('',*,*,#93,.F.);
#61=ORIENTED_EDGE('',*,*,#92,.T.);
#62=ORIENTED_EDGE('',*,*,#94,.F.);
#63=ORIENTED_EDGE('',*,*,#93,.T.);
#64=ORIENTED_EDGE('',*,*,#95,.F.);
#65=ORIENTED_EDGE('',*,*,#94,.T.);
#66=ORIENTED_EDGE('',*,*,#96,.F.);
#67=ORIENTED_EDGE('',*,*,#95,.T.);
#68=ORIENTED_EDGE('',*,*,#97,.F.);
#69=ORIENTED_EDGE('',*,*,#96,.T.);
#70=ORIENTED_EDGE('',*,*,#98,.F.);
#71=ORIENTED_EDGE('',*,*,#97,.T.);
#72=ORIENTED_EDGE('',*,*,#89,.F.);
#73=ORIENTED_EDGE('',*,*,#98,.T.);
#74=ORIENTED_EDGE('',*,*,#86,.T.);
#75=ORIENTED_EDGE('',*,*,#87,.F.);
#76=ORIENTED_EDGE('',*,*,#91,.F.);
#77=EDGE_CURVE('',#99,#99,#121,.T.);
#78=EDGE_CURVE('',#100,#100,#122,.T.);
#79=EDGE_CURVE('',#101,#101,#123,.T.);
#80=EDGE_CURVE('',#102,#102,#124,.T.);
#81=EDGE_CURVE('',#103,#103,#125,.T.);
#82=EDGE_CURVE('',#104,#104,#126,.T.);
#83=EDGE_CURVE('',#105,#105,#127,.T.);
#84=EDGE_CURVE('',#106,#106,#128,.T.);
#85=EDGE_CURVE('',#107,#107,#129,.T.);
#86=EDGE_CURVE('',#108,#108,#130,.T.);
#87=EDGE_CURVE('',#109,#109,#131,.T.);
#88=EDGE_CURVE('',#110,#110,#132,.T.);
#89=EDGE_CURVE('',#111,#111,#133,.T.);
#90=EDGE_CURVE('',#112,#112,#134,.T.);
#91=EDGE_CURVE('',#113,#113,#135,.T.);
#92=EDGE_CURVE('',#114,#114,#136,.T.);
#93=EDGE_CURVE('',#115,#115,#137,.T.);
#94=EDGE_CURVE('',#116,#116,#138,.T.);
#95=EDGE_CURVE('',#117,#117,#139,.T.);
#96=EDGE_CURVE('',#118,#118,#140,.T.);
#97=EDGE_CURVE('',#119,#119,#141,.T.);
#98=EDGE_CURVE('',#120,#120,#142,.T.);
#99=VERTEX_POINT('',#560);
#100=VERTEX_POINT('',#563);
#101=VERTEX_POINT('',#566);
#102=VERTEX_POINT('',#569);
#103=VERTEX_POINT('',#572);
#104=VERTEX_POINT('',#575);
#105=VERTEX_POINT('',#578);
#106=VERTEX_POINT('',#581);
#107=VERTEX_POINT('',#584);
#108=VERTEX_POINT('',#587);
#109=VERTEX_POINT('',#589);
#110=VERTEX_POINT('',#592);
#111=VERTEX_POINT('',#594);
#112=VERTEX_POINT('',#597);
#113=VERTEX_POINT('',#600);
#114=VERTEX_POINT('',#602);
#115=VERTEX_POINT('',#605);
#116=VERTEX_POINT('',#608);
#117=VERTEX_POINT('',#611);
#118=VERTEX_POINT('',#614);
#119=VERTEX_POINT('',#617);
#120=VERTEX_POINT('',#620);
#121=CIRCLE('',#424,4.188);
#122=CIRCLE('',#426,4.188);
#123=CIRCLE('',#428,4.188);
#124=CIRCLE('',#430,4.188);
#125=CIRCLE('',#432,4.188);
#126=CIRCLE('',#434,4.188);
#127=CIRCLE('',#436,4.188);
#128=CIRCLE('',#438,4.188);
#129=CIRCLE('',#440,4.188);
#130=CIRCLE('',#442,4.188);
#131=CIRCLE('',#443,4.188);
#132=CIRCLE('',#445,61.);
#133=CIRCLE('',#446,28.);
#134=CIRCLE('',#448,61.);
#135=CIRCLE('',#450,4.188);
#136=CIRCLE('',#451,31.);
#137=CIRCLE('',#453,31.);
#138=CIRCLE('',#455,28.);
#139=CIRCLE('',#457,28.);
#140=CIRCLE('',#459,25.);
#141=CIRCLE('',#461,25.);
#142=CIRCLE('',#463,28.);
#143=EDGE_LOOP('',(#33));
#144=EDGE_LOOP('',(#34));
#145=EDGE_LOOP('',(#35));
#146=EDGE_LOOP('',(#36));
#147=EDGE_LOOP('',(#37));
#148=EDGE_LOOP('',(#38));
#149=EDGE_LOOP('',(#39));
#150=EDGE_LOOP('',(#40));
#151=EDGE_LOOP('',(#41));
#152=EDGE_LOOP('',(#42));
#153=EDGE_LOOP('',(#43));
#154=EDGE_LOOP('',(#44));
#155=EDGE_LOOP('',(#45));
#156=EDGE_LOOP('',(#46));
#157=EDGE_LOOP('',(#47));
#158=EDGE_LOOP('',(#48));
#159=EDGE_LOOP('',(#49));
#160=EDGE_LOOP('',(#50));
#161=EDGE_LOOP('',(#51));
#162=EDGE_LOOP('',(#52));
#163=EDGE_LOOP('',(#53));
#164=EDGE_LOOP('',(#54));
#165=EDGE_LOOP('',(#55));
#166=EDGE_LOOP('',(#56));
#167=EDGE_LOOP('',(#57));
#168=EDGE_LOOP('',(#58));
#169=EDGE_LOOP('',(#59));
#170=EDGE_LOOP('',(#60));
#171=EDGE_LOOP('',(#61));
#172=EDGE_LOOP('',(#62));
#173=EDGE_LOOP('',(#63));
#174=EDGE_LOOP('',(#64));
#175=EDGE_LOOP('',(#65));
#176=EDGE_LOOP('',(#66));
#177=EDGE_LOOP('',(#67));
#178=EDGE_LOOP('',(#68));
#179=EDGE_LOOP('',(#69));
#180=EDGE_LOOP('',(#70));
#181=EDGE_LOOP('',(#71));
#182=EDGE_LOOP('',(#72));
#183=EDGE_LOOP('',(#73));
#184=EDGE_LOOP('',(#74));
#185=EDGE_LOOP('',(#75));
#186=EDGE_LOOP('',(#76));
#187=FACE_BOUND('',#143,.T.);
#188=FACE_BOUND('',#144,.T.);
#189=FACE_BOUND('',#145,.T.);
#190=FACE_BOUND('',#146,.T.);
#191=FACE_BOUND('',#147,.T.);
#192=FACE_BOUND('',#148,.T.);
#193=FACE_BOUND('',#149,.T.);
#194=FACE_BOUND('',#150,.T.);
#195=FACE_BOUND('',#151,.T.);
#196=FACE_BOUND('',#152,.T.);
#197=FACE_BOUND('',#153,.T.);
#198=FACE_BOUND('',#154,.T.);
#199=FACE_BOUND('',#155,.T.);
#200=FACE_BOUND('',#156,.T.);
#201=FACE_BOUND('',#157,.T.);
#202=FACE_BOUND('',#158,.T.);
#203=FACE_BOUND('',#159,.T.);
#204=FACE_BOUND('',#160,.T.);
#205=FACE_BOUND('',#161,.T.);
#206=FACE_BOUND('',#162,.T.);
#207=FACE_BOUND('',#163,.T.);
#208=FACE_BOUND('',#164,.T.);
#209=FACE_BOUND('',#165,.T.);
#210=FACE_BOUND('',#166,.T.);
#211=FACE_BOUND('',#167,.T.);
#212=FACE_BOUND('',#168,.T.);
#213=FACE_BOUND('',#169,.T.);
#214=FACE_BOUND('',#170,.T.);
#215=FACE_BOUND('',#171,.T.);
#216=FACE_BOUND('',#172,.T.);
#217=FACE_BOUND('',#173,.T.);
#218=FACE_BOUND('',#174,.T.);
#219=FACE_BOUND('',#175,.T.);
#220=FACE_BOUND('',#176,.T.);
#221=FACE_BOUND('',#177,.T.);
#222=FACE_BOUND('',#178,.T.);
#223=FACE_BOUND('',#179,.T.);
#224=FACE_BOUND('',#180,.T.);
#225=FACE_BOUND('',#181,.T.);
#226=FACE_BOUND('',#182,.T.);
#227=FACE_BOUND('',#183,.T.);
#228=FACE_BOUND('',#184,.T.);
#229=FACE_BOUND('',#185,.T.);
#230=FACE_BOUND('',#186,.T.);
#231=PLANE('',#423);
#232=PLANE('',#429);
#233=PLANE('',#435);
#234=PLANE('',#444);
#235=PLANE('',#449);
#236=PLANE('',#454);
#237=PLANE('',#458);
#238=PLANE('',#462);
#239=PLANE('',#465);
#240=STYLED_ITEM('',(#262),#396);
#241=STYLED_ITEM('',(#263),#397);
#242=STYLED_ITEM('',(#264),#398);
#243=STYLED_ITEM('',(#265),#399);
#244=STYLED_ITEM('',(#266),#400);
#245=STYLED_ITEM('',(#267),#401);
#246=STYLED_ITEM('',(#268),#402);
#247=STYLED_ITEM('',(#269),#403);
#248=STYLED_ITEM('',(#270),#404);
#249=STYLED_ITEM('',(#271),#405);
#250=STYLED_ITEM('',(#272),#406);
#251=STYLED_ITEM('',(#273),#407);
#252=STYLED_ITEM('',(#274),#408);
#253=STYLED_ITEM('',(#275),#409);
#254=STYLED_ITEM('',(#276),#410);
#255=STYLED_ITEM('',(#277),#411);
#256=STYLED_ITEM('',(#278),#412);
#257=STYLED_ITEM('',(#279),#413);
#258=STYLED_ITEM('',(#280),#414);
#259=STYLED_ITEM('',(#281),#415);
#260=STYLED_ITEM('',(#282),#416);
#261=STYLED_ITEM('',(#283),#417);
#262=PRESENTATION_STYLE_ASSIGNMENT((#284));
#263=PRESENTATION_STYLE_ASSIGNMENT((#285));
#264=PRESENTATION_STYLE_ASSIGNMENT((#286));
#265=PRESENTATION_STYLE_ASSIGNMENT((#287));
#266=PRESENTATION_STYLE_ASSIGNMENT((#288));
#267=PRESENTATION_STYLE_ASSIGNMENT((#289));
#268=PRESENTATION_STYLE_ASSIGNMENT((#290));
#269=PRESENTATION_STYLE_ASSIGNMENT((#291));
#270=PRESENTATION_STYLE_ASSIGNMENT((#292));
#271=PRESENTATION_STYLE_ASSIGNMENT((#293));
#272=PRESENTATION_STYLE_ASSIGNMENT((#294));
#273=PRESENTATION_STYLE_ASSIGNMENT((#295));
#274=PRESENTATION_STYLE_ASSIGNMENT((#296));
#275=PRESENTATION_STYLE_ASSIGNMENT((#297));
#276=PRESENTATION_STYLE_ASSIGNMENT((#298));
#277=PRESENTATION_STYLE_ASSIGNMENT((#299));
#278=PRESENTATION_STYLE_ASSIGNMENT((#300));
#279=PRESENTATION_STYLE_ASSIGNMENT((#301));
#280=PRESENTATION_STYLE_ASSIGNMENT((#302));
#281=PRESENTATION_STYLE_ASSIGNMENT((#303));
#282=PRESENTATION_STYLE_ASSIGNMENT((#304));
#283=PRESENTATION_STYLE_ASSIGNMENT((#305));
#284=SURFACE_STYLE_USAGE(.BOTH.,#306);
#285=SURFACE_STYLE_USAGE(.BOTH.,#307);
#286=SURFACE_STYLE_USAGE(.BOTH.,#308);
#287=SURFACE_STYLE_USAGE(.BOTH.,#309);
#288=SURFACE_STYLE_USAGE(.BOTH.,#310);
#289=SURFACE_STYLE_USAGE(.BOTH.,#311);
#290=SURFACE_STYLE_USAGE(.BOTH.,#312);
#291=SURFACE_STYLE_USAGE(.BOTH.,#313);
#292=SURFACE_STYLE_USAGE(.BOTH.,#314);
#293=SURFACE_STYLE_USAGE(.BOTH.,#315);
#294=SURFACE_STYLE_USAGE(.BOTH.,#316);
#295=SURFACE_STYLE_USAGE(.BOTH.,#317);
#296=SURFACE_STYLE_USAGE(.BOTH.,#318);
#297=SURFACE_STYLE_USAGE(.BOTH.,#319);
#298=SURFACE_STYLE_USAGE(.BOTH.,#320);
#299=SURFACE_STYLE_USAGE(.BOTH.,#321);
#300=SURFACE_STYLE_USAGE(.BOTH.,#322);
#301=SURFACE_STYLE_USAGE(.BOTH.,#323);
#302=SURFACE_STYLE_USAGE(.BOTH.,#324);
#303=SURFACE_STYLE_USAGE(.BOTH.,#325);
#304=SURFACE_STYLE_USAGE(.BOTH.,#326);
#305=SURFACE_STYLE_USAGE(.BOTH.,#327);
#306=SURFACE_SIDE_STYLE('',(#328));
#307=SURFACE_SIDE_STYLE('',(#329));
#308=SURFACE_SIDE_STYLE('',(#330));
#309=SURFACE_SIDE_STYLE('',(#331));
#310=SURFACE_SIDE_STYLE('',(#332));
#311=SURFACE_SIDE_STYLE('',(#333));
#312=SURFACE_SIDE_STYLE('',(#334));
#313=SURFACE_SIDE_STYLE('',(#335));
#314=SURFACE_SIDE_STYLE('',(#336));
#315=SURFACE_SIDE_STYLE('',(#337));
#316=SURFACE_SIDE_STYLE('',(#338));
#317=SURFACE_SIDE_STYLE('',(#339));
#318=SURFACE_SIDE_STYLE('',(#340));
#319=SURFACE_SIDE_STYLE('',(#341));
#320=SURFACE_SIDE_STYLE('',(#342));
#321=SURFACE_SIDE_STYLE('',(#343));
#322=SURFACE_SIDE_STYLE('',(#344));
#323=SURFACE_SIDE_STYLE('',(#345));
#324=SURFACE_SIDE_STYLE('',(#346));
#325=SURFACE_SIDE_STYLE('',(#347));
#326=SURFACE_SIDE_STYLE('',(#348));
#327=SURFACE_SIDE_STYLE('',(#349));
#328=SURFACE_STYLE_FILL_AREA(#350);
#329=SURFACE_STYLE_FILL_AREA(#351);
#330=SURFACE_STYLE_FILL_AREA(#352);
#331=SURFACE_STYLE_FILL_AREA(#353);
#332=SURFACE_STYLE_FILL_AREA(#354);
#333=SURFACE_STYLE_FILL_AREA(#355);
#334=SURFACE_STYLE_FILL_AREA(#356);
#335=SURFACE_STYLE_FILL_AREA(#357);
#336=SURFACE_STYLE_FILL_AREA(#358);
#337=SURFACE_STYLE_FILL_AREA(#359);
#338=SURFACE_STYLE_FILL_AREA(#360);
#339=SURFACE_STYLE_FILL_AREA(#361);
#340=SURFACE_STYLE_FILL_AREA(#362);
#341=SURFACE_STYLE_FILL_AREA(#363);
#342=SURFACE_STYLE_FILL_AREA(#364);
#343=SURFACE_STYLE_FILL_AREA(#365);
#344=SURFACE_STYLE_FILL_AREA(#366);
#345=SURFACE_STYLE_FILL_AREA(#367);
#346=SURFACE_STYLE_FILL_AREA(#368);
#347=SURFACE_STYLE_FILL_AREA(#369);
#348=SURFACE_STYLE_FILL_AREA(#370);
#349=SURFACE_STYLE_FILL_AREA(#371);
#350=FILL_AREA_STYLE('',(#372));
#351=FILL_AREA_STYLE('',(#373));
#352=FILL_AREA_STYLE('',(#374));
#353=FILL_AREA_STYLE('',(#375));
#354=FILL_AREA_STYLE('',(#376));
#355=FILL_AREA_STYLE('',(#377));
#356=FILL_AREA_STYLE('',(#378));
#357=FILL_AREA_STYLE('',(#379));
#358=FILL_AREA_STYLE('',(#380));
#359=FILL_AREA_STYLE('',(#381));
#360=FILL_AREA_STYLE('',(#382));
#361=FILL_AREA_STYLE('',(#383));
#362=FILL_AREA_STYLE('',(#384));
#363=FILL_AREA_STYLE('',(#385));
#364=FILL_AREA_STYLE('',(#386));
#365=FILL_AREA_STYLE('',(#387));
#366=FILL_AREA_STYLE('',(#388));
#367=FILL_AREA_STYLE('',(#389));
#368=FILL_AREA_STYLE('',(#390));
#369=FILL_AREA_STYLE('',(#391));
#370=FILL_AREA_STYLE('',(#392));
#371=FILL_AREA_STYLE('',(#393));
#372=FILL_AREA_STYLE_COLOUR('',#394);
#373=FILL_AREA_STYLE_COLOUR('',#395);
#374=FILL_AREA_STYLE_COLOUR('',#395);
#375=FILL_AREA_STYLE_COLOUR('',#394);
#376=FILL_AREA_STYLE_COLOUR('',#395);
#377=FILL_AREA_STYLE_COLOUR('',#395);
#378=FILL_AREA_STYLE_COLOUR('',#394);
#379=FILL_AREA_STYLE_COLOUR('',#395);
#380=FILL_AREA_STYLE_COLOUR('',#395);
#381=FILL_AREA_STYLE_COLOUR('',#395);
#382=FILL_AREA_STYLE_COLOUR('',#394);
#383=FILL_AREA_STYLE_COLOUR('',#394);
#384=FILL_AREA_STYLE_COLOUR('',#394);
#385=FILL_AREA_STYLE_COLOUR('',#394);
#386=FILL_AREA_STYLE_COLOUR('',#394);
#387=FILL_AREA_STYLE_COLOUR('',#394);
#388=FILL_AREA_STYLE_COLOUR('',#394);
#389=FILL_AREA_STYLE_COLOUR('',#394);
#390=FILL_AREA_STYLE_COLOUR('',#394);
#391=FILL_AREA_STYLE_COLOUR('',#394);
#392=FILL_AREA_STYLE_COLOUR('',#394);
#393=FILL_AREA_STYLE_COLOUR('',#395);
#394=COLOUR_RGB('',0.331739127635956,0.340869575738907,0.349999994039536);
#395=COLOUR_RGB('',0.1875,0.75,0.581249892711639);
#396=ADVANCED_FACE('',(#187),#231,.F.);
#397=ADVANCED_FACE('',(#188,#189),#20,.F.);
#398=ADVANCED_FACE('',(#190,#191),#21,.F.);
#399=ADVANCED_FACE('',(#192),#232,.F.);
#400=ADVANCED_FACE('',(#193,#194),#22,.F.);
#401=ADVANCED_FACE('',(#195,#196),#23,.F.);
#402=ADVANCED_FACE('',(#197),#233,.F.);
#403=ADVANCED_FACE('',(#198,#199),#24,.F.);
#404=ADVANCED_FACE('',(#200,#201),#25,.F.);
#405=ADVANCED_FACE('',(#202,#203),#26,.F.);
#406=ADVANCED_FACE('',(#204,#205),#234,.F.);
#407=ADVANCED_FACE('',(#206,#207),#27,.T.);
#408=ADVANCED_FACE('',(#208,#209,#210,#211,#212,#213),#235,.F.);
#409=ADVANCED_FACE('',(#214,#215),#28,.F.);
#410=ADVANCED_FACE('',(#216,#217),#236,.F.);
#411=ADVANCED_FACE('',(#218,#219),#29,.F.);
#412=ADVANCED_FACE('',(#220,#221),#237,.F.);
#413=ADVANCED_FACE('',(#222,#223),#30,.F.);
#414=ADVANCED_FACE('',(#224,#225),#238,.F.);
#415=ADVANCED_FACE('',(#226,#227),#31,.T.);
#416=ADVANCED_FACE('',(#228),#239,.F.);
#417=ADVANCED_FACE('',(#229,#230),#32,.F.);
#418=CLOSED_SHELL('',(#396,#397,#398,#399,#400,#401,#402,#403,#404,#405,
#406,#407,#408,#409,#410,#411,#412,#413,#414,#415,#416,#417));
#419=MANIFOLD_SOLID_BREP('',#418);
#420=SHAPE_DEFINITION_REPRESENTATION(#630,#421);
#421=SHAPE_REPRESENTATION('SupportRoulement',(#422),#625);
#422=AXIS2_PLACEMENT_3D('',#557,#467,#468);
#423=AXIS2_PLACEMENT_3D('',#558,#469,#470);
#424=AXIS2_PLACEMENT_3D('',#559,#471,#472);
#425=AXIS2_PLACEMENT_3D('',#561,#473,#474);
#426=AXIS2_PLACEMENT_3D('',#562,#475,#476);
#427=AXIS2_PLACEMENT_3D('',#564,#477,#478);
#428=AXIS2_PLACEMENT_3D('',#565,#479,#480);
#429=AXIS2_PLACEMENT_3D('',#567,#481,#482);
#430=AXIS2_PLACEMENT_3D('',#568,#483,#484);
#431=AXIS2_PLACEMENT_3D('',#570,#485,#486);
#432=AXIS2_PLACEMENT_3D('',#571,#487,#488);
#433=AXIS2_PLACEMENT_3D('',#573,#489,#490);
#434=AXIS2_PLACEMENT_3D('',#574,#491,#492);
#435=AXIS2_PLACEMENT_3D('',#576,#493,#494);
#436=AXIS2_PLACEMENT_3D('',#577,#495,#496);
#437=AXIS2_PLACEMENT_3D('',#579,#497,#498);
#438=AXIS2_PLACEMENT_3D('',#580,#499,#500);
#439=AXIS2_PLACEMENT_3D('',#582,#501,#502);
#440=AXIS2_PLACEMENT_3D('',#583,#503,#504);
#441=AXIS2_PLACEMENT_3D('',#585,#505,#506);
#442=AXIS2_PLACEMENT_3D('',#586,#507,#508);
#443=AXIS2_PLACEMENT_3D('',#588,#509,#510);
#444=AXIS2_PLACEMENT_3D('',#590,#511,#512);
#445=AXIS2_PLACEMENT_3D('',#591,#513,#514);
#446=AXIS2_PLACEMENT_3D('',#593,#515,#516);
#447=AXIS2_PLACEMENT_3D('',#595,#517,#518);
#448=AXIS2_PLACEMENT_3D('',#596,#519,#520);
#449=AXIS2_PLACEMENT_3D('',#598,#521,#522);
#450=AXIS2_PLACEMENT_3D('',#599,#523,#524);
#451=AXIS2_PLACEMENT_3D('',#601,#525,#526);
#452=AXIS2_PLACEMENT_3D('',#603,#527,#528);
#453=AXIS2_PLACEMENT_3D('',#604,#529,#530);
#454=AXIS2_PLACEMENT_3D('',#606,#531,#532);
#455=AXIS2_PLACEMENT_3D('',#607,#533,#534);
#456=AXIS2_PLACEMENT_3D('',#609,#535,#536);
#457=AXIS2_PLACEMENT_3D('',#610,#537,#538);
#458=AXIS2_PLACEMENT_3D('',#612,#539,#540);
#459=AXIS2_PLACEMENT_3D('',#613,#541,#542);
#460=AXIS2_PLACEMENT_3D('',#615,#543,#544);
#461=AXIS2_PLACEMENT_3D('',#616,#545,#546);
#462=AXIS2_PLACEMENT_3D('',#618,#547,#548);
#463=AXIS2_PLACEMENT_3D('',#619,#549,#550);
#464=AXIS2_PLACEMENT_3D('',#621,#551,#552);
#465=AXIS2_PLACEMENT_3D('',#622,#553,#554);
#466=AXIS2_PLACEMENT_3D('',#623,#555,#556);
#467=DIRECTION('',(0.,0.,1.));
#468=DIRECTION('',(1.,0.,0.));
#469=DIRECTION('',(1.,0.,1.22464679914735E-16));
#470=DIRECTION('',(-2.46519032881566E-32,-1.,1.60812264967664E-16));
#471=DIRECTION('',(-1.,0.,-1.22464679914735E-16));
#472=DIRECTION('',(2.46519032881566E-32,1.,-1.60812264967664E-16));
#473=DIRECTION('',(1.,0.,1.22464679914735E-16));
#474=DIRECTION('',(2.46519032881566E-32,1.,-1.60812264967664E-16));
#475=DIRECTION('',(-1.,0.,-1.22464679914735E-16));
#476=DIRECTION('',(2.46519032881566E-32,1.,-1.60812264967664E-16));
#477=DIRECTION('',(1.,0.,1.22464679914735E-16));
#478=DIRECTION('',(2.46519032881566E-32,1.,-1.60812264967664E-16));
#479=DIRECTION('',(1.,0.,1.22464679914735E-16));
#480=DIRECTION('',(2.46519032881566E-32,1.,-1.60812264967664E-16));
#481=DIRECTION('',(1.,0.,1.22464679914735E-16));
#482=DIRECTION('',(-1.22464679914735E-16,-1.22464679914735E-16,1.));
#483=DIRECTION('',(-1.,0.,-1.22464679914735E-16));
#484=DIRECTION('',(1.22464679914735E-16,1.22464679914735E-16,-1.));
#485=DIRECTION('',(1.,0.,1.22464679914735E-16));
#486=DIRECTION('',(1.22464679914735E-16,1.22464679914735E-16,-1.));
#487=DIRECTION('',(-1.,0.,-1.22464679914735E-16));
#488=DIRECTION('',(1.22464679914735E-16,1.22464679914735E-16,-1.));
#489=DIRECTION('',(1.,0.,1.22464679914735E-16));
#490=DIRECTION('',(1.22464679914735E-16,1.22464679914735E-16,-1.));
#491=DIRECTION('',(1.,0.,1.22464679914735E-16));
#492=DIRECTION('',(1.22464679914735E-16,1.22464679914735E-16,-1.));
#493=DIRECTION('',(1.,0.,1.22464679914735E-16));
#494=DIRECTION('',(-2.46519032881566E-32,1.,1.83697019872103E-16));
#495=DIRECTION('',(-1.,0.,-1.22464679914735E-16));
#496=DIRECTION('',(2.46519032881566E-32,-1.,-1.83697019872103E-16));
#497=DIRECTION('',(1.,0.,1.22464679914735E-16));
#498=DIRECTION('',(2.46519032881566E-32,-1.,-1.83697019872103E-16));
#499=DIRECTION('',(-1.,0.,-1.22464679914735E-16));
#500=DIRECTION('',(2.46519032881566E-32,-1.,-1.83697019872103E-16));
#501=DIRECTION('',(1.,0.,1.22464679914735E-16));
#502=DIRECTION('',(2.46519032881566E-32,-1.,-1.83697019872103E-16));
#503=DIRECTION('',(1.,0.,1.22464679914735E-16));
#504=DIRECTION('',(2.46519032881566E-32,-1.,-1.83697019872103E-16));
#505=DIRECTION('',(1.,0.,1.22464679914735E-16));
#506=DIRECTION('',(-1.22464679914735E-16,0.,1.));
#507=DIRECTION('',(-1.,0.,-1.22464679914735E-16));
#508=DIRECTION('',(-1.22464679914735E-16,0.,1.));
#509=DIRECTION('',(-1.,0.,-1.22464679914735E-16));
#510=DIRECTION('',(-1.22464679914735E-16,0.,1.));
#511=DIRECTION('',(-1.,0.,-1.22464679914735E-16));
#512=DIRECTION('',(-1.22464679914735E-16,0.,1.));
#513=DIRECTION('',(-1.,0.,-1.22464679914735E-16));
#514=DIRECTION('',(-1.22464679914735E-16,0.,1.));
#515=DIRECTION('',(-1.,0.,-1.22464679914735E-16));
#516=DIRECTION('',(-1.22464679914735E-16,0.,1.));
#517=DIRECTION('',(-1.,0.,-1.22464679914735E-16));
#518=DIRECTION('',(-1.22464679914735E-16,0.,1.));
#519=DIRECTION('',(-1.,0.,-1.22464679914735E-16));
#520=DIRECTION('',(-1.22464679914735E-16,0.,1.));
#521=DIRECTION('',(1.,0.,1.22464679914735E-16));
#522=DIRECTION('',(1.22464679914735E-16,0.,-1.));
#523=DIRECTION('',(1.,0.,1.22464679914735E-16));
#524=DIRECTION('',(-1.22464679914735E-16,0.,1.));
#525=DIRECTION('',(-1.,0.,-1.22464679914735E-16));
#526=DIRECTION('',(-1.22464679914735E-16,0.,1.));
#527=DIRECTION('',(-1.,0.,-1.22464679914735E-16));
#528=DIRECTION('',(-1.22464679914735E-16,0.,1.));
#529=DIRECTION('',(-1.,0.,-1.22464679914735E-16));
#530=DIRECTION('',(-1.22464679914735E-16,0.,1.));
#531=DIRECTION('',(1.,0.,1.22464679914735E-16));
#532=DIRECTION('',(1.22464679914735E-16,0.,-1.));
#533=DIRECTION('',(-1.,0.,-1.22464679914735E-16));
#534=DIRECTION('',(-1.22464679914735E-16,0.,1.));
#535=DIRECTION('',(-1.,0.,-1.22464679914735E-16));
#536=DIRECTION('',(-1.22464679914735E-16,0.,1.));
#537=DIRECTION('',(-1.,0.,-1.22464679914735E-16));
#538=DIRECTION('',(-1.22464679914735E-16,0.,1.));
#539=DIRECTION('',(1.,0.,1.22464679914735E-16));
#540=DIRECTION('',(1.22464679914735E-16,0.,-1.));
#541=DIRECTION('',(-1.,0.,-1.22464679914735E-16));
#542=DIRECTION('',(-1.22464679914735E-16,0.,1.));
#543=DIRECTION('',(-1.,0.,-1.22464679914735E-16));
#544=DIRECTION('',(-1.22464679914735E-16,0.,1.));
#545=DIRECTION('',(-1.,0.,-1.22464679914735E-16));
#546=DIRECTION('',(-1.22464679914735E-16,0.,1.));
#547=DIRECTION('',(-1.,0.,-1.22464679914735E-16));
#548=DIRECTION('',(-1.22464679914735E-16,0.,1.));
#549=DIRECTION('',(-1.,0.,-1.22464679914735E-16));
#550=DIRECTION('',(-1.22464679914735E-16,0.,1.));
#551=DIRECTION('',(-1.,0.,-1.22464679914735E-16));
#552=DIRECTION('',(-1.22464679914735E-16,0.,1.));
#553=DIRECTION('',(1.,0.,1.22464679914735E-16));
#554=DIRECTION('',(1.22464679914735E-16,0.,-1.));
#555=DIRECTION('',(1.,0.,1.22464679914735E-16));
#556=DIRECTION('',(-1.22464679914735E-16,0.,1.));
#557=CARTESIAN_POINT('',(0.,0.,0.));
#558=CARTESIAN_POINT('',(-3.99999999999999,45.,-7.7264106432038E-15));
#559=CARTESIAN_POINT('',(-3.99999999999999,45.,-7.7264106432038E-15));
#560=CARTESIAN_POINT('',(-3.99999999999999,49.188,-8.39989240888838E-15));
#561=CARTESIAN_POINT('',(-34.,45.,-1.14003510406459E-14));
#562=CARTESIAN_POINT('',(-32.,45.,-1.11554216808164E-14));
#563=CARTESIAN_POINT('',(-32.,49.188,-1.1828903446501E-14));
#564=CARTESIAN_POINT('',(-34.,45.,-1.14003510406459E-14));
#565=CARTESIAN_POINT('',(-34.,45.,-1.14003510406459E-14));
#566=CARTESIAN_POINT('',(-34.,49.188,-1.20738328063304E-14));
#567=CARTESIAN_POINT('',(-3.99999999999999,5.51091059616309E-15,-45.));
#568=CARTESIAN_POINT('',(-3.99999999999999,5.51091059616309E-15,-45.));
#569=CARTESIAN_POINT('',(-3.99999999999998,6.023792675646E-15,-49.188));
#570=CARTESIAN_POINT('',(-34.,5.51091059616309E-15,-45.));
#571=CARTESIAN_POINT('',(-32.,5.51091059616309E-15,-45.));
#572=CARTESIAN_POINT('',(-32.,6.023792675646E-15,-49.188));
#573=CARTESIAN_POINT('',(-34.,5.51091059616309E-15,-45.));
#574=CARTESIAN_POINT('',(-34.,5.51091059616309E-15,-45.));
#575=CARTESIAN_POINT('',(-34.,6.023792675646E-15,-49.188));
#576=CARTESIAN_POINT('',(-3.99999999999999,-45.,-8.75622461390357E-15));
#577=CARTESIAN_POINT('',(-3.99999999999999,-45.,-8.75622461390357E-15));
#578=CARTESIAN_POINT('',(-3.99999999999999,-49.188,-9.52554773312794E-15));
#579=CARTESIAN_POINT('',(-34.,-45.,-1.24301650113456E-14));
#580=CARTESIAN_POINT('',(-32.,-45.,-1.21852356515162E-14));
#581=CARTESIAN_POINT('',(-32.,-49.188,-1.29545587707405E-14));
#582=CARTESIAN_POINT('',(-34.,-45.,-1.24301650113456E-14));
#583=CARTESIAN_POINT('',(-34.,-45.,-1.24301650113456E-14));
#584=CARTESIAN_POINT('',(-34.,-49.188,-1.319948813057E-14));
#585=CARTESIAN_POINT('',(-34.,0.,45.));
#586=CARTESIAN_POINT('',(-4.,0.,45.));
#587=CARTESIAN_POINT('',(-4.,0.,49.188));
#588=CARTESIAN_POINT('',(-32.,0.,45.));
#589=CARTESIAN_POINT('',(-32.,0.,49.188));
#590=CARTESIAN_POINT('',(-2.45434846245547E-15,0.,28.));
#591=CARTESIAN_POINT('',(-6.12324149309945E-16,0.,-7.49880809493051E-32));
#592=CARTESIAN_POINT('',(-8.0826696241088E-15,0.,61.));
#593=CARTESIAN_POINT('',(2.56164929962419E-15,0.,3.13711561532282E-31));
#594=CARTESIAN_POINT('',(-8.67361737988404E-16,0.,28.));
#595=CARTESIAN_POINT('',(0.,0.,0.));
#596=CARTESIAN_POINT('',(-34.,0.,-4.163799117101E-15));
#597=CARTESIAN_POINT('',(-34.,0.,61.));
#598=CARTESIAN_POINT('',(-34.,0.,61.));
#599=CARTESIAN_POINT('',(-34.,0.,45.));
#600=CARTESIAN_POINT('',(-34.,0.,49.188));
#601=CARTESIAN_POINT('',(-34.,0.,-4.163799117101E-15));
#602=CARTESIAN_POINT('',(-34.,0.,31.));
#603=CARTESIAN_POINT('',(0.,0.,0.));
#604=CARTESIAN_POINT('',(-11.,0.,-1.34711147906209E-15));
#605=CARTESIAN_POINT('',(-11.,0.,31.));
#606=CARTESIAN_POINT('',(-11.,0.,31.));
#607=CARTESIAN_POINT('',(-11.,0.,-1.34711147906209E-15));
#608=CARTESIAN_POINT('',(-11.,0.,28.));
#609=CARTESIAN_POINT('',(0.,0.,0.));
#610=CARTESIAN_POINT('',(-3.,0.,-3.67394039744206E-16));
#611=CARTESIAN_POINT('',(-3.,0.,28.));
#612=CARTESIAN_POINT('',(-3.,0.,28.));
#613=CARTESIAN_POINT('',(-3.,0.,-3.67394039744206E-16));
#614=CARTESIAN_POINT('',(-3.,0.,25.));
#615=CARTESIAN_POINT('',(0.,0.,0.));
#616=CARTESIAN_POINT('',(3.,0.,3.67394039744206E-16));
#617=CARTESIAN_POINT('',(3.,0.,25.));
#618=CARTESIAN_POINT('',(3.,0.,25.));
#619=CARTESIAN_POINT('',(3.,0.,3.67394039744206E-16));
#620=CARTESIAN_POINT('',(3.,0.,28.));
#621=CARTESIAN_POINT('',(0.,0.,0.));
#622=CARTESIAN_POINT('',(-4.,0.,45.));
#623=CARTESIAN_POINT('',(-34.,0.,45.));
#624=MECHANICAL_DESIGN_GEOMETRIC_PRESENTATION_REPRESENTATION('',(#240,#241,
#242,#243,#244,#245,#246,#247,#248,#249,#250,#251,#252,#253,#254,#255,#256,
#257,#258,#259,#260,#261),#625);
#625=(
GEOMETRIC_REPRESENTATION_CONTEXT(3)
GLOBAL_UNCERTAINTY_ASSIGNED_CONTEXT((#626))
GLOBAL_UNIT_ASSIGNED_CONTEXT((#629,#628,#627))
REPRESENTATION_CONTEXT('SupportRoulement','TOP_LEVEL_ASSEMBLY_PART')
);
#626=UNCERTAINTY_MEASURE_WITH_UNIT(LENGTH_MEASURE(0.005),#629,
'DISTANCE_ACCURACY_VALUE','Maximum Tolerance applied to model');
#627=(
NAMED_UNIT(*)
SI_UNIT($,.STERADIAN.)
SOLID_ANGLE_UNIT()
);
#628=(
NAMED_UNIT(*)
PLANE_ANGLE_UNIT()
SI_UNIT($,.RADIAN.)
);
#629=(
LENGTH_UNIT()
NAMED_UNIT(*)
SI_UNIT(.MILLI.,.METRE.)
);
#630=PRODUCT_DEFINITION_SHAPE('','',#631);
#631=PRODUCT_DEFINITION('','',#633,#632);
#632=PRODUCT_DEFINITION_CONTEXT('',#639,'design');
#633=PRODUCT_DEFINITION_FORMATION_WITH_SPECIFIED_SOURCE('','',#635,
 .NOT_KNOWN.);
#634=PRODUCT_RELATED_PRODUCT_CATEGORY('','',(#635));
#635=PRODUCT('SupportRoulement','SupportRoulement','SupportRoulement',(#637));
#636=PRODUCT_CATEGORY('','');
#637=PRODUCT_CONTEXT('',#639,'mechanical');
#638=APPLICATION_PROTOCOL_DEFINITION('international standard',
'automotive_design',2010,#639);
#639=APPLICATION_CONTEXT(
'core data for automotive mechanical design processes');
ENDSEC;
END-ISO-10303-21;
