ISO-10303-21;
HEADER;
FILE_DESCRIPTION (( 'STEP AP214' ),
    '1' );
FILE_NAME ('Douille de selle.STEP',
    '2019-05-04T19:38:31',
    ( '' ),
    ( '' ),
    'SwSTEP 2.0',
    'SolidWorks 2017',
    '' );
FILE_SCHEMA (( 'AUTOMOTIVE_DESIGN' ));
ENDSEC;

DATA;
#1 = UNCERTAINTY_MEASURE_WITH_UNIT (LENGTH_MEASURE( 1.000000000000000100E-005 ), #34, 'distance_accuracy_value', 'NONE');
#2 = EDGE_CURVE ( 'NONE', #49, #60, #38, .T. ) ;
#3 = ADVANCED_FACE ( 'NONE', ( #46, #163 ), #152, .F. ) ;
#4 = CIRCLE ( 'NONE', #70, 0.01594999999999999900 ) ;
#5 = SHAPE_DEFINITION_REPRESENTATION ( #11, #39 ) ;
#6 = FACE_OUTER_BOUND ( 'NONE', #140, .T. ) ;
#7 = DIRECTION ( 'NONE',  ( 0.0000000000000000000, 0.0000000000000000000, 1.000000000000000000 ) ) ;
#8 = AXIS2_PLACEMENT_3D ( 'NONE', #40, #58, #169 ) ;
#9 = CARTESIAN_POINT ( 'NONE',  ( 0.0000000000000000000, 0.0000000000000000000, 0.1400000000000000100 ) ) ;
#10 = CARTESIAN_POINT ( 'NONE',  ( 0.0000000000000000000, 0.0000000000000000000, 0.1400000000000000100 ) ) ;
#11 = PRODUCT_DEFINITION_SHAPE ( 'NONE', 'NONE',  #183 ) ;
#12 = ORIENTED_EDGE ( 'NONE', *, *, #203, .T. ) ;
#13 = DIRECTION ( 'NONE',  ( -0.0000000000000000000, -0.0000000000000000000, -1.000000000000000000 ) ) ;
#14 = DIRECTION ( 'NONE',  ( 0.0000000000000000000, 0.0000000000000000000, 1.000000000000000000 ) ) ;
#15 = ORIENTED_EDGE ( 'NONE', *, *, #203, .F. ) ;
#16 = SURFACE_SIDE_STYLE ('',( #65 ) ) ;
#17 = UNCERTAINTY_MEASURE_WITH_UNIT (LENGTH_MEASURE( 1.000000000000000100E-005 ), #213, 'distance_accuracy_value', 'NONE');
#18 = AXIS2_PLACEMENT_3D ( 'NONE', #159, #134, #212 ) ;
#19 = SURFACE_STYLE_USAGE ( .BOTH. , #16 ) ;
#20 = FACE_OUTER_BOUND ( 'NONE', #132, .T. ) ;
#21 = ORIENTED_EDGE ( 'NONE', *, *, #118, .T. ) ;
#22 = EDGE_LOOP ( 'NONE', ( #50, #23 ) ) ;
#23 = ORIENTED_EDGE ( 'NONE', *, *, #211, .F. ) ;
#24 = ORIENTED_EDGE ( 'NONE', *, *, #114, .T. ) ;
#25 = DIRECTION ( 'NONE',  ( -1.000000000000000000, 0.0000000000000000000, 0.0000000000000000000 ) ) ;
#26 = PRODUCT_RELATED_PRODUCT_CATEGORY ( 'part', '', ( #196 ) ) ;
#27 = CARTESIAN_POINT ( 'NONE',  ( 0.01345000000000000000, 1.647149944853190000E-018, 0.1400000000000000100 ) ) ;
#28 = CARTESIAN_POINT ( 'NONE',  ( -0.01594999999999999900, 0.0000000000000000000, 0.0000000000000000000 ) ) ;
#29 = DIRECTION ( 'NONE',  ( 0.0000000000000000000, 0.0000000000000000000, 1.000000000000000000 ) ) ;
#30 = EDGE_LOOP ( 'NONE', ( #94, #151, #108, #72 ) ) ;
#31 =( NAMED_UNIT ( * ) SI_UNIT ( $, .STERADIAN. ) SOLID_ANGLE_UNIT ( ) );
#32 =( NAMED_UNIT ( * ) PLANE_ANGLE_UNIT ( ) SI_UNIT ( $, .RADIAN. ) );
#33 = EDGE_CURVE ( 'NONE', #157, #60, #4, .T. ) ;
#34 =( LENGTH_UNIT ( ) NAMED_UNIT ( * ) SI_UNIT ( $, .METRE. ) );
#35 = DIRECTION ( 'NONE',  ( 1.000000000000000000, 0.0000000000000000000, 0.0000000000000000000 ) ) ;
#36 = EDGE_CURVE ( 'NONE', #178, #205, #173, .T. ) ;
#37 = VECTOR ( 'NONE', #13, 1.000000000000000000 ) ;
#38 = LINE ( 'NONE', #191, #113 ) ;
#39 = ADVANCED_BREP_SHAPE_REPRESENTATION ( 'Douille de selle', ( #174, #18 ), #120 ) ;
#40 = CARTESIAN_POINT ( 'NONE',  ( 0.0000000000000000000, 0.0000000000000000000, 0.1400000000000000100 ) ) ;
#41 = DIRECTION ( 'NONE',  ( -0.0000000000000000000, -0.0000000000000000000, -1.000000000000000000 ) ) ;
#42 = DIRECTION ( 'NONE',  ( -1.000000000000000000, 0.0000000000000000000, 0.0000000000000000000 ) ) ;
#43 = FILL_AREA_STYLE ('',( #146 ) ) ;
#44 = PRESENTATION_STYLE_ASSIGNMENT (( #19 ) ) ;
#45 = CARTESIAN_POINT ( 'NONE',  ( 0.0000000000000000000, 0.0000000000000000000, 0.1400000000000000100 ) ) ;
#46 = FACE_OUTER_BOUND ( 'NONE', #22, .T. ) ;
#47 = SURFACE_STYLE_USAGE ( .BOTH. , #194 ) ;
#48 = AXIS2_PLACEMENT_3D ( 'NONE', #210, #147, #197 ) ;
#49 = VERTEX_POINT ( 'NONE', #206 ) ;
#50 = ORIENTED_EDGE ( 'NONE', *, *, #33, .F. ) ;
#51 = ORIENTED_EDGE ( 'NONE', *, *, #118, .F. ) ;
#52 = AXIS2_PLACEMENT_3D ( 'NONE', #126, #144, #176 ) ;
#53 = COLOUR_RGB ( '',0.7921568627450980000, 0.8196078431372548800, 0.9333333333333333500 ) ;
#54 = EDGE_LOOP ( 'NONE', ( #145, #106, #168, #149 ) ) ;
#55 = AXIS2_PLACEMENT_3D ( 'NONE', #45, #82, #83 ) ;
#56 = ORIENTED_EDGE ( 'NONE', *, *, #121, .F. ) ;
#57 = CARTESIAN_POINT ( 'NONE',  ( 0.01594999999999999900, 1.953311644640028200E-018, 0.0000000000000000000 ) ) ;
#58 = DIRECTION ( 'NONE',  ( -0.0000000000000000000, -0.0000000000000000000, -1.000000000000000000 ) ) ;
#59 = DIRECTION ( 'NONE',  ( -0.0000000000000000000, -0.0000000000000000000, -1.000000000000000000 ) ) ;
#60 = VERTEX_POINT ( 'NONE', #57 ) ;
#61 = ADVANCED_FACE ( 'NONE', ( #6 ), #91, .T. ) ;
#62 = DIRECTION ( 'NONE',  ( 0.0000000000000000000, 0.0000000000000000000, 1.000000000000000000 ) ) ;
#63 = ORIENTED_EDGE ( 'NONE', *, *, #36, .F. ) ;
#64 = CARTESIAN_POINT ( 'NONE',  ( 0.0000000000000000000, 0.0000000000000000000, 0.0000000000000000000 ) ) ;
#65 = SURFACE_STYLE_FILL_AREA ( #115 ) ;
#66 = VERTEX_POINT ( 'NONE', #153 ) ;
#67 = SURFACE_STYLE_FILL_AREA ( #43 ) ;
#68 = LINE ( 'NONE', #141, #122 ) ;
#69 = ADVANCED_FACE ( 'NONE', ( #136 ), #103, .F. ) ;
#70 = AXIS2_PLACEMENT_3D ( 'NONE', #73, #189, #74 ) ;
#71 = AXIS2_PLACEMENT_3D ( 'NONE', #109, #7, #167 ) ;
#72 = ORIENTED_EDGE ( 'NONE', *, *, #101, .F. ) ;
#73 = CARTESIAN_POINT ( 'NONE',  ( 0.0000000000000000000, 0.0000000000000000000, 0.0000000000000000000 ) ) ;
#74 = DIRECTION ( 'NONE',  ( 1.000000000000000000, 0.0000000000000000000, 0.0000000000000000000 ) ) ;
#75 = AXIS2_PLACEMENT_3D ( 'NONE', #195, #156, #97 ) ;
#76 = PLANE ( 'NONE',  #52 ) ;
#77 = CARTESIAN_POINT ( 'NONE',  ( 0.0000000000000000000, 0.0000000000000000000, 0.0000000000000000000 ) ) ;
#78 = FILL_AREA_STYLE_COLOUR ( '', #112 ) ;
#79 = UNCERTAINTY_MEASURE_WITH_UNIT (LENGTH_MEASURE( 1.000000000000000100E-005 ), #96, 'distance_accuracy_value', 'NONE');
#80 = CIRCLE ( 'NONE', #199, 0.01345000000000000000 ) ;
#81 = EDGE_LOOP ( 'NONE', ( #21, #209 ) ) ;
#82 = DIRECTION ( 'NONE',  ( 0.0000000000000000000, 0.0000000000000000000, 1.000000000000000000 ) ) ;
#83 = DIRECTION ( 'NONE',  ( 1.000000000000000000, 0.0000000000000000000, 0.0000000000000000000 ) ) ;
#84 = AXIS2_PLACEMENT_3D ( 'NONE', #77, #29, #155 ) ;
#85 = STYLED_ITEM ( 'NONE', ( #180 ), #174 ) ;
#86 = APPLICATION_PROTOCOL_DEFINITION ( 'draft international standard', 'automotive_design', 1998, #177 ) ;
#87 = EDGE_LOOP ( 'NONE', ( #138, #63 ) ) ;
#88 = AXIS2_PLACEMENT_3D ( 'NONE', #9, #170, #25 ) ;
#89 = MECHANICAL_DESIGN_GEOMETRIC_PRESENTATION_REPRESENTATION (  '', ( #85 ), #186 ) ;
#90 = CIRCLE ( 'NONE', #93, 0.01594999999999999900 ) ;
#91 = CYLINDRICAL_SURFACE ( 'NONE', #88, 0.01594999999999999900 ) ;
#92 = CARTESIAN_POINT ( 'NONE',  ( 0.0000000000000000000, 0.0000000000000000000, 0.0000000000000000000 ) ) ;
#93 = AXIS2_PLACEMENT_3D ( 'NONE', #128, #62, #175 ) ;
#94 = ORIENTED_EDGE ( 'NONE', *, *, #207, .F. ) ;
#95 = CARTESIAN_POINT ( 'NONE',  ( -0.01345000000000000000, 0.0000000000000000000, 0.0000000000000000000 ) ) ;
#96 =( LENGTH_UNIT ( ) NAMED_UNIT ( * ) SI_UNIT ( $, .METRE. ) );
#97 = DIRECTION ( 'NONE',  ( 1.000000000000000000, 0.0000000000000000000, 0.0000000000000000000 ) ) ;
#98 = VERTEX_POINT ( 'NONE', #107 ) ;
#99 = CARTESIAN_POINT ( 'NONE',  ( 0.0000000000000000000, 0.0000000000000000000, 0.1400000000000000100 ) ) ;
#100 = VECTOR ( 'NONE', #59, 1.000000000000000000 ) ;
#101 = EDGE_CURVE ( 'NONE', #66, #157, #190, .T. ) ;
#102 = VERTEX_POINT ( 'NONE', #95 ) ;
#103 = CYLINDRICAL_SURFACE ( 'NONE', #8, 0.01345000000000000000 ) ;
#104 = PRESENTATION_LAYER_ASSIGNMENT (  '', '', ( #85 ) ) ;
#105 = FACE_BOUND ( 'NONE', #87, .T. ) ;
#106 = ORIENTED_EDGE ( 'NONE', *, *, #121, .T. ) ;
#107 = CARTESIAN_POINT ( 'NONE',  ( 0.01345000000000000000, 1.647149944853190000E-018, 0.0000000000000000000 ) ) ;
#108 = ORIENTED_EDGE ( 'NONE', *, *, #211, .T. ) ;
#109 = CARTESIAN_POINT ( 'NONE',  ( 0.0000000000000000000, 0.0000000000000000000, 0.1400000000000000100 ) ) ;
#110 = DIRECTION ( 'NONE',  ( -0.0000000000000000000, -0.0000000000000000000, -1.000000000000000000 ) ) ;
#111 = AXIS2_PLACEMENT_3D ( 'NONE', #64, #182, #35 ) ;
#112 = COLOUR_RGB ( '',0.7921568627450980000, 0.8196078431372548800, 0.9333333333333333500 ) ;
#113 = VECTOR ( 'NONE', #41, 1.000000000000000000 ) ;
#114 = EDGE_CURVE ( 'NONE', #205, #102, #68, .T. ) ;
#115 = FILL_AREA_STYLE ('',( #78 ) ) ;
#116 = CIRCLE ( 'NONE', #55, 0.01594999999999999900 ) ;
#117 = CIRCLE ( 'NONE', #75, 0.01345000000000000000 ) ;
#118 = EDGE_CURVE ( 'NONE', #66, #49, #116, .T. ) ;
#119 = ADVANCED_FACE ( 'NONE', ( #198, #105 ), #76, .T. ) ;
#120 =( GEOMETRIC_REPRESENTATION_CONTEXT ( 3 ) GLOBAL_UNCERTAINTY_ASSIGNED_CONTEXT ( ( #17 ) ) GLOBAL_UNIT_ASSIGNED_CONTEXT ( ( #213, #32, #148 ) ) REPRESENTATION_CONTEXT ( 'NONE', 'WORKASPACE' ) );
#121 = EDGE_CURVE ( 'NONE', #178, #98, #125, .T. ) ;
#122 = VECTOR ( 'NONE', #110, 1.000000000000000000 ) ;
#123 = AXIS2_PLACEMENT_3D ( 'NONE', #10, #143, #42 ) ;
#124 = DIRECTION ( 'NONE',  ( 1.000000000000000000, 0.0000000000000000000, -0.0000000000000000000 ) ) ;
#125 = LINE ( 'NONE', #130, #37 ) ;
#126 = CARTESIAN_POINT ( 'NONE',  ( 0.0000000000000000000, 0.0000000000000000000, 0.1400000000000000100 ) ) ;
#127 = ORIENTED_EDGE ( 'NONE', *, *, #36, .T. ) ;
#128 = CARTESIAN_POINT ( 'NONE',  ( 0.0000000000000000000, 0.0000000000000000000, 0.1400000000000000100 ) ) ;
#129 = DIRECTION ( 'NONE',  ( 1.000000000000000000, 0.0000000000000000000, 0.0000000000000000000 ) ) ;
#130 = CARTESIAN_POINT ( 'NONE',  ( 0.01345000000000000000, 1.647149944853190000E-018, 0.1400000000000000100 ) ) ;
#131 = MECHANICAL_DESIGN_GEOMETRIC_PRESENTATION_REPRESENTATION (  '', ( #142 ), #154 ) ;
#132 = EDGE_LOOP ( 'NONE', ( #56, #127, #24, #15 ) ) ;
#133 = PRODUCT_CONTEXT ( 'NONE', #177, 'mechanical' ) ;
#134 = DIRECTION ( 'NONE',  ( 0.0000000000000000000, 0.0000000000000000000, 1.000000000000000000 ) ) ;
#135 = EDGE_CURVE ( 'NONE', #205, #178, #80, .T. ) ;
#136 = FACE_OUTER_BOUND ( 'NONE', #54, .T. ) ;
#137 = CYLINDRICAL_SURFACE ( 'NONE', #48, 0.01345000000000000000 ) ;
#138 = ORIENTED_EDGE ( 'NONE', *, *, #135, .F. ) ;
#139 = PRODUCT_DEFINITION_CONTEXT ( 'detailed design', #161, 'design' ) ;
#140 = EDGE_LOOP ( 'NONE', ( #165, #51, #200, #214 ) ) ;
#141 = CARTESIAN_POINT ( 'NONE',  ( -0.01345000000000000000, 0.0000000000000000000, 0.1400000000000000100 ) ) ;
#142 = STYLED_ITEM ( 'NONE', ( #44 ), #39 ) ;
#143 = DIRECTION ( 'NONE',  ( -0.0000000000000000000, -0.0000000000000000000, -1.000000000000000000 ) ) ;
#144 = DIRECTION ( 'NONE',  ( 0.0000000000000000000, 0.0000000000000000000, 1.000000000000000000 ) ) ;
#145 = ORIENTED_EDGE ( 'NONE', *, *, #135, .T. ) ;
#146 = FILL_AREA_STYLE_COLOUR ( '', #53 ) ;
#147 = DIRECTION ( 'NONE',  ( -0.0000000000000000000, -0.0000000000000000000, -1.000000000000000000 ) ) ;
#148 =( NAMED_UNIT ( * ) SI_UNIT ( $, .STERADIAN. ) SOLID_ANGLE_UNIT ( ) );
#149 = ORIENTED_EDGE ( 'NONE', *, *, #114, .F. ) ;
#150 = PRESENTATION_LAYER_ASSIGNMENT (  '', '', ( #142 ) ) ;
#151 = ORIENTED_EDGE ( 'NONE', *, *, #2, .T. ) ;
#152 = PLANE ( 'NONE',  #160 ) ;
#153 = CARTESIAN_POINT ( 'NONE',  ( -0.01594999999999999900, 0.0000000000000000000, 0.1400000000000000100 ) ) ;
#154 =( GEOMETRIC_REPRESENTATION_CONTEXT ( 3 ) GLOBAL_UNCERTAINTY_ASSIGNED_CONTEXT ( ( #1 ) ) GLOBAL_UNIT_ASSIGNED_CONTEXT ( ( #34, #179, #158 ) ) REPRESENTATION_CONTEXT ( 'NONE', 'WORKASPACE' ) );
#155 = DIRECTION ( 'NONE',  ( 1.000000000000000000, 0.0000000000000000000, 0.0000000000000000000 ) ) ;
#156 = DIRECTION ( 'NONE',  ( 0.0000000000000000000, 0.0000000000000000000, 1.000000000000000000 ) ) ;
#157 = VERTEX_POINT ( 'NONE', #28 ) ;
#158 =( NAMED_UNIT ( * ) SI_UNIT ( $, .STERADIAN. ) SOLID_ANGLE_UNIT ( ) );
#159 = CARTESIAN_POINT ( 'NONE',  ( 0.0000000000000000000, 0.0000000000000000000, 0.0000000000000000000 ) ) ;
#160 = AXIS2_PLACEMENT_3D ( 'NONE', #92, #193, #124 ) ;
#161 = APPLICATION_CONTEXT ( 'automotive_design' ) ;
#162 = CIRCLE ( 'NONE', #84, 0.01345000000000000000 ) ;
#163 = FACE_BOUND ( 'NONE', #184, .T. ) ;
#164 = PRODUCT_DEFINITION_FORMATION_WITH_SPECIFIED_SOURCE ( 'ANY', '', #196, .NOT_KNOWN. ) ;
#165 = ORIENTED_EDGE ( 'NONE', *, *, #2, .F. ) ;
#166 = EDGE_CURVE ( 'NONE', #102, #98, #117, .T. ) ;
#167 = DIRECTION ( 'NONE',  ( 1.000000000000000000, 0.0000000000000000000, 0.0000000000000000000 ) ) ;
#168 = ORIENTED_EDGE ( 'NONE', *, *, #166, .F. ) ;
#169 = DIRECTION ( 'NONE',  ( -1.000000000000000000, 0.0000000000000000000, 0.0000000000000000000 ) ) ;
#170 = DIRECTION ( 'NONE',  ( -0.0000000000000000000, -0.0000000000000000000, -1.000000000000000000 ) ) ;
#171 = CARTESIAN_POINT ( 'NONE',  ( -0.01345000000000000000, 0.0000000000000000000, 0.1400000000000000100 ) ) ;
#172 = FACE_OUTER_BOUND ( 'NONE', #30, .T. ) ;
#173 = CIRCLE ( 'NONE', #71, 0.01345000000000000000 ) ;
#174 = MANIFOLD_SOLID_BREP ( 'Boss.-Extru.1', #188 ) ;
#175 = DIRECTION ( 'NONE',  ( 1.000000000000000000, 0.0000000000000000000, 0.0000000000000000000 ) ) ;
#176 = DIRECTION ( 'NONE',  ( 1.000000000000000000, 0.0000000000000000000, -0.0000000000000000000 ) ) ;
#177 = APPLICATION_CONTEXT ( 'automotive_design' ) ;
#178 = VERTEX_POINT ( 'NONE', #27 ) ;
#179 =( NAMED_UNIT ( * ) PLANE_ANGLE_UNIT ( ) SI_UNIT ( $, .RADIAN. ) );
#180 = PRESENTATION_STYLE_ASSIGNMENT (( #47 ) ) ;
#181 = ORIENTED_EDGE ( 'NONE', *, *, #166, .T. ) ;
#182 = DIRECTION ( 'NONE',  ( 0.0000000000000000000, 0.0000000000000000000, 1.000000000000000000 ) ) ;
#183 = PRODUCT_DEFINITION ( 'UNKNOWN', '', #164, #139 ) ;
#184 = EDGE_LOOP ( 'NONE', ( #181, #12 ) ) ;
#185 = ADVANCED_FACE ( 'NONE', ( #20 ), #137, .F. ) ;
#186 =( GEOMETRIC_REPRESENTATION_CONTEXT ( 3 ) GLOBAL_UNCERTAINTY_ASSIGNED_CONTEXT ( ( #79 ) ) GLOBAL_UNIT_ASSIGNED_CONTEXT ( ( #96, #208, #31 ) ) REPRESENTATION_CONTEXT ( 'NONE', 'WORKASPACE' ) );
#187 = CIRCLE ( 'NONE', #111, 0.01594999999999999900 ) ;
#188 = CLOSED_SHELL ( 'NONE', ( #69, #201, #119, #3, #61, #185 ) ) ;
#189 = DIRECTION ( 'NONE',  ( 0.0000000000000000000, 0.0000000000000000000, 1.000000000000000000 ) ) ;
#190 = LINE ( 'NONE', #192, #100 ) ;
#191 = CARTESIAN_POINT ( 'NONE',  ( 0.01594999999999999900, 1.953311644640028200E-018, 0.1400000000000000100 ) ) ;
#192 = CARTESIAN_POINT ( 'NONE',  ( -0.01594999999999999900, 0.0000000000000000000, 0.1400000000000000100 ) ) ;
#193 = DIRECTION ( 'NONE',  ( 0.0000000000000000000, 0.0000000000000000000, 1.000000000000000000 ) ) ;
#194 = SURFACE_SIDE_STYLE ('',( #67 ) ) ;
#195 = CARTESIAN_POINT ( 'NONE',  ( 0.0000000000000000000, 0.0000000000000000000, 0.0000000000000000000 ) ) ;
#196 = PRODUCT ( 'Douille de selle', 'Douille de selle', '', ( #133 ) ) ;
#197 = DIRECTION ( 'NONE',  ( -1.000000000000000000, 0.0000000000000000000, 0.0000000000000000000 ) ) ;
#198 = FACE_OUTER_BOUND ( 'NONE', #81, .T. ) ;
#199 = AXIS2_PLACEMENT_3D ( 'NONE', #99, #14, #129 ) ;
#200 = ORIENTED_EDGE ( 'NONE', *, *, #101, .T. ) ;
#201 = ADVANCED_FACE ( 'NONE', ( #172 ), #204, .T. ) ;
#202 = APPLICATION_PROTOCOL_DEFINITION ( 'draft international standard', 'automotive_design', 1998, #161 ) ;
#203 = EDGE_CURVE ( 'NONE', #98, #102, #162, .T. ) ;
#204 = CYLINDRICAL_SURFACE ( 'NONE', #123, 0.01594999999999999900 ) ;
#205 = VERTEX_POINT ( 'NONE', #171 ) ;
#206 = CARTESIAN_POINT ( 'NONE',  ( 0.01594999999999999900, 1.953311644640028200E-018, 0.1400000000000000100 ) ) ;
#207 = EDGE_CURVE ( 'NONE', #49, #66, #90, .T. ) ;
#208 =( NAMED_UNIT ( * ) PLANE_ANGLE_UNIT ( ) SI_UNIT ( $, .RADIAN. ) );
#209 = ORIENTED_EDGE ( 'NONE', *, *, #207, .T. ) ;
#210 = CARTESIAN_POINT ( 'NONE',  ( 0.0000000000000000000, 0.0000000000000000000, 0.1400000000000000100 ) ) ;
#211 = EDGE_CURVE ( 'NONE', #60, #157, #187, .T. ) ;
#212 = DIRECTION ( 'NONE',  ( 1.000000000000000000, 0.0000000000000000000, 0.0000000000000000000 ) ) ;
#213 =( LENGTH_UNIT ( ) NAMED_UNIT ( * ) SI_UNIT ( $, .METRE. ) );
#214 = ORIENTED_EDGE ( 'NONE', *, *, #33, .T. ) ;
ENDSEC;
END-ISO-10303-21;
