ISO-10303-21;
HEADER;
FILE_DESCRIPTION (( 'STEP AP214' ),
    '1' );
FILE_NAME ('7202-8-017.STEP',
    '2019-03-27T17:05:09',
    ( '' ),
    ( '' ),
    'SwSTEP 2.0',
    'SolidWorks 2018',
    '' );
FILE_SCHEMA (( 'AUTOMOTIVE_DESIGN' ));
ENDSEC;

DATA;
#1 = DIRECTION ( 'NONE',  ( -1.000000000000000000, -0.0000000000000000000, -0.0000000000000000000 ) ) ;
#2 = DIRECTION ( 'NONE',  ( -1.000000000000000000, -0.0000000000000000000, -0.0000000000000000000 ) ) ;
#3 = LINE ( 'NONE', #183, #303 ) ;
#4 = DIRECTION ( 'NONE',  ( 0.0000000000000000000, -1.000000000000000000, 0.0000000000000000000 ) ) ;
#5 =( LENGTH_UNIT ( ) NAMED_UNIT ( * ) SI_UNIT ( .MILLI., .METRE. ) );
#6 = DIRECTION ( 'NONE',  ( 0.0000000000000000000, 0.0000000000000000000, 1.000000000000000000 ) ) ;
#7 = AXIS2_PLACEMENT_3D ( 'NONE', #97, #223, #283 ) ;
#8 = EDGE_LOOP ( 'NONE', ( #178, #69 ) ) ;
#9 = PLANE ( 'NONE',  #278 ) ;
#10 = FACE_OUTER_BOUND ( 'NONE', #85, .T. ) ;
#11 = SURFACE_SIDE_STYLE ('',( #74 ) ) ;
#12 = EDGE_CURVE ( 'NONE', #325, #165, #180, .T. ) ;
#13 = PRODUCT_RELATED_PRODUCT_CATEGORY ( 'part', '', ( #274 ) ) ;
#14 = LINE ( 'NONE', #346, #338 ) ;
#15 = ORIENTED_EDGE ( 'NONE', *, *, #174, .F. ) ;
#16 = ORIENTED_EDGE ( 'NONE', *, *, #221, .F. ) ;
#17 = FACE_OUTER_BOUND ( 'NONE', #315, .T. ) ;
#18 = CARTESIAN_POINT ( 'NONE',  ( 9.000000000000001776, 0.0000000000000000000, 0.0000000000000000000 ) ) ;
#19 = ADVANCED_FACE ( 'NONE', ( #45 ), #251, .T. ) ;
#20 = CARTESIAN_POINT ( 'NONE',  ( 9.000000000000001776, 8.572527594031473190E-16, -7.000000000000000000 ) ) ;
#21 = DIRECTION ( 'NONE',  ( -1.000000000000000000, -0.0000000000000000000, -0.0000000000000000000 ) ) ;
#22 = DIRECTION ( 'NONE',  ( -1.000000000000000000, -0.0000000000000000000, -0.0000000000000000000 ) ) ;
#23 = CIRCLE ( 'NONE', #219, 6.000000000000000888 ) ;
#24 = ORIENTED_EDGE ( 'NONE', *, *, #265, .F. ) ;
#25 = CARTESIAN_POINT ( 'NONE',  ( 9.000000000000001776, 0.0000000000000000000, 0.0000000000000000000 ) ) ;
#26 = DIRECTION ( 'NONE',  ( -0.0000000000000000000, 1.000000000000000000, 1.224646799147353207E-16 ) ) ;
#27 = CARTESIAN_POINT ( 'NONE',  ( 8.000000000000000000, 0.0000000000000000000, 0.0000000000000000000 ) ) ;
#28 = EDGE_CURVE ( 'NONE', #314, #202, #203, .T. ) ;
#29 = DIRECTION ( 'NONE',  ( 0.0000000000000000000, 0.0000000000000000000, 1.000000000000000000 ) ) ;
#30 = CARTESIAN_POINT ( 'NONE',  ( 0.0000000000000000000, 7.347880794884121708E-16, -6.000000000000001776 ) ) ;
#31 =( NAMED_UNIT ( * ) SI_UNIT ( $, .STERADIAN. ) SOLID_ANGLE_UNIT ( ) );
#32 = CIRCLE ( 'NONE', #76, 7.000000000000000000 ) ;
#33 = DIRECTION ( 'NONE',  ( -0.0000000000000000000, 0.0000000000000000000, 1.000000000000000000 ) ) ;
#34 = CARTESIAN_POINT ( 'NONE',  ( 0.0000000000000000000, -2.347266527604742858, 0.0000000000000000000 ) ) ;
#35 = EDGE_CURVE ( 'NONE', #205, #193, #168, .T. ) ;
#36 = FILL_AREA_STYLE_COLOUR ( '', #137 ) ;
#37 = EDGE_LOOP ( 'NONE', ( #77, #287 ) ) ;
#38 = ORIENTED_EDGE ( 'NONE', *, *, #153, .F. ) ;
#39 = CYLINDRICAL_SURFACE ( 'NONE', #297, 9.999999999999998224 ) ;
#40 = PRODUCT_CONTEXT ( 'NONE', #170, 'mechanical' ) ;
#41 = VERTEX_POINT ( 'NONE', #341 ) ;
#42 = AXIS2_PLACEMENT_3D ( 'NONE', #284, #195, #224 ) ;
#43 = APPLICATION_CONTEXT ( 'automotive_design' ) ;
#44 = ORIENTED_EDGE ( 'NONE', *, *, #322, .T. ) ;
#45 = FACE_OUTER_BOUND ( 'NONE', #247, .T. ) ;
#46 = EDGE_CURVE ( 'NONE', #41, #202, #135, .T. ) ;
#47 = AXIS2_PLACEMENT_3D ( 'NONE', #105, #80, #241 ) ;
#48 = UNCERTAINTY_MEASURE_WITH_UNIT (LENGTH_MEASURE( 1.000000000000000082E-05 ), #66, 'distance_accuracy_value', 'NONE');
#49 = CARTESIAN_POINT ( 'NONE',  ( 0.0000000000000000000, 0.0000000000000000000, 7.000000000000000000 ) ) ;
#50 = SURFACE_STYLE_FILL_AREA ( #158 ) ;
#51 = ORIENTED_EDGE ( 'NONE', *, *, #333, .T. ) ;
#52 = DIRECTION ( 'NONE',  ( 0.0000000000000000000, 0.0000000000000000000, 1.000000000000000000 ) ) ;
#53 = EDGE_CURVE ( 'NONE', #314, #90, #140, .T. ) ;
#54 = DIRECTION ( 'NONE',  ( 0.0000000000000000000, 0.0000000000000000000, -1.000000000000000000 ) ) ;
#55 = PRODUCT_DEFINITION ( 'UNKNOWN', '', #334, #175 ) ;
#56 = ORIENTED_EDGE ( 'NONE', *, *, #28, .F. ) ;
#57 = DIRECTION ( 'NONE',  ( -1.000000000000000000, -0.0000000000000000000, -0.0000000000000000000 ) ) ;
#58 = DIRECTION ( 'NONE',  ( 0.0000000000000000000, 0.0000000000000000000, 1.000000000000000000 ) ) ;
#59 = CARTESIAN_POINT ( 'NONE',  ( 8.000000000000000000, 0.0000000000000000000, 0.0000000000000000000 ) ) ;
#60 = LINE ( 'NONE', #179, #256 ) ;
#61 = DIRECTION ( 'NONE',  ( 0.0000000000000000000, 0.0000000000000000000, 1.000000000000000000 ) ) ;
#62 = PLANE ( 'NONE',  #249 ) ;
#63 = ORIENTED_EDGE ( 'NONE', *, *, #192, .F. ) ;
#64 = AXIS2_PLACEMENT_3D ( 'NONE', #336, #144, #201 ) ;
#65 = VERTEX_POINT ( 'NONE', #125 ) ;
#66 =( LENGTH_UNIT ( ) NAMED_UNIT ( * ) SI_UNIT ( .MILLI., .METRE. ) );
#67 = AXIS2_PLACEMENT_3D ( 'NONE', #27, #156, #150 ) ;
#68 = FACE_OUTER_BOUND ( 'NONE', #163, .T. ) ;
#69 = ORIENTED_EDGE ( 'NONE', *, *, #153, .T. ) ;
#70 = EDGE_LOOP ( 'NONE', ( #321, #134 ) ) ;
#71 = VECTOR ( 'NONE', #57, 1000.000000000000000 ) ;
#72 = AXIS2_PLACEMENT_3D ( 'NONE', #106, #295, #231 ) ;
#73 = CARTESIAN_POINT ( 'NONE',  ( 0.0000000000000000000, 0.0000000000000000000, 0.0000000000000000000 ) ) ;
#74 = SURFACE_STYLE_FILL_AREA ( #189 ) ;
#75 = DIRECTION ( 'NONE',  ( -1.000000000000000000, -0.0000000000000000000, -0.0000000000000000000 ) ) ;
#76 = AXIS2_PLACEMENT_3D ( 'NONE', #96, #261, #299 ) ;
#77 = ORIENTED_EDGE ( 'NONE', *, *, #46, .T. ) ;
#78 = CIRCLE ( 'NONE', #310, 1.000000000000000888 ) ;
#79 = DIRECTION ( 'NONE',  ( -1.000000000000000000, -0.0000000000000000000, -0.0000000000000000000 ) ) ;
#80 = DIRECTION ( 'NONE',  ( 0.0000000000000000000, 0.0000000000000000000, 1.000000000000000000 ) ) ;
#81 = CARTESIAN_POINT ( 'NONE',  ( 0.0000000000000000000, 0.0000000000000000000, 0.0000000000000000000 ) ) ;
#82 = DIRECTION ( 'NONE',  ( 0.0000000000000000000, 0.0000000000000000000, 1.000000000000000000 ) ) ;
#83 = VECTOR ( 'NONE', #98, 1000.000000000000000 ) ;
#84 = TOROIDAL_SURFACE ( 'NONE', #91, 7.000000000000000000, 1.000000000000000888 ) ;
#85 = EDGE_LOOP ( 'NONE', ( #271, #110, #111, #15 ) ) ;
#86 = EDGE_CURVE ( 'NONE', #340, #205, #78, .T. ) ;
#87 = CIRCLE ( 'NONE', #161, 7.000000000000000000 ) ;
#88 = ORIENTED_EDGE ( 'NONE', *, *, #136, .T. ) ;
#89 = CIRCLE ( 'NONE', #132, 7.000000000000000000 ) ;
#90 = VERTEX_POINT ( 'NONE', #204 ) ;
#91 = AXIS2_PLACEMENT_3D ( 'NONE', #171, #254, #61 ) ;
#92 = CARTESIAN_POINT ( 'NONE',  ( 8.000000000000000000, 0.0000000000000000000, 7.000000000000000000 ) ) ;
#93 =( NAMED_UNIT ( * ) PLANE_ANGLE_UNIT ( ) SI_UNIT ( $, .RADIAN. ) );
#94 = VECTOR ( 'NONE', #197, 1000.000000000000000 ) ;
#95 = FACE_BOUND ( 'NONE', #8, .T. ) ;
#96 = CARTESIAN_POINT ( 'NONE',  ( 0.0000000000000000000, 0.0000000000000000000, 0.0000000000000000000 ) ) ;
#97 = CARTESIAN_POINT ( 'NONE',  ( 0.0000000000000000000, 0.0000000000000000000, 0.0000000000000000000 ) ) ;
#98 = DIRECTION ( 'NONE',  ( -1.000000000000000000, -0.0000000000000000000, -0.0000000000000000000 ) ) ;
#99 =( GEOMETRIC_REPRESENTATION_CONTEXT ( 3 ) GLOBAL_UNCERTAINTY_ASSIGNED_CONTEXT ( ( #164 ) ) GLOBAL_UNIT_ASSIGNED_CONTEXT ( ( #240, #93, #148 ) ) REPRESENTATION_CONTEXT ( 'NONE', 'WORKASPACE' ) );
#100 = EDGE_LOOP ( 'NONE', ( #56, #242, #229, #228 ) ) ;
#101 = DIRECTION ( 'NONE',  ( -1.000000000000000000, -0.0000000000000000000, -0.0000000000000000000 ) ) ;
#102 = DIRECTION ( 'NONE',  ( 0.0000000000000000000, 0.0000000000000000000, 1.000000000000000000 ) ) ;
#103 = ORIENTED_EDGE ( 'NONE', *, *, #53, .F. ) ;
#104 = DIRECTION ( 'NONE',  ( 0.0000000000000000000, 0.0000000000000000000, 1.000000000000000000 ) ) ;
#105 = CARTESIAN_POINT ( 'NONE',  ( 0.0000000000000000000, 0.0000000000000000000, 0.0000000000000000000 ) ) ;
#106 = CARTESIAN_POINT ( 'NONE',  ( 8.000000000000000000, 0.0000000000000000000, 0.0000000000000000000 ) ) ;
#107 = CYLINDRICAL_SURFACE ( 'NONE', #139, 7.000000000000000000 ) ;
#108 = FILL_AREA_STYLE_COLOUR ( '', #319 ) ;
#109 = AXIS2_PLACEMENT_3D ( 'NONE', #258, #142, #169 ) ;
#110 = ORIENTED_EDGE ( 'NONE', *, *, #316, .T. ) ;
#111 = ORIENTED_EDGE ( 'NONE', *, *, #206, .F. ) ;
#112 = EDGE_CURVE ( 'NONE', #65, #324, #343, .T. ) ;
#113 = ORIENTED_EDGE ( 'NONE', *, *, #265, .T. ) ;
#114 = ORIENTED_EDGE ( 'NONE', *, *, #316, .F. ) ;
#115 = ORIENTED_EDGE ( 'NONE', *, *, #112, .F. ) ;
#116 = DIRECTION ( 'NONE',  ( -1.000000000000000000, -0.0000000000000000000, -0.0000000000000000000 ) ) ;
#117 = LINE ( 'NONE', #30, #83 ) ;
#118 = ADVANCED_FACE ( 'NONE', ( #279 ), #143, .T. ) ;
#119 = EDGE_LOOP ( 'NONE', ( #88, #329, #302, #16 ) ) ;
#120 = CARTESIAN_POINT ( 'NONE',  ( 0.0000000000000000000, 0.0000000000000000000, 0.0000000000000000000 ) ) ;
#121 = CARTESIAN_POINT ( 'NONE',  ( 9.000000000000001776, 0.0000000000000000000, 7.000000000000000000 ) ) ;
#122 = AXIS2_PLACEMENT_3D ( 'NONE', #120, #22, #237 ) ;
#123 = DIRECTION ( 'NONE',  ( 0.0000000000000000000, 0.0000000000000000000, 1.000000000000000000 ) ) ;
#124 = CIRCLE ( 'NONE', #42, 9.999999999999998224 ) ;
#125 = CARTESIAN_POINT ( 'NONE',  ( 0.0000000000000000000, 7.347880794884121708E-16, -6.000000000000001776 ) ) ;
#126 = CARTESIAN_POINT ( 'NONE',  ( 8.000000000000000000, 0.0000000000000000000, 0.0000000000000000000 ) ) ;
#127 = ADVANCED_BREP_SHAPE_REPRESENTATION ( '7202-8-017', ( #332, #47 ), #99 ) ;
#128 = CARTESIAN_POINT ( 'NONE',  ( 0.0000000000000000000, 0.0000000000000000000, 0.0000000000000000000 ) ) ;
#129 = CYLINDRICAL_SURFACE ( 'NONE', #232, 6.000000000000001776 ) ;
#130 = DIRECTION ( 'NONE',  ( -1.000000000000000000, -0.0000000000000000000, -0.0000000000000000000 ) ) ;
#131 = CLOSED_SHELL ( 'NONE', ( #145, #285, #198, #257, #308, #19, #172, #225, #337, #118, #226 ) ) ;
#132 = AXIS2_PLACEMENT_3D ( 'NONE', #59, #182, #29 ) ;
#133 = DIRECTION ( 'NONE',  ( -1.000000000000000000, 0.0000000000000000000, -0.0000000000000000000 ) ) ;
#134 = ORIENTED_EDGE ( 'NONE', *, *, #12, .F. ) ;
#135 = CIRCLE ( 'NONE', #275, 9.999999999999998224 ) ;
#136 = EDGE_CURVE ( 'NONE', #90, #314, #124, .T. ) ;
#137 = COLOUR_RGB ( '',0.8980392156862745390, 0.9176470588235293713, 0.9294117647058823817 ) ;
#138 = ORIENTED_EDGE ( 'NONE', *, *, #86, .T. ) ;
#139 = AXIS2_PLACEMENT_3D ( 'NONE', #255, #116, #187 ) ;
#140 = CIRCLE ( 'NONE', #330, 9.999999999999998224 ) ;
#141 = ORIENTED_EDGE ( 'NONE', *, *, #301, .T. ) ;
#142 = DIRECTION ( 'NONE',  ( -1.000000000000000000, 0.0000000000000000000, -0.0000000000000000000 ) ) ;
#143 = CYLINDRICAL_SURFACE ( 'NONE', #7, 7.000000000000000000 ) ;
#144 = DIRECTION ( 'NONE',  ( -1.000000000000000000, -0.0000000000000000000, -0.0000000000000000000 ) ) ;
#145 = ADVANCED_FACE ( 'NONE', ( #10 ), #107, .T. ) ;
#146 = PRESENTATION_STYLE_ASSIGNMENT (( #217 ) ) ;
#147 = ORIENTED_EDGE ( 'NONE', *, *, #322, .F. ) ;
#148 =( NAMED_UNIT ( * ) SI_UNIT ( $, .STERADIAN. ) SOLID_ANGLE_UNIT ( ) );
#149 = ORIENTED_EDGE ( 'NONE', *, *, #281, .F. ) ;
#150 = DIRECTION ( 'NONE',  ( 0.0000000000000000000, 0.0000000000000000000, 1.000000000000000000 ) ) ;
#151 = ORIENTED_EDGE ( 'NONE', *, *, #136, .F. ) ;
#152 = DIRECTION ( 'NONE',  ( -1.000000000000000000, -0.0000000000000000000, -0.0000000000000000000 ) ) ;
#153 = EDGE_CURVE ( 'NONE', #193, #205, #87, .T. ) ;
#154 = CARTESIAN_POINT ( 'NONE',  ( 8.000000000000000000, 8.572527594031473190E-16, -7.000000000000000000 ) ) ;
#155 =( GEOMETRIC_REPRESENTATION_CONTEXT ( 3 ) GLOBAL_UNCERTAINTY_ASSIGNED_CONTEXT ( ( #268 ) ) GLOBAL_UNIT_ASSIGNED_CONTEXT ( ( #5, #212, #31 ) ) REPRESENTATION_CONTEXT ( 'NONE', 'WORKASPACE' ) );
#156 = DIRECTION ( 'NONE',  ( -1.000000000000000000, -0.0000000000000000000, -0.0000000000000000000 ) ) ;
#157 = SHAPE_DEFINITION_REPRESENTATION ( #331, #127 ) ;
#158 = FILL_AREA_STYLE ('',( #108 ) ) ;
#159 = CIRCLE ( 'NONE', #260, 7.000000000000000000 ) ;
#160 = ORIENTED_EDGE ( 'NONE', *, *, #301, .F. ) ;
#161 = AXIS2_PLACEMENT_3D ( 'NONE', #18, #21, #335 ) ;
#162 = LINE ( 'NONE', #253, #94 ) ;
#163 = EDGE_LOOP ( 'NONE', ( #147, #24, #141, #218 ) ) ;
#164 = UNCERTAINTY_MEASURE_WITH_UNIT (LENGTH_MEASURE( 1.000000000000000082E-05 ), #240, 'distance_accuracy_value', 'NONE');
#165 = VERTEX_POINT ( 'NONE', #92 ) ;
#166 = ORIENTED_EDGE ( 'NONE', *, *, #206, .T. ) ;
#167 = MECHANICAL_DESIGN_GEOMETRIC_PRESENTATION_REPRESENTATION (  '', ( #216 ), #155 ) ;
#168 = CIRCLE ( 'NONE', #288, 7.000000000000000000 ) ;
#169 = DIRECTION ( 'NONE',  ( -0.0000000000000000000, 0.0000000000000000000, 1.000000000000000000 ) ) ;
#170 = APPLICATION_CONTEXT ( 'automotive_design' ) ;
#171 = CARTESIAN_POINT ( 'NONE',  ( 8.000000000000000000, 0.0000000000000000000, 0.0000000000000000000 ) ) ;
#172 = ADVANCED_FACE ( 'NONE', ( #17, #95 ), #339, .F. ) ;
#173 = CARTESIAN_POINT ( 'NONE',  ( 0.0000000000000000000, 1.224646799147353059E-15, -9.999999999999998224 ) ) ;
#174 = EDGE_CURVE ( 'NONE', #165, #190, #162, .T. ) ;
#175 = PRODUCT_DEFINITION_CONTEXT ( 'detailed design', #43, 'design' ) ;
#176 = PRESENTATION_LAYER_ASSIGNMENT (  '', '', ( #216 ) ) ;
#177 = DIRECTION ( 'NONE',  ( -1.000000000000000000, -0.0000000000000000000, -0.0000000000000000000 ) ) ;
#178 = ORIENTED_EDGE ( 'NONE', *, *, #35, .T. ) ;
#179 = CARTESIAN_POINT ( 'NONE',  ( 0.0000000000000000000, 8.572527594031473190E-16, -7.000000000000000000 ) ) ;
#180 = CIRCLE ( 'NONE', #305, 7.000000000000000000 ) ;
#181 = CARTESIAN_POINT ( 'NONE',  ( 8.000000000000000000, 7.347880794884120722E-16, -6.000000000000000888 ) ) ;
#182 = DIRECTION ( 'NONE',  ( -1.000000000000000000, -0.0000000000000000000, -0.0000000000000000000 ) ) ;
#183 = CARTESIAN_POINT ( 'NONE',  ( 0.0000000000000000000, 0.0000000000000000000, 9.999999999999998224 ) ) ;
#184 = CIRCLE ( 'NONE', #72, 6.000000000000000888 ) ;
#185 = SURFACE_STYLE_USAGE ( .BOTH. , #320 ) ;
#186 = ORIENTED_EDGE ( 'NONE', *, *, #12, .T. ) ;
#187 = DIRECTION ( 'NONE',  ( 0.0000000000000000000, 0.0000000000000000000, 1.000000000000000000 ) ) ;
#188 = ORIENTED_EDGE ( 'NONE', *, *, #35, .F. ) ;
#189 = FILL_AREA_STYLE ('',( #36 ) ) ;
#190 = VERTEX_POINT ( 'NONE', #49 ) ;
#191 = ORIENTED_EDGE ( 'NONE', *, *, #112, .T. ) ;
#192 = EDGE_CURVE ( 'NONE', #324, #65, #342, .T. ) ;
#193 = VERTEX_POINT ( 'NONE', #20 ) ;
#194 = ORIENTED_EDGE ( 'NONE', *, *, #243, .F. ) ;
#195 = DIRECTION ( 'NONE',  ( -1.000000000000000000, -0.0000000000000000000, -0.0000000000000000000 ) ) ;
#196 = CIRCLE ( 'NONE', #200, 1.000000000000000888 ) ;
#197 = DIRECTION ( 'NONE',  ( -1.000000000000000000, -0.0000000000000000000, -0.0000000000000000000 ) ) ;
#198 = ADVANCED_FACE ( 'NONE', ( #269 ), #84, .T. ) ;
#199 = ORIENTED_EDGE ( 'NONE', *, *, #243, .T. ) ;
#200 = AXIS2_PLACEMENT_3D ( 'NONE', #154, #26, #207 ) ;
#201 = DIRECTION ( 'NONE',  ( 0.0000000000000000000, 0.0000000000000000000, 1.000000000000000000 ) ) ;
#202 = VERTEX_POINT ( 'NONE', #307 ) ;
#203 = LINE ( 'NONE', #173, #71 ) ;
#204 = CARTESIAN_POINT ( 'NONE',  ( 9.000000000000001776, 0.0000000000000000000, 9.999999999999998224 ) ) ;
#205 = VERTEX_POINT ( 'NONE', #121 ) ;
#206 = EDGE_CURVE ( 'NONE', #190, #328, #32, .T. ) ;
#207 = DIRECTION ( 'NONE',  ( 0.0000000000000000000, -1.224646799147353454E-16, 1.000000000000000000 ) ) ;
#208 = AXIS2_PLACEMENT_3D ( 'NONE', #81, #292, #58 ) ;
#209 = DIRECTION ( 'NONE',  ( -1.000000000000000000, -0.0000000000000000000, -0.0000000000000000000 ) ) ;
#210 = FACE_BOUND ( 'NONE', #70, .T. ) ;
#211 = CARTESIAN_POINT ( 'NONE',  ( 8.000000000000000000, 0.0000000000000000000, 6.000000000000000888 ) ) ;
#212 =( NAMED_UNIT ( * ) PLANE_ANGLE_UNIT ( ) SI_UNIT ( $, .RADIAN. ) );
#213 = ORIENTED_EDGE ( 'NONE', *, *, #281, .T. ) ;
#214 = EDGE_LOOP ( 'NONE', ( #166, #199 ) ) ;
#215 = DIRECTION ( 'NONE',  ( 1.000000000000000000, 0.0000000000000000000, 0.0000000000000000000 ) ) ;
#216 = STYLED_ITEM ( 'NONE', ( #235 ), #332 ) ;
#217 = SURFACE_STYLE_USAGE ( .BOTH. , #11 ) ;
#218 = ORIENTED_EDGE ( 'NONE', *, *, #192, .T. ) ;
#219 = AXIS2_PLACEMENT_3D ( 'NONE', #126, #266, #102 ) ;
#220 = FACE_OUTER_BOUND ( 'NONE', #246, .T. ) ;
#221 = EDGE_CURVE ( 'NONE', #90, #41, #3, .T. ) ;
#222 = AXIS2_PLACEMENT_3D ( 'NONE', #291, #313, #289 ) ;
#223 = DIRECTION ( 'NONE',  ( -1.000000000000000000, -0.0000000000000000000, -0.0000000000000000000 ) ) ;
#224 = DIRECTION ( 'NONE',  ( 0.0000000000000000000, 0.0000000000000000000, 1.000000000000000000 ) ) ;
#225 = ADVANCED_FACE ( 'NONE', ( #309 ), #39, .T. ) ;
#226 = ADVANCED_FACE ( 'NONE', ( #298, #227 ), #9, .F. ) ;
#227 = FACE_OUTER_BOUND ( 'NONE', #214, .T. ) ;
#228 = ORIENTED_EDGE ( 'NONE', *, *, #248, .F. ) ;
#229 = ORIENTED_EDGE ( 'NONE', *, *, #221, .T. ) ;
#230 = EDGE_CURVE ( 'NONE', #165, #325, #89, .T. ) ;
#231 = DIRECTION ( 'NONE',  ( 0.0000000000000000000, 0.0000000000000000000, 1.000000000000000000 ) ) ;
#232 = AXIS2_PLACEMENT_3D ( 'NONE', #293, #2, #82 ) ;
#233 = DIRECTION ( 'NONE',  ( 0.0000000000000000000, 0.0000000000000000000, 1.000000000000000000 ) ) ;
#234 = CARTESIAN_POINT ( 'NONE',  ( 9.000000000000001776, 1.224646799147353059E-15, -9.999999999999998224 ) ) ;
#235 = PRESENTATION_STYLE_ASSIGNMENT (( #185 ) ) ;
#236 = DIRECTION ( 'NONE',  ( 0.0000000000000000000, 0.0000000000000000000, 1.000000000000000000 ) ) ;
#237 = DIRECTION ( 'NONE',  ( 0.0000000000000000000, 0.0000000000000000000, 1.000000000000000000 ) ) ;
#238 = CIRCLE ( 'NONE', #239, 9.999999999999998224 ) ;
#239 = AXIS2_PLACEMENT_3D ( 'NONE', #267, #1, #236 ) ;
#240 =( LENGTH_UNIT ( ) NAMED_UNIT ( * ) SI_UNIT ( .MILLI., .METRE. ) );
#241 = DIRECTION ( 'NONE',  ( 1.000000000000000000, 0.0000000000000000000, 0.0000000000000000000 ) ) ;
#242 = ORIENTED_EDGE ( 'NONE', *, *, #53, .T. ) ;
#243 = EDGE_CURVE ( 'NONE', #328, #190, #159, .T. ) ;
#244 = EDGE_LOOP ( 'NONE', ( #63, #115 ) ) ;
#245 = FACE_OUTER_BOUND ( 'NONE', #37, .T. ) ;
#246 = EDGE_LOOP ( 'NONE', ( #304, #44, #191, #160 ) ) ;
#247 = EDGE_LOOP ( 'NONE', ( #149, #51, #138, #38 ) ) ;
#248 = EDGE_CURVE ( 'NONE', #202, #41, #238, .T. ) ;
#249 = AXIS2_PLACEMENT_3D ( 'NONE', #270, #133, #33 ) ;
#250 = ORIENTED_EDGE ( 'NONE', *, *, #174, .T. ) ;
#251 = TOROIDAL_SURFACE ( 'NONE', #67, 7.000000000000000000, 1.000000000000000888 ) ;
#252 = APPLICATION_PROTOCOL_DEFINITION ( 'draft international standard', 'automotive_design', 1998, #43 ) ;
#253 = CARTESIAN_POINT ( 'NONE',  ( 0.0000000000000000000, 0.0000000000000000000, 7.000000000000000000 ) ) ;
#254 = DIRECTION ( 'NONE',  ( -1.000000000000000000, -0.0000000000000000000, -0.0000000000000000000 ) ) ;
#255 = CARTESIAN_POINT ( 'NONE',  ( 0.0000000000000000000, 0.0000000000000000000, 0.0000000000000000000 ) ) ;
#256 = VECTOR ( 'NONE', #130, 1000.000000000000000 ) ;
#257 = ADVANCED_FACE ( 'NONE', ( #220 ), #129, .F. ) ;
#258 = CARTESIAN_POINT ( 'NONE',  ( 9.000000000000001776, -2.347266527604742858, 0.0000000000000000000 ) ) ;
#259 = ORIENTED_EDGE ( 'NONE', *, *, #86, .F. ) ;
#260 = AXIS2_PLACEMENT_3D ( 'NONE', #128, #317, #104 ) ;
#261 = DIRECTION ( 'NONE',  ( -1.000000000000000000, -0.0000000000000000000, -0.0000000000000000000 ) ) ;
#262 = CARTESIAN_POINT ( 'NONE',  ( 8.000000000000000000, 0.0000000000000000000, 0.0000000000000000000 ) ) ;
#263 = VERTEX_POINT ( 'NONE', #181 ) ;
#264 = CARTESIAN_POINT ( 'NONE',  ( 8.000000000000000000, 0.0000000000000000000, 0.0000000000000000000 ) ) ;
#265 = EDGE_CURVE ( 'NONE', #340, #263, #23, .T. ) ;
#266 = DIRECTION ( 'NONE',  ( -1.000000000000000000, -0.0000000000000000000, -0.0000000000000000000 ) ) ;
#267 = CARTESIAN_POINT ( 'NONE',  ( 8.000000000000000000, 0.0000000000000000000, 0.0000000000000000000 ) ) ;
#268 = UNCERTAINTY_MEASURE_WITH_UNIT (LENGTH_MEASURE( 1.000000000000000082E-05 ), #5, 'distance_accuracy_value', 'NONE');
#269 = FACE_OUTER_BOUND ( 'NONE', #286, .T. ) ;
#270 = CARTESIAN_POINT ( 'NONE',  ( 8.000000000000000000, -2.347266527604742858, 0.0000000000000000000 ) ) ;
#271 = ORIENTED_EDGE ( 'NONE', *, *, #230, .T. ) ;
#272 = CARTESIAN_POINT ( 'NONE',  ( 8.000000000000000000, 8.572527594031473190E-16, -7.000000000000000000 ) ) ;
#273 = CARTESIAN_POINT ( 'NONE',  ( 8.000000000000000000, 0.0000000000000000000, 7.000000000000000000 ) ) ;
#274 = PRODUCT ( '7202-8-017', '7202-8-017', '', ( #40 ) ) ;
#275 = AXIS2_PLACEMENT_3D ( 'NONE', #262, #79, #233 ) ;
#276 =( NAMED_UNIT ( * ) SI_UNIT ( $, .STERADIAN. ) SOLID_ANGLE_UNIT ( ) );
#277 = FACE_OUTER_BOUND ( 'NONE', #119, .T. ) ;
#278 = AXIS2_PLACEMENT_3D ( 'NONE', #34, #215, #54 ) ;
#279 = FACE_OUTER_BOUND ( 'NONE', #280, .T. ) ;
#280 = EDGE_LOOP ( 'NONE', ( #114, #186, #250, #194 ) ) ;
#281 = EDGE_CURVE ( 'NONE', #263, #193, #196, .T. ) ;
#282 = CYLINDRICAL_SURFACE ( 'NONE', #208, 9.999999999999998224 ) ;
#283 = DIRECTION ( 'NONE',  ( 0.0000000000000000000, 0.0000000000000000000, 1.000000000000000000 ) ) ;
#284 = CARTESIAN_POINT ( 'NONE',  ( 9.000000000000001776, 0.0000000000000000000, 0.0000000000000000000 ) ) ;
#285 = ADVANCED_FACE ( 'NONE', ( #277 ), #282, .T. ) ;
#286 = EDGE_LOOP ( 'NONE', ( #113, #213, #188, #259 ) ) ;
#287 = ORIENTED_EDGE ( 'NONE', *, *, #248, .T. ) ;
#288 = AXIS2_PLACEMENT_3D ( 'NONE', #345, #152, #312 ) ;
#289 = DIRECTION ( 'NONE',  ( 0.0000000000000000000, 0.0000000000000000000, 1.000000000000000000 ) ) ;
#290 = STYLED_ITEM ( 'NONE', ( #146 ), #127 ) ;
#291 = CARTESIAN_POINT ( 'NONE',  ( 0.0000000000000000000, 0.0000000000000000000, 0.0000000000000000000 ) ) ;
#292 = DIRECTION ( 'NONE',  ( -1.000000000000000000, -0.0000000000000000000, -0.0000000000000000000 ) ) ;
#293 = CARTESIAN_POINT ( 'NONE',  ( 0.0000000000000000000, 0.0000000000000000000, 0.0000000000000000000 ) ) ;
#294 = DIRECTION ( 'NONE',  ( 0.0000000000000000000, 0.0000000000000000000, -1.000000000000000000 ) ) ;
#295 = DIRECTION ( 'NONE',  ( -1.000000000000000000, -0.0000000000000000000, -0.0000000000000000000 ) ) ;
#296 = CARTESIAN_POINT ( 'NONE',  ( 0.0000000000000000000, 8.572527594031473190E-16, -7.000000000000000000 ) ) ;
#297 = AXIS2_PLACEMENT_3D ( 'NONE', #73, #311, #6 ) ;
#298 = FACE_BOUND ( 'NONE', #244, .T. ) ;
#299 = DIRECTION ( 'NONE',  ( 0.0000000000000000000, 0.0000000000000000000, 1.000000000000000000 ) ) ;
#300 =( NAMED_UNIT ( * ) PLANE_ANGLE_UNIT ( ) SI_UNIT ( $, .RADIAN. ) );
#301 = EDGE_CURVE ( 'NONE', #340, #324, #14, .T. ) ;
#302 = ORIENTED_EDGE ( 'NONE', *, *, #46, .F. ) ;
#303 = VECTOR ( 'NONE', #75, 1000.000000000000000 ) ;
#304 = ORIENTED_EDGE ( 'NONE', *, *, #333, .F. ) ;
#305 = AXIS2_PLACEMENT_3D ( 'NONE', #264, #101, #123 ) ;
#306 = PRESENTATION_LAYER_ASSIGNMENT (  '', '', ( #290 ) ) ;
#307 = CARTESIAN_POINT ( 'NONE',  ( 8.000000000000000000, 1.224646799147353059E-15, -9.999999999999998224 ) ) ;
#308 = ADVANCED_FACE ( 'NONE', ( #68 ), #327, .F. ) ;
#309 = FACE_OUTER_BOUND ( 'NONE', #100, .T. ) ;
#310 = AXIS2_PLACEMENT_3D ( 'NONE', #273, #4, #294 ) ;
#311 = DIRECTION ( 'NONE',  ( -1.000000000000000000, -0.0000000000000000000, -0.0000000000000000000 ) ) ;
#312 = DIRECTION ( 'NONE',  ( 0.0000000000000000000, 0.0000000000000000000, 1.000000000000000000 ) ) ;
#313 = DIRECTION ( 'NONE',  ( -1.000000000000000000, -0.0000000000000000000, -0.0000000000000000000 ) ) ;
#314 = VERTEX_POINT ( 'NONE', #234 ) ;
#315 = EDGE_LOOP ( 'NONE', ( #151, #103 ) ) ;
#316 = EDGE_CURVE ( 'NONE', #325, #328, #60, .T. ) ;
#317 = DIRECTION ( 'NONE',  ( -1.000000000000000000, -0.0000000000000000000, -0.0000000000000000000 ) ) ;
#318 = CARTESIAN_POINT ( 'NONE',  ( 0.0000000000000000000, 0.0000000000000000000, 6.000000000000001776 ) ) ;
#319 = COLOUR_RGB ( '',0.8980392156862745390, 0.9176470588235293713, 0.9294117647058823817 ) ;
#320 = SURFACE_SIDE_STYLE ('',( #50 ) ) ;
#321 = ORIENTED_EDGE ( 'NONE', *, *, #230, .F. ) ;
#322 = EDGE_CURVE ( 'NONE', #263, #65, #117, .T. ) ;
#323 = MECHANICAL_DESIGN_GEOMETRIC_PRESENTATION_REPRESENTATION (  '', ( #290 ), #344 ) ;
#324 = VERTEX_POINT ( 'NONE', #318 ) ;
#325 = VERTEX_POINT ( 'NONE', #272 ) ;
#326 = APPLICATION_PROTOCOL_DEFINITION ( 'draft international standard', 'automotive_design', 1998, #170 ) ;
#327 = CYLINDRICAL_SURFACE ( 'NONE', #222, 6.000000000000001776 ) ;
#328 = VERTEX_POINT ( 'NONE', #296 ) ;
#329 = ORIENTED_EDGE ( 'NONE', *, *, #28, .T. ) ;
#330 = AXIS2_PLACEMENT_3D ( 'NONE', #25, #177, #52 ) ;
#331 = PRODUCT_DEFINITION_SHAPE ( 'NONE', 'NONE',  #55 ) ;
#332 = MANIFOLD_SOLID_BREP ( 'Rotation1', #131 ) ;
#333 = EDGE_CURVE ( 'NONE', #263, #340, #184, .T. ) ;
#334 = PRODUCT_DEFINITION_FORMATION_WITH_SPECIFIED_SOURCE ( 'ANY', '', #274, .NOT_KNOWN. ) ;
#335 = DIRECTION ( 'NONE',  ( 0.0000000000000000000, 0.0000000000000000000, 1.000000000000000000 ) ) ;
#336 = CARTESIAN_POINT ( 'NONE',  ( 0.0000000000000000000, 0.0000000000000000000, 0.0000000000000000000 ) ) ;
#337 = ADVANCED_FACE ( 'NONE', ( #245, #210 ), #62, .T. ) ;
#338 = VECTOR ( 'NONE', #209, 1000.000000000000000 ) ;
#339 = PLANE ( 'NONE',  #109 ) ;
#340 = VERTEX_POINT ( 'NONE', #211 ) ;
#341 = CARTESIAN_POINT ( 'NONE',  ( 8.000000000000000000, 0.0000000000000000000, 9.999999999999998224 ) ) ;
#342 = CIRCLE ( 'NONE', #122, 6.000000000000001776 ) ;
#343 = CIRCLE ( 'NONE', #64, 6.000000000000001776 ) ;
#344 =( GEOMETRIC_REPRESENTATION_CONTEXT ( 3 ) GLOBAL_UNCERTAINTY_ASSIGNED_CONTEXT ( ( #48 ) ) GLOBAL_UNIT_ASSIGNED_CONTEXT ( ( #66, #300, #276 ) ) REPRESENTATION_CONTEXT ( 'NONE', 'WORKASPACE' ) );
#345 = CARTESIAN_POINT ( 'NONE',  ( 9.000000000000001776, 0.0000000000000000000, 0.0000000000000000000 ) ) ;
#346 = CARTESIAN_POINT ( 'NONE',  ( 0.0000000000000000000, 0.0000000000000000000, 6.000000000000001776 ) ) ;
ENDSEC;
END-ISO-10303-21;
