ISO-10303-21;
HEADER;
FILE_DESCRIPTION (( 'STEP AP214' ),
    '1' );
FILE_NAME ('Usinage.STEP',
    '2019-03-27T20:11:03',
    ( '' ),
    ( '' ),
    'SwSTEP 2.0',
    'SolidWorks 2016',
    '' );
FILE_SCHEMA (( 'AUTOMOTIVE_DESIGN' ));
ENDSEC;

DATA;
#1 = ADVANCED_FACE ( 'NONE', ( #121 ), #182, .F. ) ;
#2 = EDGE_CURVE ( 'NONE', #218, #116, #93, .T. ) ;
#3 = VERTEX_POINT ( 'NONE', #253 ) ;
#4 = MANIFOLD_SOLID_BREP ( 'Enlèv. mat.-Extru.1', #16 ) ;
#5 = LINE ( 'NONE', #249, #157 ) ;
#6 = VECTOR ( 'NONE', #7, 1000.000000000000000 ) ;
#7 = DIRECTION ( 'NONE',  ( -0.0000000000000000000, -0.0000000000000000000, -1.000000000000000000 ) ) ;
#8 = EDGE_LOOP ( 'NONE', ( #72, #277, #236, #124 ) ) ;
#9 = DIRECTION ( 'NONE',  ( 1.000000000000000000, 1.161170425044697300E-016, -0.0000000000000000000 ) ) ;
#10 = DIRECTION ( 'NONE',  ( -0.0000000000000000000, 0.0000000000000000000, -1.000000000000000000 ) ) ;
#11 = DIRECTION ( 'NONE',  ( 0.0000000000000000000, 0.0000000000000000000, 1.000000000000000000 ) ) ;
#12 = FACE_OUTER_BOUND ( 'NONE', #31, .T. ) ;
#13 = STYLED_ITEM ( 'NONE', ( #250 ), #64 ) ;
#14 = UNCERTAINTY_MEASURE_WITH_UNIT (LENGTH_MEASURE( 1.000000000000000100E-005 ), #71, 'distance_accuracy_value', 'NONE');
#15 =( NAMED_UNIT ( * ) PLANE_ANGLE_UNIT ( ) SI_UNIT ( $, .RADIAN. ) );
#16 = CLOSED_SHELL ( 'NONE', ( #127, #38, #129, #23, #21, #196, #61, #1 ) ) ;
#17 = SURFACE_STYLE_USAGE ( .BOTH. , #122 ) ;
#18 = CARTESIAN_POINT ( 'NONE',  ( 10.44999999999999900, 58.00000000000000000, 23.00000000000000000 ) ) ;
#19 = VERTEX_POINT ( 'NONE', #24 ) ;
#20 = FILL_AREA_STYLE_COLOUR ( '', #178 ) ;
#21 = ADVANCED_FACE ( 'NONE', ( #233, #12 ), #210, .F. ) ;
#22 = CARTESIAN_POINT ( 'NONE',  ( 20.89999999999999900, 0.0000000000000000000, 0.0000000000000000000 ) ) ;
#23 = ADVANCED_FACE ( 'NONE', ( #213 ), #185, .F. ) ;
#24 = CARTESIAN_POINT ( 'NONE',  ( 0.0000000000000000000, 29.87887804514194200, 23.00000000000000000 ) ) ;
#25 = ORIENTED_EDGE ( 'NONE', *, *, #172, .F. ) ;
#26 = DIRECTION ( 'NONE',  ( -0.0000000000000000000, -0.0000000000000000000, -1.000000000000000000 ) ) ;
#27 = AXIS2_PLACEMENT_3D ( 'NONE', #28, #177, #46 ) ;
#28 = CARTESIAN_POINT ( 'NONE',  ( 20.89999999999999900, 10.00000000000000200, 11.50000000000000000 ) ) ;
#29 = DIRECTION ( 'NONE',  ( 1.000000000000000000, 1.161170425044697300E-016, 0.0000000000000000000 ) ) ;
#30 = PRESENTATION_LAYER_ASSIGNMENT (  '', '', ( #120 ) ) ;
#31 = EDGE_LOOP ( 'NONE', ( #168, #258, #140, #248 ) ) ;
#32 =( LENGTH_UNIT ( ) NAMED_UNIT ( * ) SI_UNIT ( .MILLI., .METRE. ) );
#33 = CARTESIAN_POINT ( 'NONE',  ( -2.888861739431265500E-015, 4.999999999999999100, 11.50000000000000000 ) ) ;
#34 = VECTOR ( 'NONE', #98, 1000.000000000000000 ) ;
#35 = VECTOR ( 'NONE', #85, 1000.000000000000000 ) ;
#36 = AXIS2_PLACEMENT_3D ( 'NONE', #162, #183, #141 ) ;
#37 = ORIENTED_EDGE ( 'NONE', *, *, #63, .F. ) ;
#38 = ADVANCED_FACE ( 'NONE', ( #260 ), #158, .F. ) ;
#39 = DIRECTION ( 'NONE',  ( 1.000000000000000000, 0.0000000000000000000, 0.0000000000000000000 ) ) ;
#40 = ORIENTED_EDGE ( 'NONE', *, *, #161, .T. ) ;
#41 = FACE_OUTER_BOUND ( 'NONE', #211, .T. ) ;
#42 = PRODUCT_RELATED_PRODUCT_CATEGORY ( 'part', '', ( #192 ) ) ;
#43 = VECTOR ( 'NONE', #136, 1000.000000000000000 ) ;
#44 = LINE ( 'NONE', #174, #6 ) ;
#45 = ORIENTED_EDGE ( 'NONE', *, *, #63, .T. ) ;
#46 = DIRECTION ( 'NONE',  ( 0.0000000000000000000, 1.000000000000000000, 0.0000000000000000000 ) ) ;
#47 = SURFACE_STYLE_USAGE ( .BOTH. , #264 ) ;
#48 = ORIENTED_EDGE ( 'NONE', *, *, #161, .F. ) ;
#49 = VECTOR ( 'NONE', #223, 1000.000000000000000 ) ;
#50 = VERTEX_POINT ( 'NONE', #100 ) ;
#51 = AXIS2_PLACEMENT_3D ( 'NONE', #89, #87, #201 ) ;
#52 = DIRECTION ( 'NONE',  ( 1.000000000000000000, 1.161170425044697300E-016, -0.0000000000000000000 ) ) ;
#53 = VERTEX_POINT ( 'NONE', #33 ) ;
#54 = CARTESIAN_POINT ( 'NONE',  ( 0.0000000000000000000, 0.0000000000000000000, 23.00000000000000000 ) ) ;
#55 = CARTESIAN_POINT ( 'NONE',  ( 20.89999999999999900, 0.0000000000000000000, 23.00000000000000000 ) ) ;
#56 = LINE ( 'NONE', #133, #108 ) ;
#57 = LINE ( 'NONE', #246, #167 ) ;
#58 = AXIS2_PLACEMENT_3D ( 'NONE', #125, #193, #39 ) ;
#59 = ORIENTED_EDGE ( 'NONE', *, *, #266, .F. ) ;
#60 = APPLICATION_CONTEXT ( 'automotive_design' ) ;
#61 = ADVANCED_FACE ( 'NONE', ( #103 ), #187, .F. ) ;
#62 =( NAMED_UNIT ( * ) PLANE_ANGLE_UNIT ( ) SI_UNIT ( $, .RADIAN. ) );
#63 = EDGE_CURVE ( 'NONE', #53, #154, #269, .T. ) ;
#64 = ADVANCED_BREP_SHAPE_REPRESENTATION ( 'Usinage', ( #4, #202 ), #159 ) ;
#65 = ORIENTED_EDGE ( 'NONE', *, *, #99, .T. ) ;
#66 = DIRECTION ( 'NONE',  ( 1.000000000000000000, 0.0000000000000000000, 0.0000000000000000000 ) ) ;
#67 = CARTESIAN_POINT ( 'NONE',  ( 20.89999999999999900, 0.0000000000000000000, 23.00000000000000000 ) ) ;
#68 = DIRECTION ( 'NONE',  ( -0.0000000000000000000, -0.0000000000000000000, -1.000000000000000000 ) ) ;
#69 = DIRECTION ( 'NONE',  ( -1.161170425044697800E-016, 1.000000000000000000, 0.0000000000000000000 ) ) ;
#70 = AXIS2_PLACEMENT_3D ( 'NONE', #55, #80, #239 ) ;
#71 =( LENGTH_UNIT ( ) NAMED_UNIT ( * ) SI_UNIT ( .MILLI., .METRE. ) );
#72 = ORIENTED_EDGE ( 'NONE', *, *, #76, .T. ) ;
#73 = EDGE_CURVE ( 'NONE', #3, #116, #44, .T. ) ;
#74 = AXIS2_PLACEMENT_3D ( 'NONE', #114, #247, #10 ) ;
#75 = EDGE_LOOP ( 'NONE', ( #37, #255, #101, #48 ) ) ;
#76 = EDGE_CURVE ( 'NONE', #116, #244, #57, .T. ) ;
#77 = CARTESIAN_POINT ( 'NONE',  ( -3.469446951953614200E-015, 10.00000000000000000, 11.50000000000000000 ) ) ;
#78 = SHAPE_DEFINITION_REPRESENTATION ( #119, #64 ) ;
#79 = DIRECTION ( 'NONE',  ( 0.0000000000000000000, -0.0000000000000000000, 1.000000000000000000 ) ) ;
#80 = DIRECTION ( 'NONE',  ( -1.000000000000000000, -1.161170425044697300E-016, 0.0000000000000000000 ) ) ;
#81 = VERTEX_POINT ( 'NONE', #150 ) ;
#82 =( LENGTH_UNIT ( ) NAMED_UNIT ( * ) SI_UNIT ( .MILLI., .METRE. ) );
#83 = CARTESIAN_POINT ( 'NONE',  ( 20.89999999999999900, 15.00000000000000400, 11.50000000000000000 ) ) ;
#84 = ORIENTED_EDGE ( 'NONE', *, *, #148, .T. ) ;
#85 = DIRECTION ( 'NONE',  ( -1.161170425044697300E-016, 1.000000000000000000, 0.0000000000000000000 ) ) ;
#86 = CARTESIAN_POINT ( 'NONE',  ( -2.888861739431265500E-015, 4.999999999999999100, 11.50000000000000000 ) ) ;
#87 = DIRECTION ( 'NONE',  ( 1.000000000000000000, 1.161170425044697300E-016, -0.0000000000000000000 ) ) ;
#88 = CARTESIAN_POINT ( 'NONE',  ( -4.050032164475963300E-015, 15.00000000000000200, 11.50000000000000000 ) ) ;
#89 = CARTESIAN_POINT ( 'NONE',  ( -3.469446951953614200E-015, 10.00000000000000000, 11.50000000000000000 ) ) ;
#90 = DIRECTION ( 'NONE',  ( 0.0000000000000000000, 1.000000000000000000, 0.0000000000000000000 ) ) ;
#91 = AXIS2_PLACEMENT_3D ( 'NONE', #77, #52, #142 ) ;
#92 = PLANE ( 'NONE',  #132 ) ;
#93 = LINE ( 'NONE', #237, #34 ) ;
#94 = CIRCLE ( 'NONE', #27, 5.000000000000000900 ) ;
#95 = FACE_OUTER_BOUND ( 'NONE', #113, .T. ) ;
#96 = ORIENTED_EDGE ( 'NONE', *, *, #2, .T. ) ;
#97 = AXIS2_PLACEMENT_3D ( 'NONE', #200, #261, #69 ) ;
#98 = DIRECTION ( 'NONE',  ( 0.0000000000000000000, -1.000000000000000000, 0.0000000000000000000 ) ) ;
#99 = EDGE_CURVE ( 'NONE', #145, #81, #109, .T. ) ;
#100 = CARTESIAN_POINT ( 'NONE',  ( 20.89999999999999900, 5.000000000000000900, 11.50000000000000000 ) ) ;
#101 = ORIENTED_EDGE ( 'NONE', *, *, #217, .T. ) ;
#102 = LINE ( 'NONE', #111, #43 ) ;
#103 = FACE_OUTER_BOUND ( 'NONE', #179, .T. ) ;
#104 = VERTEX_POINT ( 'NONE', #220 ) ;
#105 = EDGE_CURVE ( 'NONE', #104, #145, #222, .T. ) ;
#106 = ORIENTED_EDGE ( 'NONE', *, *, #204, .T. ) ;
#107 = PRESENTATION_STYLE_ASSIGNMENT (( #17 ) ) ;
#108 = VECTOR ( 'NONE', #26, 1000.000000000000000 ) ;
#109 = LINE ( 'NONE', #197, #49 ) ;
#110 = CARTESIAN_POINT ( 'NONE',  ( 20.89999999999999500, 29.87887804514194200, 23.00000000000000000 ) ) ;
#111 = CARTESIAN_POINT ( 'NONE',  ( 20.89999999999999900, 0.0000000000000000000, 0.0000000000000000000 ) ) ;
#112 = DIRECTION ( 'NONE',  ( 1.000000000000000000, 1.161170425044697300E-016, -0.0000000000000000000 ) ) ;
#113 = EDGE_LOOP ( 'NONE', ( #96, #134, #262, #190 ) ) ;
#114 = CARTESIAN_POINT ( 'NONE',  ( 0.0000000000000000000, 29.87887804514194200, 23.00000000000000000 ) ) ;
#115 = DIRECTION ( 'NONE',  ( 1.000000000000000000, 0.0000000000000000000, -0.0000000000000000000 ) ) ;
#116 = VERTEX_POINT ( 'NONE', #227 ) ;
#117 = VECTOR ( 'NONE', #112, 1000.000000000000000 ) ;
#118 = AXIS2_PLACEMENT_3D ( 'NONE', #259, #131, #245 ) ;
#119 = PRODUCT_DEFINITION_SHAPE ( 'NONE', 'NONE',  #169 ) ;
#120 = STYLED_ITEM ( 'NONE', ( #107 ), #4 ) ;
#121 = FACE_OUTER_BOUND ( 'NONE', #156, .T. ) ;
#122 = SURFACE_SIDE_STYLE ('',( #219 ) ) ;
#123 = UNCERTAINTY_MEASURE_WITH_UNIT (LENGTH_MEASURE( 1.000000000000000100E-005 ), #82, 'distance_accuracy_value', 'NONE');
#124 = ORIENTED_EDGE ( 'NONE', *, *, #73, .T. ) ;
#125 = CARTESIAN_POINT ( 'NONE',  ( 10.44999999999999900, 58.00000000000000000, 23.00000000000000000 ) ) ;
#126 = AXIS2_PLACEMENT_3D ( 'NONE', #54, #209, #79 ) ;
#127 = ADVANCED_FACE ( 'NONE', ( #152 ), #238, .F. ) ;
#128 = ORIENTED_EDGE ( 'NONE', *, *, #76, .F. ) ;
#129 = ADVANCED_FACE ( 'NONE', ( #275, #95 ), #263, .F. ) ;
#130 = EDGE_CURVE ( 'NONE', #144, #50, #94, .T. ) ;
#131 = DIRECTION ( 'NONE',  ( 1.000000000000000000, 1.161170425044697300E-016, 0.0000000000000000000 ) ) ;
#132 = AXIS2_PLACEMENT_3D ( 'NONE', #137, #11, #115 ) ;
#133 = CARTESIAN_POINT ( 'NONE',  ( 20.89999999999999900, 0.0000000000000000000, 23.00000000000000000 ) ) ;
#134 = ORIENTED_EDGE ( 'NONE', *, *, #73, .F. ) ;
#135 = DIRECTION ( 'NONE',  ( 0.0000000000000000000, -1.000000000000000000, 0.0000000000000000000 ) ) ;
#136 = DIRECTION ( 'NONE',  ( -1.161170425044697300E-016, 1.000000000000000000, 0.0000000000000000000 ) ) ;
#137 = CARTESIAN_POINT ( 'NONE',  ( 10.44999999999999900, 58.00000000000000000, 23.00000000000000000 ) ) ;
#138 = MECHANICAL_DESIGN_GEOMETRIC_PRESENTATION_REPRESENTATION (  '', ( #120 ), #207 ) ;
#139 = DIRECTION ( 'NONE',  ( 1.000000000000000000, 0.0000000000000000000, 0.0000000000000000000 ) ) ;
#140 = ORIENTED_EDGE ( 'NONE', *, *, #105, .F. ) ;
#141 = DIRECTION ( 'NONE',  ( 1.000000000000000000, 0.0000000000000000000, -0.0000000000000000000 ) ) ;
#142 = DIRECTION ( 'NONE',  ( -1.161170425044697800E-016, 1.000000000000000000, 0.0000000000000000000 ) ) ;
#143 = EDGE_CURVE ( 'NONE', #244, #81, #102, .T. ) ;
#144 = VERTEX_POINT ( 'NONE', #83 ) ;
#145 = VERTEX_POINT ( 'NONE', #110 ) ;
#146 = AXIS2_PLACEMENT_3D ( 'NONE', #228, #29, #90 ) ;
#147 = APPLICATION_PROTOCOL_DEFINITION ( 'draft international standard', 'automotive_design', 1998, #276 ) ;
#148 = EDGE_CURVE ( 'NONE', #154, #53, #268, .T. ) ;
#149 = EDGE_LOOP ( 'NONE', ( #84, #45 ) ) ;
#150 = CARTESIAN_POINT ( 'NONE',  ( 20.89999999999999500, 29.87887804514194200, 0.0000000000000000000 ) ) ;
#151 = LINE ( 'NONE', #225, #234 ) ;
#152 = FACE_OUTER_BOUND ( 'NONE', #75, .T. ) ;
#153 = CARTESIAN_POINT ( 'NONE',  ( -4.050032164475963300E-015, 15.00000000000000200, 11.50000000000000000 ) ) ;
#154 = VERTEX_POINT ( 'NONE', #153 ) ;
#155 = EDGE_CURVE ( 'NONE', #19, #218, #5, .T. ) ;
#156 = EDGE_LOOP ( 'NONE', ( #25, #199, #40, #163 ) ) ;
#157 = VECTOR ( 'NONE', #68, 1000.000000000000000 ) ;
#158 = CYLINDRICAL_SURFACE ( 'NONE', #175, 30.00000000000000000 ) ;
#159 =( GEOMETRIC_REPRESENTATION_CONTEXT ( 3 ) GLOBAL_UNCERTAINTY_ASSIGNED_CONTEXT ( ( #123 ) ) GLOBAL_UNIT_ASSIGNED_CONTEXT ( ( #82, #62, #256 ) ) REPRESENTATION_CONTEXT ( 'NONE', 'WORKASPACE' ) );
#160 = ORIENTED_EDGE ( 'NONE', *, *, #230, .T. ) ;
#161 = EDGE_CURVE ( 'NONE', #154, #144, #212, .T. ) ;
#162 = CARTESIAN_POINT ( 'NONE',  ( 10.44999999999999900, 58.00000000000000000, 0.0000000000000000000 ) ) ;
#163 = ORIENTED_EDGE ( 'NONE', *, *, #130, .T. ) ;
#164 = DIRECTION ( 'NONE',  ( -0.0000000000000000000, -0.0000000000000000000, -1.000000000000000000 ) ) ;
#165 = COLOUR_RGB ( '',0.7921568627450980000, 0.8196078431372548800, 0.9333333333333333500 ) ;
#166 = VECTOR ( 'NONE', #9, 1000.000000000000000 ) ;
#167 = VECTOR ( 'NONE', #66, 1000.000000000000000 ) ;
#168 = ORIENTED_EDGE ( 'NONE', *, *, #143, .T. ) ;
#169 = PRODUCT_DEFINITION ( 'UNKNOWN', '', #181, #242 ) ;
#170 = CIRCLE ( 'NONE', #189, 30.00000000000000000 ) ;
#171 = ORIENTED_EDGE ( 'NONE', *, *, #105, .T. ) ;
#172 = EDGE_CURVE ( 'NONE', #53, #50, #173, .T. ) ;
#173 = LINE ( 'NONE', #86, #117 ) ;
#174 = CARTESIAN_POINT ( 'NONE',  ( 0.0000000000000000000, 0.0000000000000000000, 23.00000000000000000 ) ) ;
#175 = AXIS2_PLACEMENT_3D ( 'NONE', #18, #164, #254 ) ;
#176 = CARTESIAN_POINT ( 'NONE',  ( 10.44999999999999900, 58.00000000000000000, 0.0000000000000000000 ) ) ;
#177 = DIRECTION ( 'NONE',  ( 1.000000000000000000, 1.161170425044697300E-016, 0.0000000000000000000 ) ) ;
#178 = COLOUR_RGB ( '',0.7921568627450980000, 0.8196078431372548800, 0.9333333333333333500 ) ;
#179 = EDGE_LOOP ( 'NONE', ( #160, #206, #128, #226 ) ) ;
#180 = EDGE_LOOP ( 'NONE', ( #272, #251 ) ) ;
#181 = PRODUCT_DEFINITION_FORMATION_WITH_SPECIFIED_SOURCE ( 'ANY', '', #192, .NOT_KNOWN. ) ;
#182 = CYLINDRICAL_SURFACE ( 'NONE', #91, 5.000000000000000900 ) ;
#183 = DIRECTION ( 'NONE',  ( 0.0000000000000000000, 0.0000000000000000000, 1.000000000000000000 ) ) ;
#184 = FILL_AREA_STYLE ('',( #208 ) ) ;
#185 = PLANE ( 'NONE',  #126 ) ;
#186 = EDGE_CURVE ( 'NONE', #104, #244, #56, .T. ) ;
#187 = PLANE ( 'NONE',  #36 ) ;
#188 = CARTESIAN_POINT ( 'NONE',  ( 0.0000000000000000000, 0.0000000000000000000, 0.0000000000000000000 ) ) ;
#189 = AXIS2_PLACEMENT_3D ( 'NONE', #176, #271, #194 ) ;
#190 = ORIENTED_EDGE ( 'NONE', *, *, #155, .T. ) ;
#191 = APPLICATION_PROTOCOL_DEFINITION ( 'draft international standard', 'automotive_design', 1998, #60 ) ;
#192 = PRODUCT ( 'Usinage', 'Usinage', '', ( #278 ) ) ;
#193 = DIRECTION ( 'NONE',  ( 0.0000000000000000000, 0.0000000000000000000, 1.000000000000000000 ) ) ;
#194 = DIRECTION ( 'NONE',  ( 1.000000000000000000, 0.0000000000000000000, 0.0000000000000000000 ) ) ;
#195 = EDGE_CURVE ( 'NONE', #19, #3, #151, .T. ) ;
#196 = ADVANCED_FACE ( 'NONE', ( #41 ), #92, .T. ) ;
#197 = CARTESIAN_POINT ( 'NONE',  ( 20.89999999999999500, 29.87887804514194200, 23.00000000000000000 ) ) ;
#198 =( NAMED_UNIT ( * ) SI_UNIT ( $, .STERADIAN. ) SOLID_ANGLE_UNIT ( ) );
#199 = ORIENTED_EDGE ( 'NONE', *, *, #148, .F. ) ;
#200 = CARTESIAN_POINT ( 'NONE',  ( -3.469446951953614200E-015, 10.00000000000000000, 11.50000000000000000 ) ) ;
#201 = DIRECTION ( 'NONE',  ( -1.161170425044697800E-016, 1.000000000000000000, 0.0000000000000000000 ) ) ;
#202 = AXIS2_PLACEMENT_3D ( 'NONE', #188, #214, #273 ) ;
#203 =( NAMED_UNIT ( * ) PLANE_ANGLE_UNIT ( ) SI_UNIT ( $, .RADIAN. ) );
#204 = EDGE_CURVE ( 'NONE', #3, #104, #221, .T. ) ;
#205 = ORIENTED_EDGE ( 'NONE', *, *, #195, .T. ) ;
#206 = ORIENTED_EDGE ( 'NONE', *, *, #143, .F. ) ;
#207 =( GEOMETRIC_REPRESENTATION_CONTEXT ( 3 ) GLOBAL_UNCERTAINTY_ASSIGNED_CONTEXT ( ( #216 ) ) GLOBAL_UNIT_ASSIGNED_CONTEXT ( ( #32, #15, #257 ) ) REPRESENTATION_CONTEXT ( 'NONE', 'WORKASPACE' ) );
#208 = FILL_AREA_STYLE_COLOUR ( '', #165 ) ;
#209 = DIRECTION ( 'NONE',  ( 0.0000000000000000000, 1.000000000000000000, 0.0000000000000000000 ) ) ;
#210 = PLANE ( 'NONE',  #70 ) ;
#211 = EDGE_LOOP ( 'NONE', ( #59, #205, #106, #171 ) ) ;
#212 = LINE ( 'NONE', #88, #166 ) ;
#213 = FACE_OUTER_BOUND ( 'NONE', #8, .T. ) ;
#214 = DIRECTION ( 'NONE',  ( 0.0000000000000000000, 0.0000000000000000000, 1.000000000000000000 ) ) ;
#215 = EDGE_LOOP ( 'NONE', ( #270, #232, #267, #65 ) ) ;
#216 = UNCERTAINTY_MEASURE_WITH_UNIT (LENGTH_MEASURE( 1.000000000000000100E-005 ), #32, 'distance_accuracy_value', 'NONE');
#217 = EDGE_CURVE ( 'NONE', #50, #144, #274, .T. ) ;
#218 = VERTEX_POINT ( 'NONE', #265 ) ;
#219 = SURFACE_STYLE_FILL_AREA ( #184 ) ;
#220 = CARTESIAN_POINT ( 'NONE',  ( 20.89999999999999900, 0.0000000000000000000, 23.00000000000000000 ) ) ;
#221 = LINE ( 'NONE', #229, #235 ) ;
#222 = LINE ( 'NONE', #67, #35 ) ;
#223 = DIRECTION ( 'NONE',  ( -0.0000000000000000000, -0.0000000000000000000, -1.000000000000000000 ) ) ;
#224 = PRESENTATION_LAYER_ASSIGNMENT (  '', '', ( #13 ) ) ;
#225 = CARTESIAN_POINT ( 'NONE',  ( 0.0000000000000000000, 29.87887804514194200, 23.00000000000000000 ) ) ;
#226 = ORIENTED_EDGE ( 'NONE', *, *, #2, .F. ) ;
#227 = CARTESIAN_POINT ( 'NONE',  ( 0.0000000000000000000, 0.0000000000000000000, 0.0000000000000000000 ) ) ;
#228 = CARTESIAN_POINT ( 'NONE',  ( 20.89999999999999900, 10.00000000000000200, 11.50000000000000000 ) ) ;
#229 = CARTESIAN_POINT ( 'NONE',  ( 0.0000000000000000000, 0.0000000000000000000, 23.00000000000000000 ) ) ;
#230 = EDGE_CURVE ( 'NONE', #218, #81, #170, .T. ) ;
#231 = SURFACE_STYLE_FILL_AREA ( #241 ) ;
#232 = ORIENTED_EDGE ( 'NONE', *, *, #155, .F. ) ;
#233 = FACE_BOUND ( 'NONE', #180, .T. ) ;
#234 = VECTOR ( 'NONE', #135, 1000.000000000000000 ) ;
#235 = VECTOR ( 'NONE', #139, 1000.000000000000000 ) ;
#236 = ORIENTED_EDGE ( 'NONE', *, *, #204, .F. ) ;
#237 = CARTESIAN_POINT ( 'NONE',  ( 0.0000000000000000000, 29.87887804514194200, 0.0000000000000000000 ) ) ;
#238 = CYLINDRICAL_SURFACE ( 'NONE', #51, 5.000000000000000900 ) ;
#239 = DIRECTION ( 'NONE',  ( 1.161170425044697300E-016, -1.000000000000000000, 0.0000000000000000000 ) ) ;
#240 = MECHANICAL_DESIGN_GEOMETRIC_PRESENTATION_REPRESENTATION (  '', ( #13 ), #252 ) ;
#241 = FILL_AREA_STYLE ('',( #20 ) ) ;
#242 = PRODUCT_DEFINITION_CONTEXT ( 'detailed design', #276, 'design' ) ;
#243 = CIRCLE ( 'NONE', #58, 30.00000000000000000 ) ;
#244 = VERTEX_POINT ( 'NONE', #22 ) ;
#245 = DIRECTION ( 'NONE',  ( -1.161170425044697800E-016, 1.000000000000000000, 0.0000000000000000000 ) ) ;
#246 = CARTESIAN_POINT ( 'NONE',  ( 0.0000000000000000000, 0.0000000000000000000, 0.0000000000000000000 ) ) ;
#247 = DIRECTION ( 'NONE',  ( 1.000000000000000000, 0.0000000000000000000, -0.0000000000000000000 ) ) ;
#248 = ORIENTED_EDGE ( 'NONE', *, *, #186, .T. ) ;
#249 = CARTESIAN_POINT ( 'NONE',  ( 0.0000000000000000000, 29.87887804514194200, 23.00000000000000000 ) ) ;
#250 = PRESENTATION_STYLE_ASSIGNMENT (( #47 ) ) ;
#251 = ORIENTED_EDGE ( 'NONE', *, *, #217, .F. ) ;
#252 =( GEOMETRIC_REPRESENTATION_CONTEXT ( 3 ) GLOBAL_UNCERTAINTY_ASSIGNED_CONTEXT ( ( #14 ) ) GLOBAL_UNIT_ASSIGNED_CONTEXT ( ( #71, #203, #198 ) ) REPRESENTATION_CONTEXT ( 'NONE', 'WORKASPACE' ) );
#253 = CARTESIAN_POINT ( 'NONE',  ( 0.0000000000000000000, 0.0000000000000000000, 23.00000000000000000 ) ) ;
#254 = DIRECTION ( 'NONE',  ( -1.000000000000000000, 0.0000000000000000000, 0.0000000000000000000 ) ) ;
#255 = ORIENTED_EDGE ( 'NONE', *, *, #172, .T. ) ;
#256 =( NAMED_UNIT ( * ) SI_UNIT ( $, .STERADIAN. ) SOLID_ANGLE_UNIT ( ) );
#257 =( NAMED_UNIT ( * ) SI_UNIT ( $, .STERADIAN. ) SOLID_ANGLE_UNIT ( ) );
#258 = ORIENTED_EDGE ( 'NONE', *, *, #99, .F. ) ;
#259 = CARTESIAN_POINT ( 'NONE',  ( -3.469446951953614200E-015, 10.00000000000000000, 11.50000000000000000 ) ) ;
#260 = FACE_OUTER_BOUND ( 'NONE', #215, .T. ) ;
#261 = DIRECTION ( 'NONE',  ( 1.000000000000000000, 1.161170425044697300E-016, 0.0000000000000000000 ) ) ;
#262 = ORIENTED_EDGE ( 'NONE', *, *, #195, .F. ) ;
#263 = PLANE ( 'NONE',  #74 ) ;
#264 = SURFACE_SIDE_STYLE ('',( #231 ) ) ;
#265 = CARTESIAN_POINT ( 'NONE',  ( 0.0000000000000000000, 29.87887804514194200, 0.0000000000000000000 ) ) ;
#266 = EDGE_CURVE ( 'NONE', #19, #145, #243, .T. ) ;
#267 = ORIENTED_EDGE ( 'NONE', *, *, #266, .T. ) ;
#268 = CIRCLE ( 'NONE', #97, 5.000000000000000900 ) ;
#269 = CIRCLE ( 'NONE', #118, 5.000000000000000900 ) ;
#270 = ORIENTED_EDGE ( 'NONE', *, *, #230, .F. ) ;
#271 = DIRECTION ( 'NONE',  ( 0.0000000000000000000, 0.0000000000000000000, 1.000000000000000000 ) ) ;
#272 = ORIENTED_EDGE ( 'NONE', *, *, #130, .F. ) ;
#273 = DIRECTION ( 'NONE',  ( 1.000000000000000000, 0.0000000000000000000, 0.0000000000000000000 ) ) ;
#274 = CIRCLE ( 'NONE', #146, 5.000000000000000900 ) ;
#275 = FACE_BOUND ( 'NONE', #149, .T. ) ;
#276 = APPLICATION_CONTEXT ( 'automotive_design' ) ;
#277 = ORIENTED_EDGE ( 'NONE', *, *, #186, .F. ) ;
#278 = PRODUCT_CONTEXT ( 'NONE', #60, 'mechanical' ) ;
ENDSEC;
END-ISO-10303-21;
