ISO-10303-21;
HEADER;
FILE_DESCRIPTION (( 'STEP AP214' ),
    '1' );
FILE_NAME ('7202-8-008.STEP',
    '2019-03-27T17:03:43',
    ( '' ),
    ( '' ),
    'SwSTEP 2.0',
    'SolidWorks 2018',
    '' );
FILE_SCHEMA (( 'AUTOMOTIVE_DESIGN' ));
ENDSEC;

DATA;
#1 = VERTEX_POINT ( 'NONE', #104 ) ;
#2 = LINE ( 'NONE', #313, #98 ) ;
#3 = APPLICATION_PROTOCOL_DEFINITION ( 'draft international standard', 'automotive_design', 1998, #195 ) ;
#4 = AXIS2_PLACEMENT_3D ( 'NONE', #241, #61, #271 ) ;
#5 = CARTESIAN_POINT ( 'NONE',  ( 11.00000000000000000, 8.949999999999999289, 0.0000000000000000000 ) ) ;
#6 = EDGE_CURVE ( 'NONE', #164, #227, #30, .T. ) ;
#7 = ORIENTED_EDGE ( 'NONE', *, *, #300, .T. ) ;
#8 = VERTEX_POINT ( 'NONE', #89 ) ;
#9 = AXIS2_PLACEMENT_3D ( 'NONE', #58, #247, #17 ) ;
#10 = EDGE_CURVE ( 'NONE', #340, #323, #353, .T. ) ;
#11 = CARTESIAN_POINT ( 'NONE',  ( 14.00000000000000000, 0.0000000000000000000, 0.0000000000000000000 ) ) ;
#12 = FACE_OUTER_BOUND ( 'NONE', #231, .T. ) ;
#13 = CARTESIAN_POINT ( 'NONE',  ( 26.00000000000000000, 0.0000000000000000000, 5.499999999999998224 ) ) ;
#14 = ADVANCED_FACE ( 'NONE', ( #148 ), #217, .T. ) ;
#15 = FILL_AREA_STYLE ('',( #53 ) ) ;
#16 = DIRECTION ( 'NONE',  ( 1.000000000000000000, -0.0000000000000000000, -0.0000000000000000000 ) ) ;
#17 = DIRECTION ( 'NONE',  ( 0.0000000000000000000, 0.0000000000000000000, -1.000000000000000000 ) ) ;
#18 = CARTESIAN_POINT ( 'NONE',  ( 11.00000000000000000, 1.096058885236881035E-15, 8.949999999999999289 ) ) ;
#19 = CARTESIAN_POINT ( 'NONE',  ( 0.5000000000000038858, 1.096058885236881035E-15, 8.949999999999999289 ) ) ;
#20 = ORIENTED_EDGE ( 'NONE', *, *, #99, .F. ) ;
#21 = ORIENTED_EDGE ( 'NONE', *, *, #256, .T. ) ;
#22 = PRESENTATION_STYLE_ASSIGNMENT (( #383 ) ) ;
#23 = DIRECTION ( 'NONE',  ( 1.000000000000000000, -0.0000000000000000000, -0.0000000000000000000 ) ) ;
#24 = CARTESIAN_POINT ( 'NONE',  ( 0.5000000000000038858, 0.0000000000000000000, 0.0000000000000000000 ) ) ;
#25 = CYLINDRICAL_SURFACE ( 'NONE', #29, 8.949999999999999289 ) ;
#26 = DIRECTION ( 'NONE',  ( 1.000000000000000000, -0.0000000000000000000, -0.0000000000000000000 ) ) ;
#27 = DIRECTION ( 'NONE',  ( 1.000000000000000000, 0.0000000000000000000, -0.0000000000000000000 ) ) ;
#28 = AXIS2_PLACEMENT_3D ( 'NONE', #82, #264, #45 ) ;
#29 = AXIS2_PLACEMENT_3D ( 'NONE', #220, #203, #214 ) ;
#30 = CIRCLE ( 'NONE', #318, 6.000000000000001776 ) ;
#31 = VECTOR ( 'NONE', #335, 1000.000000000000114 ) ;
#32 = EDGE_CURVE ( 'NONE', #1, #8, #202, .T. ) ;
#33 = ORIENTED_EDGE ( 'NONE', *, *, #398, .T. ) ;
#34 = EDGE_LOOP ( 'NONE', ( #395, #192 ) ) ;
#35 = SHAPE_DEFINITION_REPRESENTATION ( #321, #84 ) ;
#36 = LINE ( 'NONE', #183, #356 ) ;
#37 = FACE_OUTER_BOUND ( 'NONE', #381, .T. ) ;
#38 = STYLED_ITEM ( 'NONE', ( #22 ), #347 ) ;
#39 = DIRECTION ( 'NONE',  ( 1.000000000000000000, 0.0000000000000000000, 0.0000000000000000000 ) ) ;
#40 = AXIS2_PLACEMENT_3D ( 'NONE', #209, #245, #147 ) ;
#41 = EDGE_CURVE ( 'NONE', #308, #64, #36, .T. ) ;
#42 =( NAMED_UNIT ( * ) PLANE_ANGLE_UNIT ( ) SI_UNIT ( $, .RADIAN. ) );
#43 = ORIENTED_EDGE ( 'NONE', *, *, #256, .F. ) ;
#44 = ORIENTED_EDGE ( 'NONE', *, *, #115, .F. ) ;
#45 = DIRECTION ( 'NONE',  ( 0.0000000000000000000, 0.0000000000000000000, -1.000000000000000000 ) ) ;
#46 = CIRCLE ( 'NONE', #208, 8.449999999999995737 ) ;
#47 =( GEOMETRIC_REPRESENTATION_CONTEXT ( 3 ) GLOBAL_UNCERTAINTY_ASSIGNED_CONTEXT ( ( #301 ) ) GLOBAL_UNIT_ASSIGNED_CONTEXT ( ( #72, #42, #260 ) ) REPRESENTATION_CONTEXT ( 'NONE', 'WORKASPACE' ) );
#48 = ADVANCED_FACE ( 'NONE', ( #240 ), #25, .T. ) ;
#49 = DIRECTION ( 'NONE',  ( -0.7071067811865500152, 0.0000000000000000000, 0.7071067811865451302 ) ) ;
#50 = DIRECTION ( 'NONE',  ( 1.000000000000000000, -0.0000000000000000000, -0.0000000000000000000 ) ) ;
#51 = DIRECTION ( 'NONE',  ( 0.0000000000000000000, 0.0000000000000000000, -1.000000000000000000 ) ) ;
#52 = CYLINDRICAL_SURFACE ( 'NONE', #121, 12.99999999999999467 ) ;
#53 = FILL_AREA_STYLE_COLOUR ( '', #238 ) ;
#54 = AXIS2_PLACEMENT_3D ( 'NONE', #266, #275, #218 ) ;
#55 = ORIENTED_EDGE ( 'NONE', *, *, #300, .F. ) ;
#56 = DIRECTION ( 'NONE',  ( 1.000000000000000000, -0.0000000000000000000, -0.0000000000000000000 ) ) ;
#57 = ORIENTED_EDGE ( 'NONE', *, *, #99, .T. ) ;
#58 = CARTESIAN_POINT ( 'NONE',  ( 14.00000000000000000, 0.0000000000000000000, 0.0000000000000000000 ) ) ;
#59 = DIRECTION ( 'NONE',  ( 1.000000000000000000, -0.0000000000000000000, -0.0000000000000000000 ) ) ;
#60 = CIRCLE ( 'NONE', #156, 12.99999999999999467 ) ;
#61 = DIRECTION ( 'NONE',  ( 1.000000000000000000, -0.0000000000000000000, -0.0000000000000000000 ) ) ;
#62 = CARTESIAN_POINT ( 'NONE',  ( 26.00000000000000000, 0.0000000000000000000, 0.0000000000000000000 ) ) ;
#63 = CARTESIAN_POINT ( 'NONE',  ( 0.0000000000000000000, 0.0000000000000000000, -8.949999999999999289 ) ) ;
#64 = VERTEX_POINT ( 'NONE', #248 ) ;
#65 = AXIS2_PLACEMENT_3D ( 'NONE', #170, #361, #144 ) ;
#66 = AXIS2_PLACEMENT_3D ( 'NONE', #86, #306, #172 ) ;
#67 = EDGE_CURVE ( 'NONE', #178, #8, #155, .T. ) ;
#68 = AXIS2_PLACEMENT_3D ( 'NONE', #153, #293, #39 ) ;
#69 = CIRCLE ( 'NONE', #299, 8.449999999999995737 ) ;
#70 = ORIENTED_EDGE ( 'NONE', *, *, #337, .T. ) ;
#71 = EDGE_LOOP ( 'NONE', ( #373, #319, #280, #346 ) ) ;
#72 =( LENGTH_UNIT ( ) NAMED_UNIT ( * ) SI_UNIT ( .MILLI., .METRE. ) );
#73 = FACE_OUTER_BOUND ( 'NONE', #201, .T. ) ;
#74 = ORIENTED_EDGE ( 'NONE', *, *, #254, .F. ) ;
#75 = AXIS2_PLACEMENT_3D ( 'NONE', #175, #23, #109 ) ;
#76 = EDGE_CURVE ( 'NONE', #262, #64, #136, .T. ) ;
#77 = CYLINDRICAL_SURFACE ( 'NONE', #265, 8.949999999999999289 ) ;
#78 = EDGE_LOOP ( 'NONE', ( #43, #287, #157, #154 ) ) ;
#79 = AXIS2_PLACEMENT_3D ( 'NONE', #396, #342, #187 ) ;
#80 = EDGE_CURVE ( 'NONE', #308, #193, #46, .T. ) ;
#81 = ADVANCED_FACE ( 'NONE', ( #194 ), #184, .T. ) ;
#82 = CARTESIAN_POINT ( 'NONE',  ( 11.00000000000000000, 0.0000000000000000000, 0.0000000000000000000 ) ) ;
#83 = CIRCLE ( 'NONE', #161, 8.949999999999999289 ) ;
#84 = ADVANCED_BREP_SHAPE_REPRESENTATION ( '7202-8-008', ( #347, #68 ), #47 ) ;
#85 = DIRECTION ( 'NONE',  ( 0.0000000000000000000, 0.0000000000000000000, -1.000000000000000000 ) ) ;
#86 = CARTESIAN_POINT ( 'NONE',  ( 0.0000000000000000000, 0.0000000000000000000, 0.0000000000000000000 ) ) ;
#87 = CARTESIAN_POINT ( 'NONE',  ( 0.0000000000000000000, 0.0000000000000000000, 0.0000000000000000000 ) ) ;
#88 = DIRECTION ( 'NONE',  ( 0.0000000000000000000, 0.0000000000000000000, -1.000000000000000000 ) ) ;
#89 = CARTESIAN_POINT ( 'NONE',  ( 13.99999999999999822, 0.0000000000000000000, -12.99999999999999467 ) ) ;
#90 = DIRECTION ( 'NONE',  ( 0.0000000000000000000, 0.0000000000000000000, 1.000000000000000000 ) ) ;
#91 = EDGE_LOOP ( 'NONE', ( #263, #212 ) ) ;
#92 = PLANE ( 'NONE',  #79 ) ;
#93 = LINE ( 'NONE', #173, #31 ) ;
#94 = EDGE_CURVE ( 'NONE', #101, #323, #328, .T. ) ;
#95 = ORIENTED_EDGE ( 'NONE', *, *, #94, .F. ) ;
#96 = VECTOR ( 'NONE', #49, 1000.000000000000114 ) ;
#97 =( NAMED_UNIT ( * ) SI_UNIT ( $, .STERADIAN. ) SOLID_ANGLE_UNIT ( ) );
#98 = VECTOR ( 'NONE', #215, 1000.000000000000000 ) ;
#99 = EDGE_CURVE ( 'NONE', #164, #323, #324, .T. ) ;
#100 = ORIENTED_EDGE ( 'NONE', *, *, #285, .T. ) ;
#101 = VERTEX_POINT ( 'NONE', #251 ) ;
#102 = EDGE_LOOP ( 'NONE', ( #261, #125, #111, #302 ) ) ;
#103 = ADVANCED_FACE ( 'NONE', ( #258, #127 ), #389, .T. ) ;
#104 = CARTESIAN_POINT ( 'NONE',  ( 11.00000000000000000, 0.0000000000000000000, -12.99999999999999467 ) ) ;
#105 = PRESENTATION_LAYER_ASSIGNMENT (  '', '', ( #38 ) ) ;
#106 = CARTESIAN_POINT ( 'NONE',  ( 13.99999999999999822, 12.99999999999999467, 0.0000000000000000000 ) ) ;
#107 = ADVANCED_FACE ( 'NONE', ( #341 ), #305, .T. ) ;
#108 = DIRECTION ( 'NONE',  ( 1.000000000000000000, -0.0000000000000000000, -0.0000000000000000000 ) ) ;
#109 = DIRECTION ( 'NONE',  ( 0.0000000000000000000, 0.0000000000000000000, 1.000000000000000000 ) ) ;
#110 = DIRECTION ( 'NONE',  ( 1.000000000000000000, -0.0000000000000000000, -0.0000000000000000000 ) ) ;
#111 = ORIENTED_EDGE ( 'NONE', *, *, #41, .T. ) ;
#112 = ORIENTED_EDGE ( 'NONE', *, *, #163, .T. ) ;
#113 = UNCERTAINTY_MEASURE_WITH_UNIT (LENGTH_MEASURE( 1.000000000000000082E-05 ), #168, 'distance_accuracy_value', 'NONE');
#114 = CARTESIAN_POINT ( 'NONE',  ( 14.00000000000000000, 7.347880794884121708E-16, 6.000000000000001776 ) ) ;
#115 = EDGE_CURVE ( 'NONE', #126, #101, #117, .T. ) ;
#116 = DIRECTION ( 'NONE',  ( 1.000000000000000000, -0.0000000000000000000, -0.0000000000000000000 ) ) ;
#117 = CIRCLE ( 'NONE', #397, 5.499999999999998224 ) ;
#118 = LINE ( 'NONE', #19, #292 ) ;
#119 = DIRECTION ( 'NONE',  ( -1.000000000000000000, 0.0000000000000000000, 0.0000000000000000000 ) ) ;
#120 = AXIS2_PLACEMENT_3D ( 'NONE', #216, #27, #394 ) ;
#121 = AXIS2_PLACEMENT_3D ( 'NONE', #283, #366, #88 ) ;
#122 = EDGE_CURVE ( 'NONE', #8, #178, #166, .T. ) ;
#123 = MECHANICAL_DESIGN_GEOMETRIC_PRESENTATION_REPRESENTATION (  '', ( #189 ), #267 ) ;
#124 = CONICAL_SURFACE ( 'NONE', #40, 5.499999999999998224, 0.7853981633974447263 ) ;
#125 = ORIENTED_EDGE ( 'NONE', *, *, #80, .F. ) ;
#126 = VERTEX_POINT ( 'NONE', #314 ) ;
#127 = FACE_BOUND ( 'NONE', #160, .T. ) ;
#128 = CIRCLE ( 'NONE', #197, 5.499999999999998224 ) ;
#129 =( LENGTH_UNIT ( ) NAMED_UNIT ( * ) SI_UNIT ( .MILLI., .METRE. ) );
#130 = AXIS2_PLACEMENT_3D ( 'NONE', #5, #350, #134 ) ;
#131 = LINE ( 'NONE', #316, #224 ) ;
#132 = ORIENTED_EDGE ( 'NONE', *, *, #10, .T. ) ;
#133 = ORIENTED_EDGE ( 'NONE', *, *, #390, .F. ) ;
#134 = DIRECTION ( 'NONE',  ( 0.0000000000000000000, 0.0000000000000000000, 1.000000000000000000 ) ) ;
#135 = VERTEX_POINT ( 'NONE', #18 ) ;
#136 = CIRCLE ( 'NONE', #75, 8.949999999999999289 ) ;
#137 = PRODUCT_DEFINITION_CONTEXT ( 'detailed design', #195, 'design' ) ;
#138 = EDGE_LOOP ( 'NONE', ( #20, #327, #281, #132 ) ) ;
#139 = AXIS2_PLACEMENT_3D ( 'NONE', #246, #16, #85 ) ;
#140 = PRESENTATION_LAYER_ASSIGNMENT (  '', '', ( #189 ) ) ;
#141 =( NAMED_UNIT ( * ) SI_UNIT ( $, .STERADIAN. ) SOLID_ANGLE_UNIT ( ) );
#142 = DIRECTION ( 'NONE',  ( -1.000000000000000000, 0.0000000000000000000, 0.0000000000000000000 ) ) ;
#143 = CIRCLE ( 'NONE', #294, 8.949999999999999289 ) ;
#144 = DIRECTION ( 'NONE',  ( 0.0000000000000000000, 0.0000000000000000000, -1.000000000000000000 ) ) ;
#145 = DIRECTION ( 'NONE',  ( 1.000000000000000000, -0.0000000000000000000, -0.0000000000000000000 ) ) ;
#146 = ORIENTED_EDGE ( 'NONE', *, *, #6, .F. ) ;
#147 = DIRECTION ( 'NONE',  ( 0.0000000000000000000, 0.0000000000000000000, 1.000000000000000000 ) ) ;
#148 = FACE_OUTER_BOUND ( 'NONE', #102, .T. ) ;
#149 = DIRECTION ( 'NONE',  ( 0.0000000000000000000, 0.0000000000000000000, -1.000000000000000000 ) ) ;
#150 = DIRECTION ( 'NONE',  ( 0.0000000000000000000, 0.0000000000000000000, 1.000000000000000000 ) ) ;
#151 = DIRECTION ( 'NONE',  ( 1.000000000000000000, -0.0000000000000000000, -0.0000000000000000000 ) ) ;
#152 = CARTESIAN_POINT ( 'NONE',  ( 25.49999999999999289, 7.347880794884121708E-16, 6.000000000000001776 ) ) ;
#153 = CARTESIAN_POINT ( 'NONE',  ( 0.0000000000000000000, 0.0000000000000000000, 0.0000000000000000000 ) ) ;
#154 = ORIENTED_EDGE ( 'NONE', *, *, #67, .F. ) ;
#155 = CIRCLE ( 'NONE', #54, 12.99999999999999467 ) ;
#156 = AXIS2_PLACEMENT_3D ( 'NONE', #176, #391, #250 ) ;
#157 = ORIENTED_EDGE ( 'NONE', *, *, #32, .T. ) ;
#158 = ORIENTED_EDGE ( 'NONE', *, *, #122, .F. ) ;
#159 = CIRCLE ( 'NONE', #65, 6.000000000000001776 ) ;
#160 = EDGE_LOOP ( 'NONE', ( #55, #146 ) ) ;
#161 = AXIS2_PLACEMENT_3D ( 'NONE', #24, #116, #90 ) ;
#162 = SURFACE_SIDE_STYLE ('',( #371 ) ) ;
#163 = EDGE_CURVE ( 'NONE', #262, #135, #2, .T. ) ;
#164 = VERTEX_POINT ( 'NONE', #114 ) ;
#165 = DIRECTION ( 'NONE',  ( 0.0000000000000000000, 0.0000000000000000000, -1.000000000000000000 ) ) ;
#166 = CIRCLE ( 'NONE', #375, 12.99999999999999467 ) ;
#167 = ADVANCED_FACE ( 'NONE', ( #370 ), #52, .T. ) ;
#168 =( LENGTH_UNIT ( ) NAMED_UNIT ( * ) SI_UNIT ( .MILLI., .METRE. ) );
#169 = DIRECTION ( 'NONE',  ( 0.0000000000000000000, 0.0000000000000000000, 1.000000000000000000 ) ) ;
#170 = CARTESIAN_POINT ( 'NONE',  ( 25.49999999999999289, 0.0000000000000000000, 0.0000000000000000000 ) ) ;
#171 = CARTESIAN_POINT ( 'NONE',  ( 0.0000000000000000000, 0.0000000000000000000, -12.99999999999999467 ) ) ;
#172 = DIRECTION ( 'NONE',  ( 0.0000000000000000000, 0.0000000000000000000, -1.000000000000000000 ) ) ;
#173 = CARTESIAN_POINT ( 'NONE',  ( 26.00000000000000000, 6.735557395310440051E-16, -5.499999999999998224 ) ) ;
#174 = CARTESIAN_POINT ( 'NONE',  ( 25.49999999999999289, 0.0000000000000000000, 0.0000000000000000000 ) ) ;
#175 = CARTESIAN_POINT ( 'NONE',  ( 0.5000000000000038858, 0.0000000000000000000, 0.0000000000000000000 ) ) ;
#176 = CARTESIAN_POINT ( 'NONE',  ( 11.00000000000000000, 0.0000000000000000000, 0.0000000000000000000 ) ) ;
#177 = DIRECTION ( 'NONE',  ( 0.7071067811865474617, 0.0000000000000000000, -0.7071067811865474617 ) ) ;
#178 = VERTEX_POINT ( 'NONE', #333 ) ;
#179 = CARTESIAN_POINT ( 'NONE',  ( 0.0000000000000000000, 1.065442715258197248E-15, 8.449999999999995737 ) ) ;
#180 = ORIENTED_EDGE ( 'NONE', *, *, #374, .T. ) ;
#181 = FACE_BOUND ( 'NONE', #91, .T. ) ;
#182 = ORIENTED_EDGE ( 'NONE', *, *, #320, .T. ) ;
#183 = CARTESIAN_POINT ( 'NONE',  ( 0.5000000000000038858, 0.0000000000000000000, -8.949999999999999289 ) ) ;
#184 = CONICAL_SURFACE ( 'NONE', #190, 5.499999999999998224, 0.7853981633974447263 ) ;
#185 = CARTESIAN_POINT ( 'NONE',  ( 0.5000000000000038858, 0.0000000000000000000, 0.0000000000000000000 ) ) ;
#186 = PLANE ( 'NONE',  #120 ) ;
#187 = DIRECTION ( 'NONE',  ( 0.0000000000000000000, 0.0000000000000000000, 1.000000000000000000 ) ) ;
#188 = CYLINDRICAL_SURFACE ( 'NONE', #139, 12.99999999999999467 ) ;
#189 = STYLED_ITEM ( 'NONE', ( #229 ), #84 ) ;
#190 = AXIS2_PLACEMENT_3D ( 'NONE', #336, #119, #150 ) ;
#191 = ORIENTED_EDGE ( 'NONE', *, *, #94, .T. ) ;
#192 = ORIENTED_EDGE ( 'NONE', *, *, #67, .T. ) ;
#193 = VERTEX_POINT ( 'NONE', #179 ) ;
#194 = FACE_OUTER_BOUND ( 'NONE', #236, .T. ) ;
#195 = APPLICATION_CONTEXT ( 'automotive_design' ) ;
#196 = APPLICATION_CONTEXT ( 'automotive_design' ) ;
#197 = AXIS2_PLACEMENT_3D ( 'NONE', #198, #380, #165 ) ;
#198 = CARTESIAN_POINT ( 'NONE',  ( 26.00000000000000000, 0.0000000000000000000, 0.0000000000000000000 ) ) ;
#199 = VERTEX_POINT ( 'NONE', #387 ) ;
#200 = ORIENTED_EDGE ( 'NONE', *, *, #237, .F. ) ;
#201 = EDGE_LOOP ( 'NONE', ( #239, #309, #191, #290 ) ) ;
#202 = LINE ( 'NONE', #171, #298 ) ;
#203 = DIRECTION ( 'NONE',  ( 1.000000000000000000, -0.0000000000000000000, -0.0000000000000000000 ) ) ;
#204 = AXIS2_PLACEMENT_3D ( 'NONE', #311, #110, #338 ) ;
#205 = ADVANCED_FACE ( 'NONE', ( #253 ), #188, .T. ) ;
#206 = DIRECTION ( 'NONE',  ( 0.0000000000000000000, 0.0000000000000000000, 1.000000000000000000 ) ) ;
#207 = SURFACE_SIDE_STYLE ('',( #279 ) ) ;
#208 = AXIS2_PLACEMENT_3D ( 'NONE', #310, #364, #206 ) ;
#209 = CARTESIAN_POINT ( 'NONE',  ( 26.00000000000000000, 0.0000000000000000000, 0.0000000000000000000 ) ) ;
#210 = CARTESIAN_POINT ( 'NONE',  ( 25.49999999999999289, 0.0000000000000000000, -6.000000000000001776 ) ) ;
#211 = LINE ( 'NONE', #63, #400 ) ;
#212 = ORIENTED_EDGE ( 'NONE', *, *, #297, .T. ) ;
#213 = ORIENTED_EDGE ( 'NONE', *, *, #343, .F. ) ;
#214 = DIRECTION ( 'NONE',  ( 0.0000000000000000000, 0.0000000000000000000, -1.000000000000000000 ) ) ;
#215 = DIRECTION ( 'NONE',  ( 1.000000000000000000, -0.0000000000000000000, -0.0000000000000000000 ) ) ;
#216 = CARTESIAN_POINT ( 'NONE',  ( 26.00000000000000000, 6.000000000000001776, 0.0000000000000000000 ) ) ;
#217 = CONICAL_SURFACE ( 'NONE', #4, 8.949999999999999289, 0.7853981633974482790 ) ;
#218 = DIRECTION ( 'NONE',  ( 0.0000000000000000000, 0.0000000000000000000, -1.000000000000000000 ) ) ;
#219 = PRODUCT ( '7202-8-008', '7202-8-008', '', ( #259 ) ) ;
#220 = CARTESIAN_POINT ( 'NONE',  ( 0.0000000000000000000, 0.0000000000000000000, 0.0000000000000000000 ) ) ;
#221 = DIRECTION ( 'NONE',  ( 1.000000000000000000, 0.0000000000000000000, -0.0000000000000000000 ) ) ;
#222 = DIRECTION ( 'NONE',  ( 1.000000000000000000, -0.0000000000000000000, -0.0000000000000000000 ) ) ;
#223 = EDGE_LOOP ( 'NONE', ( #100, #112, #213, #74 ) ) ;
#224 = VECTOR ( 'NONE', #286, 1000.000000000000000 ) ;
#225 = ORIENTED_EDGE ( 'NONE', *, *, #285, .F. ) ;
#226 = EDGE_LOOP ( 'NONE', ( #180, #21, #158, #372 ) ) ;
#227 = VERTEX_POINT ( 'NONE', #339 ) ;
#228 = LINE ( 'NONE', #386, #368 ) ;
#229 = PRESENTATION_STYLE_ASSIGNMENT (( #325 ) ) ;
#230 = CIRCLE ( 'NONE', #28, 12.99999999999999467 ) ;
#231 = EDGE_LOOP ( 'NONE', ( #355, #289 ) ) ;
#232 =( NAMED_UNIT ( * ) PLANE_ANGLE_UNIT ( ) SI_UNIT ( $, .RADIAN. ) );
#233 = AXIS2_PLACEMENT_3D ( 'NONE', #307, #108, #149 ) ;
#234 = APPLICATION_PROTOCOL_DEFINITION ( 'draft international standard', 'automotive_design', 1998, #196 ) ;
#235 = CYLINDRICAL_SURFACE ( 'NONE', #66, 6.000000000000001776 ) ;
#236 = EDGE_LOOP ( 'NONE', ( #44, #182, #352, #95 ) ) ;
#237 = EDGE_CURVE ( 'NONE', #193, #308, #69, .T. ) ;
#238 = COLOUR_RGB ( '',0.8980392156862745390, 0.9176470588235293713, 0.9294117647058823817 ) ;
#239 = ORIENTED_EDGE ( 'NONE', *, *, #320, .F. ) ;
#240 = FACE_OUTER_BOUND ( 'NONE', #71, .T. ) ;
#241 = CARTESIAN_POINT ( 'NONE',  ( 0.5000000000000038858, 0.0000000000000000000, 0.0000000000000000000 ) ) ;
#242 = ADVANCED_FACE ( 'NONE', ( #377 ), #235, .T. ) ;
#243 = DIRECTION ( 'NONE',  ( 0.0000000000000000000, 0.0000000000000000000, -1.000000000000000000 ) ) ;
#244 = ADVANCED_FACE ( 'NONE', ( #73 ), #124, .T. ) ;
#245 = DIRECTION ( 'NONE',  ( -1.000000000000000000, 0.0000000000000000000, 0.0000000000000000000 ) ) ;
#246 = CARTESIAN_POINT ( 'NONE',  ( 0.0000000000000000000, 0.0000000000000000000, 0.0000000000000000000 ) ) ;
#247 = DIRECTION ( 'NONE',  ( 1.000000000000000000, -0.0000000000000000000, -0.0000000000000000000 ) ) ;
#248 = CARTESIAN_POINT ( 'NONE',  ( 0.5000000000000038858, 0.0000000000000000000, -8.949999999999999289 ) ) ;
#249 = CARTESIAN_POINT ( 'NONE',  ( 13.99999999999999822, 0.0000000000000000000, 0.0000000000000000000 ) ) ;
#250 = DIRECTION ( 'NONE',  ( 0.0000000000000000000, 0.0000000000000000000, -1.000000000000000000 ) ) ;
#251 = CARTESIAN_POINT ( 'NONE',  ( 26.00000000000000000, 0.0000000000000000000, 5.499999999999998224 ) ) ;
#252 = CLOSED_SHELL ( 'NONE', ( #81, #107, #242, #205, #304, #269, #48, #358, #167, #103, #330, #272, #14, #244 ) ) ;
#253 = FACE_OUTER_BOUND ( 'NONE', #226, .T. ) ;
#254 = EDGE_CURVE ( 'NONE', #64, #288, #211, .T. ) ;
#255 = AXIS2_PLACEMENT_3D ( 'NONE', #185, #26, #360 ) ;
#256 = EDGE_CURVE ( 'NONE', #199, #178, #131, .T. ) ;
#257 = EDGE_LOOP ( 'NONE', ( #7, #57, #70, #133 ) ) ;
#258 = FACE_OUTER_BOUND ( 'NONE', #34, .T. ) ;
#259 = PRODUCT_CONTEXT ( 'NONE', #196, 'mechanical' ) ;
#260 =( NAMED_UNIT ( * ) SI_UNIT ( $, .STERADIAN. ) SOLID_ANGLE_UNIT ( ) );
#261 = ORIENTED_EDGE ( 'NONE', *, *, #398, .F. ) ;
#262 = VERTEX_POINT ( 'NONE', #385 ) ;
#263 = ORIENTED_EDGE ( 'NONE', *, *, #343, .T. ) ;
#264 = DIRECTION ( 'NONE',  ( 1.000000000000000000, -0.0000000000000000000, -0.0000000000000000000 ) ) ;
#265 = AXIS2_PLACEMENT_3D ( 'NONE', #87, #315, #274 ) ;
#266 = CARTESIAN_POINT ( 'NONE',  ( 13.99999999999999822, 0.0000000000000000000, 0.0000000000000000000 ) ) ;
#267 =( GEOMETRIC_REPRESENTATION_CONTEXT ( 3 ) GLOBAL_UNCERTAINTY_ASSIGNED_CONTEXT ( ( #376 ) ) GLOBAL_UNIT_ASSIGNED_CONTEXT ( ( #129, #232, #97 ) ) REPRESENTATION_CONTEXT ( 'NONE', 'WORKASPACE' ) );
#268 = DIRECTION ( 'NONE',  ( 1.000000000000000000, -0.0000000000000000000, -0.0000000000000000000 ) ) ;
#269 = ADVANCED_FACE ( 'NONE', ( #295 ), #92, .T. ) ;
#270 = CARTESIAN_POINT ( 'NONE',  ( 11.00000000000000000, 0.0000000000000000000, 0.0000000000000000000 ) ) ;
#271 = DIRECTION ( 'NONE',  ( 0.0000000000000000000, 0.0000000000000000000, -1.000000000000000000 ) ) ;
#272 = ADVANCED_FACE ( 'NONE', ( #12 ), #186, .T. ) ;
#273 = CARTESIAN_POINT ( 'NONE',  ( 0.0000000000000000000, 7.347880794884121708E-16, 6.000000000000001776 ) ) ;
#274 = DIRECTION ( 'NONE',  ( 0.0000000000000000000, 0.0000000000000000000, -1.000000000000000000 ) ) ;
#275 = DIRECTION ( 'NONE',  ( 1.000000000000000000, -0.0000000000000000000, -0.0000000000000000000 ) ) ;
#276 = EDGE_LOOP ( 'NONE', ( #200, #33, #225, #379 ) ) ;
#277 = DIRECTION ( 'NONE',  ( 0.0000000000000000000, 0.0000000000000000000, -1.000000000000000000 ) ) ;
#278 = ORIENTED_EDGE ( 'NONE', *, *, #80, .T. ) ;
#279 = SURFACE_STYLE_FILL_AREA ( #15 ) ;
#280 = ORIENTED_EDGE ( 'NONE', *, *, #254, .T. ) ;
#281 = ORIENTED_EDGE ( 'NONE', *, *, #390, .T. ) ;
#282 = DIRECTION ( 'NONE',  ( 0.0000000000000000000, 0.0000000000000000000, -1.000000000000000000 ) ) ;
#283 = CARTESIAN_POINT ( 'NONE',  ( 0.0000000000000000000, 0.0000000000000000000, 0.0000000000000000000 ) ) ;
#284 = CARTESIAN_POINT ( 'NONE',  ( 11.00000000000000000, 0.0000000000000000000, -8.949999999999999289 ) ) ;
#285 = EDGE_CURVE ( 'NONE', #64, #262, #83, .T. ) ;
#286 = DIRECTION ( 'NONE',  ( 1.000000000000000000, -0.0000000000000000000, -0.0000000000000000000 ) ) ;
#287 = ORIENTED_EDGE ( 'NONE', *, *, #351, .T. ) ;
#288 = VERTEX_POINT ( 'NONE', #284 ) ;
#289 = ORIENTED_EDGE ( 'NONE', *, *, #115, .T. ) ;
#290 = ORIENTED_EDGE ( 'NONE', *, *, #10, .F. ) ;
#291 = PRODUCT_DEFINITION_FORMATION_WITH_SPECIFIED_SOURCE ( 'ANY', '', #219, .NOT_KNOWN. ) ;
#292 = VECTOR ( 'NONE', #365, 1000.000000000000114 ) ;
#293 = DIRECTION ( 'NONE',  ( 0.0000000000000000000, 0.0000000000000000000, 1.000000000000000000 ) ) ;
#294 = AXIS2_PLACEMENT_3D ( 'NONE', #270, #50, #243 ) ;
#295 = FACE_OUTER_BOUND ( 'NONE', #296, .T. ) ;
#296 = EDGE_LOOP ( 'NONE', ( #278, #354 ) ) ;
#297 = EDGE_CURVE ( 'NONE', #135, #288, #326, .T. ) ;
#298 = VECTOR ( 'NONE', #303, 1000.000000000000000 ) ;
#299 = AXIS2_PLACEMENT_3D ( 'NONE', #362, #142, #169 ) ;
#300 = EDGE_CURVE ( 'NONE', #227, #164, #384, .T. ) ;
#301 = UNCERTAINTY_MEASURE_WITH_UNIT (LENGTH_MEASURE( 1.000000000000000082E-05 ), #72, 'distance_accuracy_value', 'NONE');
#302 = ORIENTED_EDGE ( 'NONE', *, *, #76, .F. ) ;
#303 = DIRECTION ( 'NONE',  ( 1.000000000000000000, -0.0000000000000000000, -0.0000000000000000000 ) ) ;
#304 = ADVANCED_FACE ( 'NONE', ( #344 ), #77, .T. ) ;
#305 = CONICAL_SURFACE ( 'NONE', #255, 8.949999999999999289, 0.7853981633974482790 ) ;
#306 = DIRECTION ( 'NONE',  ( 1.000000000000000000, -0.0000000000000000000, -0.0000000000000000000 ) ) ;
#307 = CARTESIAN_POINT ( 'NONE',  ( 0.0000000000000000000, 0.0000000000000000000, 0.0000000000000000000 ) ) ;
#308 = VERTEX_POINT ( 'NONE', #388 ) ;
#309 = ORIENTED_EDGE ( 'NONE', *, *, #357, .F. ) ;
#310 = CARTESIAN_POINT ( 'NONE',  ( 0.0000000000000000000, 0.0000000000000000000, 0.0000000000000000000 ) ) ;
#311 = CARTESIAN_POINT ( 'NONE',  ( 11.00000000000000000, 0.0000000000000000000, 0.0000000000000000000 ) ) ;
#312 = DIRECTION ( 'NONE',  ( 0.0000000000000000000, 0.0000000000000000000, -1.000000000000000000 ) ) ;
#313 = CARTESIAN_POINT ( 'NONE',  ( 0.0000000000000000000, 1.096058885236881035E-15, 8.949999999999999289 ) ) ;
#314 = CARTESIAN_POINT ( 'NONE',  ( 26.00000000000000000, 7.041719095097280880E-16, -5.499999999999998224 ) ) ;
#315 = DIRECTION ( 'NONE',  ( 1.000000000000000000, -0.0000000000000000000, -0.0000000000000000000 ) ) ;
#316 = CARTESIAN_POINT ( 'NONE',  ( 0.0000000000000000000, 1.592040838891558504E-15, 12.99999999999999467 ) ) ;
#317 = PRODUCT_DEFINITION ( 'UNKNOWN', '', #291, #137 ) ;
#318 = AXIS2_PLACEMENT_3D ( 'NONE', #11, #145, #282 ) ;
#319 = ORIENTED_EDGE ( 'NONE', *, *, #76, .T. ) ;
#320 = EDGE_CURVE ( 'NONE', #126, #340, #93, .T. ) ;
#321 = PRODUCT_DEFINITION_SHAPE ( 'NONE', 'NONE',  #317 ) ;
#322 = FACE_OUTER_BOUND ( 'NONE', #138, .T. ) ;
#323 = VERTEX_POINT ( 'NONE', #152 ) ;
#324 = LINE ( 'NONE', #273, #348 ) ;
#325 = SURFACE_STYLE_USAGE ( .BOTH. , #162 ) ;
#326 = CIRCLE ( 'NONE', #204, 8.949999999999999289 ) ;
#327 = ORIENTED_EDGE ( 'NONE', *, *, #6, .T. ) ;
#328 = LINE ( 'NONE', #13, #96 ) ;
#329 = MECHANICAL_DESIGN_GEOMETRIC_PRESENTATION_REPRESENTATION (  '', ( #38 ), #382 ) ;
#330 = ADVANCED_FACE ( 'NONE', ( #322 ), #393, .T. ) ;
#331 = PLANE ( 'NONE',  #130 ) ;
#332 = DIRECTION ( 'NONE',  ( -1.000000000000000000, 0.0000000000000000000, 0.0000000000000000000 ) ) ;
#333 = CARTESIAN_POINT ( 'NONE',  ( 13.99999999999999822, 1.592040838891558504E-15, 12.99999999999999467 ) ) ;
#334 = AXIS2_PLACEMENT_3D ( 'NONE', #174, #332, #312 ) ;
#335 = DIRECTION ( 'NONE',  ( -0.7071067811865500152, 8.659560562354904508E-17, -0.7071067811865451302 ) ) ;
#336 = CARTESIAN_POINT ( 'NONE',  ( 26.00000000000000000, 0.0000000000000000000, 0.0000000000000000000 ) ) ;
#337 = EDGE_CURVE ( 'NONE', #323, #340, #159, .T. ) ;
#338 = DIRECTION ( 'NONE',  ( 0.0000000000000000000, 0.0000000000000000000, -1.000000000000000000 ) ) ;
#339 = CARTESIAN_POINT ( 'NONE',  ( 14.00000000000000000, 0.0000000000000000000, -6.000000000000001776 ) ) ;
#340 = VERTEX_POINT ( 'NONE', #210 ) ;
#341 = FACE_OUTER_BOUND ( 'NONE', #276, .T. ) ;
#342 = DIRECTION ( 'NONE',  ( -1.000000000000000000, 0.0000000000000000000, 0.0000000000000000000 ) ) ;
#343 = EDGE_CURVE ( 'NONE', #288, #135, #143, .T. ) ;
#344 = FACE_OUTER_BOUND ( 'NONE', #223, .T. ) ;
#345 = COLOUR_RGB ( '',0.8980392156862745390, 0.9176470588235293713, 0.9294117647058823817 ) ;
#346 = ORIENTED_EDGE ( 'NONE', *, *, #297, .F. ) ;
#347 = MANIFOLD_SOLID_BREP ( 'Fase1', #252 ) ;
#348 = VECTOR ( 'NONE', #56, 1000.000000000000000 ) ;
#349 = FILL_AREA_STYLE ('',( #399 ) ) ;
#350 = DIRECTION ( 'NONE',  ( -1.000000000000000000, 0.0000000000000000000, 0.0000000000000000000 ) ) ;
#351 = EDGE_CURVE ( 'NONE', #199, #1, #230, .T. ) ;
#352 = ORIENTED_EDGE ( 'NONE', *, *, #337, .F. ) ;
#353 = CIRCLE ( 'NONE', #334, 6.000000000000001776 ) ;
#354 = ORIENTED_EDGE ( 'NONE', *, *, #237, .T. ) ;
#355 = ORIENTED_EDGE ( 'NONE', *, *, #357, .T. ) ;
#356 = VECTOR ( 'NONE', #177, 1000.000000000000114 ) ;
#357 = EDGE_CURVE ( 'NONE', #101, #126, #128, .T. ) ;
#358 = ADVANCED_FACE ( 'NONE', ( #181, #37 ), #331, .T. ) ;
#359 =( NAMED_UNIT ( * ) PLANE_ANGLE_UNIT ( ) SI_UNIT ( $, .RADIAN. ) );
#360 = DIRECTION ( 'NONE',  ( 0.0000000000000000000, 0.0000000000000000000, -1.000000000000000000 ) ) ;
#361 = DIRECTION ( 'NONE',  ( -1.000000000000000000, 0.0000000000000000000, 0.0000000000000000000 ) ) ;
#362 = CARTESIAN_POINT ( 'NONE',  ( 0.0000000000000000000, 0.0000000000000000000, 0.0000000000000000000 ) ) ;
#363 = ORIENTED_EDGE ( 'NONE', *, *, #374, .F. ) ;
#364 = DIRECTION ( 'NONE',  ( -1.000000000000000000, 0.0000000000000000000, 0.0000000000000000000 ) ) ;
#365 = DIRECTION ( 'NONE',  ( 0.7071067811865474617, 8.659560562354932858E-17, 0.7071067811865474617 ) ) ;
#366 = DIRECTION ( 'NONE',  ( 1.000000000000000000, -0.0000000000000000000, -0.0000000000000000000 ) ) ;
#367 = PRODUCT_RELATED_PRODUCT_CATEGORY ( 'part', '', ( #219 ) ) ;
#368 = VECTOR ( 'NONE', #151, 1000.000000000000000 ) ;
#369 = AXIS2_PLACEMENT_3D ( 'NONE', #106, #221, #392 ) ;
#370 = FACE_OUTER_BOUND ( 'NONE', #78, .T. ) ;
#371 = SURFACE_STYLE_FILL_AREA ( #349 ) ;
#372 = ORIENTED_EDGE ( 'NONE', *, *, #32, .F. ) ;
#373 = ORIENTED_EDGE ( 'NONE', *, *, #163, .F. ) ;
#374 = EDGE_CURVE ( 'NONE', #1, #199, #60, .T. ) ;
#375 = AXIS2_PLACEMENT_3D ( 'NONE', #249, #59, #277 ) ;
#376 = UNCERTAINTY_MEASURE_WITH_UNIT (LENGTH_MEASURE( 1.000000000000000082E-05 ), #129, 'distance_accuracy_value', 'NONE');
#377 = FACE_OUTER_BOUND ( 'NONE', #257, .T. ) ;
#378 = ORIENTED_EDGE ( 'NONE', *, *, #351, .F. ) ;
#379 = ORIENTED_EDGE ( 'NONE', *, *, #41, .F. ) ;
#380 = DIRECTION ( 'NONE',  ( 1.000000000000000000, -0.0000000000000000000, -0.0000000000000000000 ) ) ;
#381 = EDGE_LOOP ( 'NONE', ( #363, #378 ) ) ;
#382 =( GEOMETRIC_REPRESENTATION_CONTEXT ( 3 ) GLOBAL_UNCERTAINTY_ASSIGNED_CONTEXT ( ( #113 ) ) GLOBAL_UNIT_ASSIGNED_CONTEXT ( ( #168, #359, #141 ) ) REPRESENTATION_CONTEXT ( 'NONE', 'WORKASPACE' ) );
#383 = SURFACE_STYLE_USAGE ( .BOTH. , #207 ) ;
#384 = CIRCLE ( 'NONE', #9, 6.000000000000001776 ) ;
#385 = CARTESIAN_POINT ( 'NONE',  ( 0.5000000000000038858, 1.096058885236881035E-15, 8.949999999999999289 ) ) ;
#386 = CARTESIAN_POINT ( 'NONE',  ( 0.0000000000000000000, 0.0000000000000000000, -6.000000000000001776 ) ) ;
#387 = CARTESIAN_POINT ( 'NONE',  ( 11.00000000000000000, 1.592040838891558504E-15, 12.99999999999999467 ) ) ;
#388 = CARTESIAN_POINT ( 'NONE',  ( 0.0000000000000000000, 0.0000000000000000000, -8.449999999999995737 ) ) ;
#389 = PLANE ( 'NONE',  #369 ) ;
#390 = EDGE_CURVE ( 'NONE', #227, #340, #228, .T. ) ;
#391 = DIRECTION ( 'NONE',  ( 1.000000000000000000, -0.0000000000000000000, -0.0000000000000000000 ) ) ;
#392 = DIRECTION ( 'NONE',  ( -0.0000000000000000000, 0.0000000000000000000, -1.000000000000000000 ) ) ;
#393 = CYLINDRICAL_SURFACE ( 'NONE', #233, 6.000000000000001776 ) ;
#394 = DIRECTION ( 'NONE',  ( -0.0000000000000000000, 0.0000000000000000000, -1.000000000000000000 ) ) ;
#395 = ORIENTED_EDGE ( 'NONE', *, *, #122, .T. ) ;
#396 = CARTESIAN_POINT ( 'NONE',  ( 0.0000000000000000000, 0.0000000000000000000, 0.0000000000000000000 ) ) ;
#397 = AXIS2_PLACEMENT_3D ( 'NONE', #62, #268, #51 ) ;
#398 = EDGE_CURVE ( 'NONE', #193, #262, #118, .T. ) ;
#399 = FILL_AREA_STYLE_COLOUR ( '', #345 ) ;
#400 = VECTOR ( 'NONE', #222, 1000.000000000000000 ) ;
ENDSEC;
END-ISO-10303-21;
