ISO-10303-21;
HEADER;
/* Generated by software containing ST-Developer
 * from STEP Tools, Inc. (www.steptools.com) 
 */

FILE_DESCRIPTION(
/* description */ (''),
/* implementation_level */ '2;1');

FILE_NAME(
/* name */ 'C:/Users/schnejpa/Downloads/renfort_modules v6.step',
/* time_stamp */ '2019-03-07T13:26:17+01:00',
/* author */ ('jembi00'),
/* organization */ (''),
/* preprocessor_version */ 'ST-DEVELOPER v17.2',
/* originating_system */ 'Autodesk Translation Framework v7.6.0.251',
/* authorisation */ '');

FILE_SCHEMA (('AUTOMOTIVE_DESIGN { 1 0 10303 214 3 1 1 }'));
ENDSEC;

DATA;
#10=MECHANICAL_DESIGN_GEOMETRIC_PRESENTATION_REPRESENTATION('',(#13),#426);
#11=SHAPE_REPRESENTATION_RELATIONSHIP('SRR','None',#433,#12);
#12=ADVANCED_BREP_SHAPE_REPRESENTATION('',(#14),#425);
#13=STYLED_ITEM('',(#442),#14);
#14=MANIFOLD_SOLID_BREP('Body1',#238);
#15=CYLINDRICAL_SURFACE('',#261,1.);
#16=CYLINDRICAL_SURFACE('',#265,1.00000001490116);
#17=CYLINDRICAL_SURFACE('',#269,1.);
#18=CYLINDRICAL_SURFACE('',#273,1.00000001490116);
#19=CYLINDRICAL_SURFACE('',#278,4.);
#20=CYLINDRICAL_SURFACE('',#279,5.);
#21=CYLINDRICAL_SURFACE('',#281,10.);
#22=FACE_BOUND('',#52,.T.);
#23=FACE_BOUND('',#53,.T.);
#24=FACE_BOUND('',#54,.T.);
#25=FACE_BOUND('',#55,.T.);
#26=FACE_BOUND('',#56,.T.);
#27=FACE_BOUND('',#65,.T.);
#28=FACE_BOUND('',#70,.T.);
#29=FACE_BOUND('',#71,.T.);
#30=FACE_BOUND('',#72,.T.);
#31=FACE_BOUND('',#73,.T.);
#32=FACE_BOUND('',#74,.T.);
#33=PLANE('',#255);
#34=PLANE('',#275);
#35=PLANE('',#283);
#36=FACE_OUTER_BOUND('',#50,.T.);
#37=FACE_OUTER_BOUND('',#51,.T.);
#38=FACE_OUTER_BOUND('',#57,.T.);
#39=FACE_OUTER_BOUND('',#58,.T.);
#40=FACE_OUTER_BOUND('',#59,.T.);
#41=FACE_OUTER_BOUND('',#60,.T.);
#42=FACE_OUTER_BOUND('',#61,.T.);
#43=FACE_OUTER_BOUND('',#62,.T.);
#44=FACE_OUTER_BOUND('',#63,.T.);
#45=FACE_OUTER_BOUND('',#64,.T.);
#46=FACE_OUTER_BOUND('',#66,.T.);
#47=FACE_OUTER_BOUND('',#67,.T.);
#48=FACE_OUTER_BOUND('',#68,.T.);
#49=FACE_OUTER_BOUND('',#69,.T.);
#50=EDGE_LOOP('',(#162,#163,#164,#165));
#51=EDGE_LOOP('',(#166));
#52=EDGE_LOOP('',(#167));
#53=EDGE_LOOP('',(#168));
#54=EDGE_LOOP('',(#169));
#55=EDGE_LOOP('',(#170));
#56=EDGE_LOOP('',(#171));
#57=EDGE_LOOP('',(#172,#173,#174,#175));
#58=EDGE_LOOP('',(#176,#177,#178,#179));
#59=EDGE_LOOP('',(#180,#181,#182,#183));
#60=EDGE_LOOP('',(#184,#185,#186,#187));
#61=EDGE_LOOP('',(#188,#189,#190,#191));
#62=EDGE_LOOP('',(#192,#193,#194,#195));
#63=EDGE_LOOP('',(#196,#197,#198,#199));
#64=EDGE_LOOP('',(#200));
#65=EDGE_LOOP('',(#201));
#66=EDGE_LOOP('',(#202,#203,#204,#205));
#67=EDGE_LOOP('',(#206,#207,#208,#209));
#68=EDGE_LOOP('',(#210,#211,#212,#213));
#69=EDGE_LOOP('',(#214));
#70=EDGE_LOOP('',(#215));
#71=EDGE_LOOP('',(#216));
#72=EDGE_LOOP('',(#217));
#73=EDGE_LOOP('',(#218));
#74=EDGE_LOOP('',(#219));
#75=LINE('',#366,#86);
#76=LINE('',#382,#87);
#77=LINE('',#385,#88);
#78=LINE('',#390,#89);
#79=LINE('',#393,#90);
#80=LINE('',#398,#91);
#81=LINE('',#401,#92);
#82=LINE('',#406,#93);
#83=LINE('',#413,#94);
#84=LINE('',#416,#95);
#85=LINE('',#421,#96);
#86=VECTOR('',#290,1.25);
#87=VECTOR('',#309,1.);
#88=VECTOR('',#312,1.25000001490116);
#89=VECTOR('',#319,1.00000001490116);
#90=VECTOR('',#322,1.25);
#91=VECTOR('',#329,1.);
#92=VECTOR('',#332,1.25000001490116);
#93=VECTOR('',#339,1.00000001490116);
#94=VECTOR('',#348,4.);
#95=VECTOR('',#351,5.);
#96=VECTOR('',#358,10.);
#97=CIRCLE('',#253,1.5);
#98=CIRCLE('',#254,1.);
#99=CIRCLE('',#256,10.);
#100=CIRCLE('',#257,1.50000001490116);
#101=CIRCLE('',#258,1.50000001490116);
#102=CIRCLE('',#259,4.);
#103=CIRCLE('',#260,1.5);
#104=CIRCLE('',#262,1.);
#105=CIRCLE('',#264,1.00000001490116);
#106=CIRCLE('',#266,1.00000001490116);
#107=CIRCLE('',#268,1.);
#108=CIRCLE('',#270,1.);
#109=CIRCLE('',#272,1.00000001490116);
#110=CIRCLE('',#274,1.00000001490116);
#111=CIRCLE('',#276,5.);
#112=CIRCLE('',#277,4.);
#113=CIRCLE('',#280,5.);
#114=CIRCLE('',#282,10.);
#115=VERTEX_POINT('',#363);
#116=VERTEX_POINT('',#365);
#117=VERTEX_POINT('',#369);
#118=VERTEX_POINT('',#371);
#119=VERTEX_POINT('',#373);
#120=VERTEX_POINT('',#375);
#121=VERTEX_POINT('',#377);
#122=VERTEX_POINT('',#380);
#123=VERTEX_POINT('',#384);
#124=VERTEX_POINT('',#388);
#125=VERTEX_POINT('',#392);
#126=VERTEX_POINT('',#396);
#127=VERTEX_POINT('',#400);
#128=VERTEX_POINT('',#404);
#129=VERTEX_POINT('',#408);
#130=VERTEX_POINT('',#410);
#131=VERTEX_POINT('',#415);
#132=VERTEX_POINT('',#419);
#133=EDGE_CURVE('',#115,#115,#97,.T.);
#134=EDGE_CURVE('',#115,#116,#75,.T.);
#135=EDGE_CURVE('',#116,#116,#98,.T.);
#136=EDGE_CURVE('',#117,#117,#99,.T.);
#137=EDGE_CURVE('',#118,#118,#100,.T.);
#138=EDGE_CURVE('',#119,#119,#101,.T.);
#139=EDGE_CURVE('',#120,#120,#102,.T.);
#140=EDGE_CURVE('',#121,#121,#103,.T.);
#141=EDGE_CURVE('',#122,#122,#104,.T.);
#142=EDGE_CURVE('',#122,#116,#76,.T.);
#143=EDGE_CURVE('',#118,#123,#77,.T.);
#144=EDGE_CURVE('',#123,#123,#105,.T.);
#145=EDGE_CURVE('',#124,#124,#106,.T.);
#146=EDGE_CURVE('',#124,#123,#78,.T.);
#147=EDGE_CURVE('',#121,#125,#79,.T.);
#148=EDGE_CURVE('',#125,#125,#107,.T.);
#149=EDGE_CURVE('',#126,#126,#108,.T.);
#150=EDGE_CURVE('',#126,#125,#80,.T.);
#151=EDGE_CURVE('',#119,#127,#81,.T.);
#152=EDGE_CURVE('',#127,#127,#109,.T.);
#153=EDGE_CURVE('',#128,#128,#110,.T.);
#154=EDGE_CURVE('',#128,#127,#82,.T.);
#155=EDGE_CURVE('',#129,#129,#111,.T.);
#156=EDGE_CURVE('',#130,#130,#112,.T.);
#157=EDGE_CURVE('',#130,#120,#83,.T.);
#158=EDGE_CURVE('',#129,#131,#84,.T.);
#159=EDGE_CURVE('',#131,#131,#113,.T.);
#160=EDGE_CURVE('',#132,#132,#114,.T.);
#161=EDGE_CURVE('',#132,#117,#85,.T.);
#162=ORIENTED_EDGE('',*,*,#133,.T.);
#163=ORIENTED_EDGE('',*,*,#134,.T.);
#164=ORIENTED_EDGE('',*,*,#135,.T.);
#165=ORIENTED_EDGE('',*,*,#134,.F.);
#166=ORIENTED_EDGE('',*,*,#136,.F.);
#167=ORIENTED_EDGE('',*,*,#137,.F.);
#168=ORIENTED_EDGE('',*,*,#138,.F.);
#169=ORIENTED_EDGE('',*,*,#139,.T.);
#170=ORIENTED_EDGE('',*,*,#140,.F.);
#171=ORIENTED_EDGE('',*,*,#133,.F.);
#172=ORIENTED_EDGE('',*,*,#141,.F.);
#173=ORIENTED_EDGE('',*,*,#142,.T.);
#174=ORIENTED_EDGE('',*,*,#135,.F.);
#175=ORIENTED_EDGE('',*,*,#142,.F.);
#176=ORIENTED_EDGE('',*,*,#137,.T.);
#177=ORIENTED_EDGE('',*,*,#143,.T.);
#178=ORIENTED_EDGE('',*,*,#144,.T.);
#179=ORIENTED_EDGE('',*,*,#143,.F.);
#180=ORIENTED_EDGE('',*,*,#145,.F.);
#181=ORIENTED_EDGE('',*,*,#146,.T.);
#182=ORIENTED_EDGE('',*,*,#144,.F.);
#183=ORIENTED_EDGE('',*,*,#146,.F.);
#184=ORIENTED_EDGE('',*,*,#140,.T.);
#185=ORIENTED_EDGE('',*,*,#147,.T.);
#186=ORIENTED_EDGE('',*,*,#148,.T.);
#187=ORIENTED_EDGE('',*,*,#147,.F.);
#188=ORIENTED_EDGE('',*,*,#149,.F.);
#189=ORIENTED_EDGE('',*,*,#150,.T.);
#190=ORIENTED_EDGE('',*,*,#148,.F.);
#191=ORIENTED_EDGE('',*,*,#150,.F.);
#192=ORIENTED_EDGE('',*,*,#138,.T.);
#193=ORIENTED_EDGE('',*,*,#151,.T.);
#194=ORIENTED_EDGE('',*,*,#152,.T.);
#195=ORIENTED_EDGE('',*,*,#151,.F.);
#196=ORIENTED_EDGE('',*,*,#153,.F.);
#197=ORIENTED_EDGE('',*,*,#154,.T.);
#198=ORIENTED_EDGE('',*,*,#152,.F.);
#199=ORIENTED_EDGE('',*,*,#154,.F.);
#200=ORIENTED_EDGE('',*,*,#155,.F.);
#201=ORIENTED_EDGE('',*,*,#156,.F.);
#202=ORIENTED_EDGE('',*,*,#156,.T.);
#203=ORIENTED_EDGE('',*,*,#157,.T.);
#204=ORIENTED_EDGE('',*,*,#139,.F.);
#205=ORIENTED_EDGE('',*,*,#157,.F.);
#206=ORIENTED_EDGE('',*,*,#155,.T.);
#207=ORIENTED_EDGE('',*,*,#158,.T.);
#208=ORIENTED_EDGE('',*,*,#159,.F.);
#209=ORIENTED_EDGE('',*,*,#158,.F.);
#210=ORIENTED_EDGE('',*,*,#160,.F.);
#211=ORIENTED_EDGE('',*,*,#161,.T.);
#212=ORIENTED_EDGE('',*,*,#136,.T.);
#213=ORIENTED_EDGE('',*,*,#161,.F.);
#214=ORIENTED_EDGE('',*,*,#160,.T.);
#215=ORIENTED_EDGE('',*,*,#149,.T.);
#216=ORIENTED_EDGE('',*,*,#141,.T.);
#217=ORIENTED_EDGE('',*,*,#145,.T.);
#218=ORIENTED_EDGE('',*,*,#153,.T.);
#219=ORIENTED_EDGE('',*,*,#159,.T.);
#220=CONICAL_SURFACE('',#252,1.25,0.785398163397449);
#221=CONICAL_SURFACE('',#263,1.25000001490116,0.785398163397448);
#222=CONICAL_SURFACE('',#267,1.25,0.785398163397449);
#223=CONICAL_SURFACE('',#271,1.25000001490116,0.785398163397448);
#224=ADVANCED_FACE('',(#36),#220,.F.);
#225=ADVANCED_FACE('',(#37,#22,#23,#24,#25,#26),#33,.F.);
#226=ADVANCED_FACE('',(#38),#15,.F.);
#227=ADVANCED_FACE('',(#39),#221,.F.);
#228=ADVANCED_FACE('',(#40),#16,.F.);
#229=ADVANCED_FACE('',(#41),#222,.F.);
#230=ADVANCED_FACE('',(#42),#17,.F.);
#231=ADVANCED_FACE('',(#43),#223,.F.);
#232=ADVANCED_FACE('',(#44),#18,.F.);
#233=ADVANCED_FACE('',(#45,#27),#34,.T.);
#234=ADVANCED_FACE('',(#46),#19,.F.);
#235=ADVANCED_FACE('',(#47),#20,.T.);
#236=ADVANCED_FACE('',(#48),#21,.T.);
#237=ADVANCED_FACE('',(#49,#28,#29,#30,#31,#32),#35,.T.);
#238=CLOSED_SHELL('',(#224,#225,#226,#227,#228,#229,#230,#231,#232,#233,
#234,#235,#236,#237));
#239=DERIVED_UNIT_ELEMENT(#241,1.);
#240=DERIVED_UNIT_ELEMENT(#428,3.);
#241=(
MASS_UNIT()
NAMED_UNIT(*)
SI_UNIT(.KILO.,.GRAM.)
);
#242=DERIVED_UNIT((#239,#240));
#243=MEASURE_REPRESENTATION_ITEM('density measure',
POSITIVE_RATIO_MEASURE(7850.),#242);
#244=PROPERTY_DEFINITION_REPRESENTATION(#249,#246);
#245=PROPERTY_DEFINITION_REPRESENTATION(#250,#247);
#246=REPRESENTATION('material name',(#248),#425);
#247=REPRESENTATION('density',(#243),#425);
#248=DESCRIPTIVE_REPRESENTATION_ITEM('Steel','Steel');
#249=PROPERTY_DEFINITION('material property','material name',#435);
#250=PROPERTY_DEFINITION('material property','density of part',#435);
#251=AXIS2_PLACEMENT_3D('placement',#361,#284,#285);
#252=AXIS2_PLACEMENT_3D('',#362,#286,#287);
#253=AXIS2_PLACEMENT_3D('',#364,#288,#289);
#254=AXIS2_PLACEMENT_3D('',#367,#291,#292);
#255=AXIS2_PLACEMENT_3D('',#368,#293,#294);
#256=AXIS2_PLACEMENT_3D('',#370,#295,#296);
#257=AXIS2_PLACEMENT_3D('',#372,#297,#298);
#258=AXIS2_PLACEMENT_3D('',#374,#299,#300);
#259=AXIS2_PLACEMENT_3D('',#376,#301,#302);
#260=AXIS2_PLACEMENT_3D('',#378,#303,#304);
#261=AXIS2_PLACEMENT_3D('',#379,#305,#306);
#262=AXIS2_PLACEMENT_3D('',#381,#307,#308);
#263=AXIS2_PLACEMENT_3D('',#383,#310,#311);
#264=AXIS2_PLACEMENT_3D('',#386,#313,#314);
#265=AXIS2_PLACEMENT_3D('',#387,#315,#316);
#266=AXIS2_PLACEMENT_3D('',#389,#317,#318);
#267=AXIS2_PLACEMENT_3D('',#391,#320,#321);
#268=AXIS2_PLACEMENT_3D('',#394,#323,#324);
#269=AXIS2_PLACEMENT_3D('',#395,#325,#326);
#270=AXIS2_PLACEMENT_3D('',#397,#327,#328);
#271=AXIS2_PLACEMENT_3D('',#399,#330,#331);
#272=AXIS2_PLACEMENT_3D('',#402,#333,#334);
#273=AXIS2_PLACEMENT_3D('',#403,#335,#336);
#274=AXIS2_PLACEMENT_3D('',#405,#337,#338);
#275=AXIS2_PLACEMENT_3D('',#407,#340,#341);
#276=AXIS2_PLACEMENT_3D('',#409,#342,#343);
#277=AXIS2_PLACEMENT_3D('',#411,#344,#345);
#278=AXIS2_PLACEMENT_3D('',#412,#346,#347);
#279=AXIS2_PLACEMENT_3D('',#414,#349,#350);
#280=AXIS2_PLACEMENT_3D('',#417,#352,#353);
#281=AXIS2_PLACEMENT_3D('',#418,#354,#355);
#282=AXIS2_PLACEMENT_3D('',#420,#356,#357);
#283=AXIS2_PLACEMENT_3D('',#422,#359,#360);
#284=DIRECTION('axis',(0.,0.,1.));
#285=DIRECTION('refdir',(1.,0.,0.));
#286=DIRECTION('center_axis',(0.,0.,-1.));
#287=DIRECTION('ref_axis',(-1.,0.,0.));
#288=DIRECTION('center_axis',(0.,0.,-1.));
#289=DIRECTION('ref_axis',(-1.,0.,0.));
#290=DIRECTION('',(-0.707106781186548,8.65956056235494E-17,0.707106781186547));
#291=DIRECTION('center_axis',(0.,0.,1.));
#292=DIRECTION('ref_axis',(-1.,0.,0.));
#293=DIRECTION('center_axis',(0.,0.,1.));
#294=DIRECTION('ref_axis',(1.,0.,0.));
#295=DIRECTION('center_axis',(0.,0.,1.));
#296=DIRECTION('ref_axis',(1.,0.,0.));
#297=DIRECTION('center_axis',(0.,0.,-1.));
#298=DIRECTION('ref_axis',(-1.,0.,0.));
#299=DIRECTION('center_axis',(0.,0.,-1.));
#300=DIRECTION('ref_axis',(-1.,0.,0.));
#301=DIRECTION('center_axis',(0.,0.,1.));
#302=DIRECTION('ref_axis',(-1.,0.,0.));
#303=DIRECTION('center_axis',(0.,0.,-1.));
#304=DIRECTION('ref_axis',(-1.,0.,0.));
#305=DIRECTION('center_axis',(0.,0.,-1.));
#306=DIRECTION('ref_axis',(-1.,0.,0.));
#307=DIRECTION('center_axis',(0.,0.,-1.));
#308=DIRECTION('ref_axis',(-1.,0.,0.));
#309=DIRECTION('',(0.,0.,-1.));
#310=DIRECTION('center_axis',(0.,0.,-1.));
#311=DIRECTION('ref_axis',(-1.,0.,0.));
#312=DIRECTION('',(-0.707106781186548,8.65956056235493E-17,0.707106781186548));
#313=DIRECTION('center_axis',(0.,0.,1.));
#314=DIRECTION('ref_axis',(-1.,0.,0.));
#315=DIRECTION('center_axis',(0.,0.,-1.));
#316=DIRECTION('ref_axis',(-1.,0.,0.));
#317=DIRECTION('center_axis',(0.,0.,-1.));
#318=DIRECTION('ref_axis',(-1.,0.,0.));
#319=DIRECTION('',(0.,0.,-1.));
#320=DIRECTION('center_axis',(0.,0.,-1.));
#321=DIRECTION('ref_axis',(-1.,0.,0.));
#322=DIRECTION('',(-0.707106781186548,8.65956056235494E-17,0.707106781186547));
#323=DIRECTION('center_axis',(0.,0.,1.));
#324=DIRECTION('ref_axis',(-1.,0.,0.));
#325=DIRECTION('center_axis',(0.,0.,-1.));
#326=DIRECTION('ref_axis',(-1.,0.,0.));
#327=DIRECTION('center_axis',(0.,0.,-1.));
#328=DIRECTION('ref_axis',(-1.,0.,0.));
#329=DIRECTION('',(0.,0.,-1.));
#330=DIRECTION('center_axis',(0.,0.,-1.));
#331=DIRECTION('ref_axis',(-1.,0.,0.));
#332=DIRECTION('',(-0.707106781186548,8.65956056235493E-17,0.707106781186548));
#333=DIRECTION('center_axis',(0.,0.,1.));
#334=DIRECTION('ref_axis',(-1.,0.,0.));
#335=DIRECTION('center_axis',(0.,0.,-1.));
#336=DIRECTION('ref_axis',(-1.,0.,0.));
#337=DIRECTION('center_axis',(0.,0.,-1.));
#338=DIRECTION('ref_axis',(-1.,0.,0.));
#339=DIRECTION('',(0.,0.,-1.));
#340=DIRECTION('center_axis',(0.,0.,1.));
#341=DIRECTION('ref_axis',(-1.,0.,0.));
#342=DIRECTION('center_axis',(0.,0.,-1.));
#343=DIRECTION('ref_axis',(-1.,0.,0.));
#344=DIRECTION('center_axis',(0.,0.,1.));
#345=DIRECTION('ref_axis',(-1.,0.,0.));
#346=DIRECTION('center_axis',(0.,0.,-1.));
#347=DIRECTION('ref_axis',(-1.,0.,0.));
#348=DIRECTION('',(0.,0.,-1.));
#349=DIRECTION('center_axis',(0.,0.,1.));
#350=DIRECTION('ref_axis',(-1.,0.,0.));
#351=DIRECTION('',(0.,0.,-1.));
#352=DIRECTION('center_axis',(0.,0.,-1.));
#353=DIRECTION('ref_axis',(-1.,0.,0.));
#354=DIRECTION('center_axis',(0.,0.,1.));
#355=DIRECTION('ref_axis',(1.,0.,0.));
#356=DIRECTION('center_axis',(0.,0.,1.));
#357=DIRECTION('ref_axis',(1.,0.,0.));
#358=DIRECTION('',(0.,0.,-1.));
#359=DIRECTION('center_axis',(0.,0.,1.));
#360=DIRECTION('ref_axis',(1.,0.,0.));
#361=CARTESIAN_POINT('',(0.,0.,0.));
#362=CARTESIAN_POINT('Origin',(7.5,-0.0633131115281915,0.25));
#363=CARTESIAN_POINT('',(9.,-0.0633131115281917,0.));
#364=CARTESIAN_POINT('Origin',(7.5,-0.0633131115281915,0.));
#365=CARTESIAN_POINT('',(8.5,-0.0633131115281914,0.5));
#366=CARTESIAN_POINT('',(8.75,-0.0633131115281917,0.25));
#367=CARTESIAN_POINT('Origin',(7.5,-0.0633131115281915,0.5));
#368=CARTESIAN_POINT('Origin',(0.,0.,0.));
#369=CARTESIAN_POINT('',(-10.,-1.22464679914735E-15,0.));
#370=CARTESIAN_POINT('Origin',(0.,0.,0.));
#371=CARTESIAN_POINT('',(1.50000001490116,7.5,0.));
#372=CARTESIAN_POINT('Origin',(0.,7.5,0.));
#373=CARTESIAN_POINT('',(1.50000001490116,-7.5,0.));
#374=CARTESIAN_POINT('Origin',(0.,-7.5,0.));
#375=CARTESIAN_POINT('',(4.,4.89858719658941E-16,0.));
#376=CARTESIAN_POINT('Origin',(0.,0.,0.));
#377=CARTESIAN_POINT('',(-6.,-0.0633131115281917,0.));
#378=CARTESIAN_POINT('Origin',(-7.5,-0.0633131115281915,0.));
#379=CARTESIAN_POINT('Origin',(7.5,-0.0633131115281915,2.));
#380=CARTESIAN_POINT('',(8.5,-0.0633131115281914,2.));
#381=CARTESIAN_POINT('Origin',(7.5,-0.0633131115281915,2.));
#382=CARTESIAN_POINT('',(8.5,-0.0633131115281916,2.));
#383=CARTESIAN_POINT('Origin',(0.,7.5,0.25));
#384=CARTESIAN_POINT('',(1.00000001490116,7.5,0.5));
#385=CARTESIAN_POINT('',(1.25000001490116,7.5,0.25));
#386=CARTESIAN_POINT('Origin',(0.,7.5,0.5));
#387=CARTESIAN_POINT('Origin',(0.,7.5,2.));
#388=CARTESIAN_POINT('',(1.00000001490116,7.5,2.));
#389=CARTESIAN_POINT('Origin',(0.,7.5,2.));
#390=CARTESIAN_POINT('',(1.00000001490116,7.5,2.));
#391=CARTESIAN_POINT('Origin',(-7.5,-0.0633131115281915,0.25));
#392=CARTESIAN_POINT('',(-6.5,-0.0633131115281914,0.5));
#393=CARTESIAN_POINT('',(-6.25,-0.0633131115281917,0.25));
#394=CARTESIAN_POINT('Origin',(-7.5,-0.0633131115281915,0.5));
#395=CARTESIAN_POINT('Origin',(-7.5,-0.0633131115281915,2.));
#396=CARTESIAN_POINT('',(-6.5,-0.0633131115281914,2.));
#397=CARTESIAN_POINT('Origin',(-7.5,-0.0633131115281915,2.));
#398=CARTESIAN_POINT('',(-6.5,-0.0633131115281916,2.));
#399=CARTESIAN_POINT('Origin',(0.,-7.5,0.25));
#400=CARTESIAN_POINT('',(1.00000001490116,-7.5,0.5));
#401=CARTESIAN_POINT('',(1.25000001490116,-7.5,0.25));
#402=CARTESIAN_POINT('Origin',(0.,-7.5,0.5));
#403=CARTESIAN_POINT('Origin',(0.,-7.5,2.));
#404=CARTESIAN_POINT('',(1.00000001490116,-7.5,2.));
#405=CARTESIAN_POINT('Origin',(0.,-7.5,2.));
#406=CARTESIAN_POINT('',(1.00000001490116,-7.5,2.));
#407=CARTESIAN_POINT('Origin',(0.,0.,11.5));
#408=CARTESIAN_POINT('',(5.,6.12323399573677E-16,11.5));
#409=CARTESIAN_POINT('Origin',(0.,0.,11.5));
#410=CARTESIAN_POINT('',(4.,4.89858719658941E-16,11.5));
#411=CARTESIAN_POINT('Origin',(0.,0.,11.5));
#412=CARTESIAN_POINT('Origin',(0.,0.,12.));
#413=CARTESIAN_POINT('',(4.,-4.89858719658941E-16,12.));
#414=CARTESIAN_POINT('Origin',(0.,0.,2.));
#415=CARTESIAN_POINT('',(5.,6.12323399573677E-16,2.));
#416=CARTESIAN_POINT('',(5.,6.12323399573677E-16,2.));
#417=CARTESIAN_POINT('Origin',(0.,0.,2.));
#418=CARTESIAN_POINT('Origin',(0.,0.,0.));
#419=CARTESIAN_POINT('',(-10.,-1.22464679914735E-15,2.));
#420=CARTESIAN_POINT('Origin',(0.,0.,2.));
#421=CARTESIAN_POINT('',(-10.,-1.22464679914735E-15,0.));
#422=CARTESIAN_POINT('Origin',(0.,0.,2.));
#423=UNCERTAINTY_MEASURE_WITH_UNIT(LENGTH_MEASURE(0.01),#427,
'DISTANCE_ACCURACY_VALUE',
'Maximum model space distance between geometric entities at asserted c
onnectivities');
#424=UNCERTAINTY_MEASURE_WITH_UNIT(LENGTH_MEASURE(0.01),#427,
'DISTANCE_ACCURACY_VALUE',
'Maximum model space distance between geometric entities at asserted c
onnectivities');
#425=(
GEOMETRIC_REPRESENTATION_CONTEXT(3)
GLOBAL_UNCERTAINTY_ASSIGNED_CONTEXT((#423))
GLOBAL_UNIT_ASSIGNED_CONTEXT((#427,#429,#430))
REPRESENTATION_CONTEXT('','3D')
);
#426=(
GEOMETRIC_REPRESENTATION_CONTEXT(3)
GLOBAL_UNCERTAINTY_ASSIGNED_CONTEXT((#424))
GLOBAL_UNIT_ASSIGNED_CONTEXT((#427,#429,#430))
REPRESENTATION_CONTEXT('','3D')
);
#427=(
LENGTH_UNIT()
NAMED_UNIT(*)
SI_UNIT(.MILLI.,.METRE.)
);
#428=(
LENGTH_UNIT()
NAMED_UNIT(*)
SI_UNIT($,.METRE.)
);
#429=(
NAMED_UNIT(*)
PLANE_ANGLE_UNIT()
SI_UNIT($,.RADIAN.)
);
#430=(
NAMED_UNIT(*)
SI_UNIT($,.STERADIAN.)
SOLID_ANGLE_UNIT()
);
#431=SHAPE_DEFINITION_REPRESENTATION(#432,#433);
#432=PRODUCT_DEFINITION_SHAPE('',$,#435);
#433=SHAPE_REPRESENTATION('',(#251),#425);
#434=PRODUCT_DEFINITION_CONTEXT('part definition',#439,'design');
#435=PRODUCT_DEFINITION('renfort_modules','renfort_modules v6',#436,#434);
#436=PRODUCT_DEFINITION_FORMATION('',$,#441);
#437=PRODUCT_RELATED_PRODUCT_CATEGORY('renfort_modules v6',
'renfort_modules v6',(#441));
#438=APPLICATION_PROTOCOL_DEFINITION('international standard',
'automotive_design',2009,#439);
#439=APPLICATION_CONTEXT(
'Core Data for Automotive Mechanical Design Process');
#440=PRODUCT_CONTEXT('part definition',#439,'mechanical');
#441=PRODUCT('renfort_modules','renfort_modules v6',$,(#440));
#442=PRESENTATION_STYLE_ASSIGNMENT((#443));
#443=SURFACE_STYLE_USAGE(.BOTH.,#444);
#444=SURFACE_SIDE_STYLE('',(#445));
#445=SURFACE_STYLE_FILL_AREA(#446);
#446=FILL_AREA_STYLE('Steel - Satin',(#447));
#447=FILL_AREA_STYLE_COLOUR('Steel - Satin',#448);
#448=COLOUR_RGB('Steel - Satin',0.627450980392157,0.627450980392157,0.627450980392157);
ENDSEC;
END-ISO-10303-21;
