ISO-10303-21;
HEADER;
FILE_DESCRIPTION( ( '' ), ' ' );
FILE_NAME( '/vol/tmp/translate-18279890767535620751/5c9b549c4a9872168f090ad7.step', '2019-03-27T10:46:53', ( '' ), ( '' ), ' ', ' ', ' ' );
FILE_SCHEMA( ( 'AUTOMOTIVE_DESIGN { 1 0 10303 214 1 1 1 1 }' ) );
ENDSEC;
DATA;
#1 = MECHANICAL_DESIGN_GEOMETRIC_PRESENTATION_REPRESENTATION( ' ', ( #10, #11, #12, #13, #14, #15, #16, #17 ), #6 );
#2 = PRODUCT_DEFINITION_CONTEXT( '', #18, 'design' );
#3 = APPLICATION_PROTOCOL_DEFINITION( 'international standard', 'automotive_design', 2001, #18 );
#4 = PRODUCT_CATEGORY_RELATIONSHIP( 'NONE', 'NONE', #19, #20 );
#5 = SHAPE_DEFINITION_REPRESENTATION( #21, #22 );
#6 =  ( GEOMETRIC_REPRESENTATION_CONTEXT( 3 )GLOBAL_UNCERTAINTY_ASSIGNED_CONTEXT( ( #25 ) )GLOBAL_UNIT_ASSIGNED_CONTEXT( ( #27, #28, #29 ) )REPRESENTATION_CONTEXT( 'NONE', 'WORKSPACE' ) );
#10 = STYLED_ITEM( '', ( #31 ), #32 );
#11 = STYLED_ITEM( '', ( #33 ), #34 );
#12 = STYLED_ITEM( '', ( #35 ), #36 );
#13 = STYLED_ITEM( '', ( #37 ), #38 );
#14 = STYLED_ITEM( '', ( #39 ), #40 );
#15 = STYLED_ITEM( '', ( #41 ), #42 );
#16 = STYLED_ITEM( '', ( #43 ), #44 );
#17 = STYLED_ITEM( '', ( #45 ), #46 );
#18 = APPLICATION_CONTEXT( 'core data for automotive mechanical design processes' );
#19 = PRODUCT_CATEGORY( 'part', 'NONE' );
#20 = PRODUCT_RELATED_PRODUCT_CATEGORY( 'detail', ' ', ( #47 ) );
#21 = PRODUCT_DEFINITION_SHAPE( 'NONE', 'NONE', #48 );
#22 = ADVANCED_BREP_SHAPE_REPRESENTATION( 'MT04.0100.0011', ( #49, #50 ), #6 );
#25 = UNCERTAINTY_MEASURE_WITH_UNIT( LENGTH_MEASURE( 1.00000000000000E-06 ), #27, '', '' );
#27 =  ( CONVERSION_BASED_UNIT( 'METRE', #53 )LENGTH_UNIT(  )NAMED_UNIT( #56 ) );
#28 =  ( NAMED_UNIT( #58 )PLANE_ANGLE_UNIT(  )SI_UNIT( $, .RADIAN. ) );
#29 =  ( NAMED_UNIT( #58 )SI_UNIT( $, .STERADIAN. )SOLID_ANGLE_UNIT(  ) );
#31 = PRESENTATION_STYLE_ASSIGNMENT( ( #64 ) );
#32 = ADVANCED_FACE( '', ( #65 ), #66, .T. );
#33 = PRESENTATION_STYLE_ASSIGNMENT( ( #67 ) );
#34 = ADVANCED_FACE( '', ( #68 ), #69, .T. );
#35 = PRESENTATION_STYLE_ASSIGNMENT( ( #70 ) );
#36 = ADVANCED_FACE( '', ( #71 ), #72, .F. );
#37 = PRESENTATION_STYLE_ASSIGNMENT( ( #73 ) );
#38 = ADVANCED_FACE( '', ( #74 ), #75, .F. );
#39 = PRESENTATION_STYLE_ASSIGNMENT( ( #76 ) );
#40 = ADVANCED_FACE( '', ( #77 ), #78, .F. );
#41 = PRESENTATION_STYLE_ASSIGNMENT( ( #79 ) );
#42 = ADVANCED_FACE( '', ( #80 ), #81, .T. );
#43 = PRESENTATION_STYLE_ASSIGNMENT( ( #82 ) );
#44 = ADVANCED_FACE( '', ( #83 ), #84, .T. );
#45 = PRESENTATION_STYLE_ASSIGNMENT( ( #85 ) );
#46 = ADVANCED_FACE( '', ( #86 ), #87, .F. );
#47 = PRODUCT( 'MT04.0100.0011', 'MT04.0100.0011', 'PART-MT04.0100.0011-DESC', ( #88 ) );
#48 = PRODUCT_DEFINITION( 'NONE', 'NONE', #89, #2 );
#49 = MANIFOLD_SOLID_BREP( 'MT04.0100.0011', #90 );
#50 = AXIS2_PLACEMENT_3D( '', #91, #92, #93 );
#53 = LENGTH_MEASURE_WITH_UNIT( LENGTH_MEASURE( 1.00000000000000 ), #94 );
#56 = DIMENSIONAL_EXPONENTS( 1.00000000000000, 0.00000000000000, 0.00000000000000, 0.00000000000000, 0.00000000000000, 0.00000000000000, 0.00000000000000 );
#58 = DIMENSIONAL_EXPONENTS( 0.00000000000000, 0.00000000000000, 0.00000000000000, 0.00000000000000, 0.00000000000000, 0.00000000000000, 0.00000000000000 );
#64 = SURFACE_STYLE_USAGE( .BOTH., #95 );
#65 = FACE_OUTER_BOUND( '', #96, .T. );
#66 = PLANE( '', #97 );
#67 = SURFACE_STYLE_USAGE( .BOTH., #98 );
#68 = FACE_OUTER_BOUND( '', #99, .T. );
#69 = PLANE( '', #100 );
#70 = SURFACE_STYLE_USAGE( .BOTH., #101 );
#71 = FACE_OUTER_BOUND( '', #102, .T. );
#72 = PLANE( '', #103 );
#73 = SURFACE_STYLE_USAGE( .BOTH., #104 );
#74 = FACE_OUTER_BOUND( '', #105, .T. );
#75 = CYLINDRICAL_SURFACE( '', #106, 0.00500000000000000 );
#76 = SURFACE_STYLE_USAGE( .BOTH., #107 );
#77 = FACE_OUTER_BOUND( '', #108, .T. );
#78 = PLANE( '', #109 );
#79 = SURFACE_STYLE_USAGE( .BOTH., #110 );
#80 = FACE_OUTER_BOUND( '', #111, .T. );
#81 = PLANE( '', #112 );
#82 = SURFACE_STYLE_USAGE( .BOTH., #113 );
#83 = FACE_OUTER_BOUND( '', #114, .T. );
#84 = PLANE( '', #115 );
#85 = SURFACE_STYLE_USAGE( .BOTH., #116 );
#86 = FACE_OUTER_BOUND( '', #117, .T. );
#87 = PLANE( '', #118 );
#88 = PRODUCT_CONTEXT( '', #18, 'mechanical' );
#89 = PRODUCT_DEFINITION_FORMATION_WITH_SPECIFIED_SOURCE( ' ', 'NONE', #47, .NOT_KNOWN. );
#90 = CLOSED_SHELL( '', ( #34, #46, #32, #42, #36, #40, #44, #38 ) );
#91 = CARTESIAN_POINT( '', ( 0.00000000000000, 0.00000000000000, 0.00000000000000 ) );
#92 = DIRECTION( '', ( 0.00000000000000, 0.00000000000000, 1.00000000000000 ) );
#93 = DIRECTION( '', ( 1.00000000000000, 0.00000000000000, 0.00000000000000 ) );
#94 =  ( LENGTH_UNIT(  )NAMED_UNIT( #56 )SI_UNIT( $, .METRE. ) );
#95 = SURFACE_SIDE_STYLE( '', ( #120 ) );
#96 = EDGE_LOOP( '', ( #121, #122, #123, #124 ) );
#97 = AXIS2_PLACEMENT_3D( '', #125, #126, #127 );
#98 = SURFACE_SIDE_STYLE( '', ( #128 ) );
#99 = EDGE_LOOP( '', ( #129, #130, #131, #132, #133, #134 ) );
#100 = AXIS2_PLACEMENT_3D( '', #135, #136, #137 );
#101 = SURFACE_SIDE_STYLE( '', ( #138 ) );
#102 = EDGE_LOOP( '', ( #139, #140, #141, #142 ) );
#103 = AXIS2_PLACEMENT_3D( '', #143, #144, #145 );
#104 = SURFACE_SIDE_STYLE( '', ( #146 ) );
#105 = EDGE_LOOP( '', ( #147, #148, #149, #150 ) );
#106 = AXIS2_PLACEMENT_3D( '', #151, #152, #153 );
#107 = SURFACE_SIDE_STYLE( '', ( #154 ) );
#108 = EDGE_LOOP( '', ( #155, #156, #157, #158 ) );
#109 = AXIS2_PLACEMENT_3D( '', #159, #160, #161 );
#110 = SURFACE_SIDE_STYLE( '', ( #162 ) );
#111 = EDGE_LOOP( '', ( #163, #164, #165, #166 ) );
#112 = AXIS2_PLACEMENT_3D( '', #167, #168, #169 );
#113 = SURFACE_SIDE_STYLE( '', ( #170 ) );
#114 = EDGE_LOOP( '', ( #171, #172, #173, #174 ) );
#115 = AXIS2_PLACEMENT_3D( '', #175, #176, #177 );
#116 = SURFACE_SIDE_STYLE( '', ( #178 ) );
#117 = EDGE_LOOP( '', ( #179, #180, #181, #182, #183, #184 ) );
#118 = AXIS2_PLACEMENT_3D( '', #185, #186, #187 );
#120 = SURFACE_STYLE_FILL_AREA( #188 );
#121 = ORIENTED_EDGE( '', *, *, #189, .F. );
#122 = ORIENTED_EDGE( '', *, *, #190, .F. );
#123 = ORIENTED_EDGE( '', *, *, #191, .T. );
#124 = ORIENTED_EDGE( '', *, *, #192, .T. );
#125 = CARTESIAN_POINT( '', ( 0.0157500000000000, -0.0110000000000000, 0.0252000000000000 ) );
#126 = DIRECTION( '', ( 0.00000000000000, 0.00000000000000, -1.00000000000000 ) );
#127 = DIRECTION( '', ( -1.00000000000000, 0.00000000000000, 0.00000000000000 ) );
#128 = SURFACE_STYLE_FILL_AREA( #193 );
#129 = ORIENTED_EDGE( '', *, *, #194, .F. );
#130 = ORIENTED_EDGE( '', *, *, #195, .T. );
#131 = ORIENTED_EDGE( '', *, *, #196, .T. );
#132 = ORIENTED_EDGE( '', *, *, #197, .F. );
#133 = ORIENTED_EDGE( '', *, *, #198, .F. );
#134 = ORIENTED_EDGE( '', *, *, #189, .T. );
#135 = CARTESIAN_POINT( '', ( 0.0457500000000000, -6.93889390390723E-18, 0.0224500000000000 ) );
#136 = DIRECTION( '', ( 1.00000000000000, 0.00000000000000, 0.00000000000000 ) );
#137 = DIRECTION( '', ( 0.00000000000000, 1.00000000000000, 0.00000000000000 ) );
#138 = SURFACE_STYLE_FILL_AREA( #199 );
#139 = ORIENTED_EDGE( '', *, *, #197, .T. );
#140 = ORIENTED_EDGE( '', *, *, #200, .F. );
#141 = ORIENTED_EDGE( '', *, *, #201, .F. );
#142 = ORIENTED_EDGE( '', *, *, #202, .T. );
#143 = CARTESIAN_POINT( '', ( 0.0157500000000000, -6.93889390390723E-18, 0.0452000000000000 ) );
#144 = DIRECTION( '', ( 0.00000000000000, 0.00000000000000, -1.00000000000000 ) );
#145 = DIRECTION( '', ( -1.00000000000000, 0.00000000000000, 0.00000000000000 ) );
#146 = SURFACE_STYLE_FILL_AREA( #203 );
#147 = ORIENTED_EDGE( '', *, *, #194, .T. );
#148 = ORIENTED_EDGE( '', *, *, #192, .F. );
#149 = ORIENTED_EDGE( '', *, *, #204, .F. );
#150 = ORIENTED_EDGE( '', *, *, #205, .T. );
#151 = CARTESIAN_POINT( '', ( 0.0157500000000000, -8.67361737988404E-19, 0.0232000000000000 ) );
#152 = DIRECTION( '', ( -1.00000000000000, -0.00000000000000, -0.00000000000000 ) );
#153 = DIRECTION( '', ( 0.00000000000000, 0.00000000000000, -1.00000000000000 ) );
#154 = SURFACE_STYLE_FILL_AREA( #206 );
#155 = ORIENTED_EDGE( '', *, *, #198, .T. );
#156 = ORIENTED_EDGE( '', *, *, #202, .F. );
#157 = ORIENTED_EDGE( '', *, *, #207, .F. );
#158 = ORIENTED_EDGE( '', *, *, #190, .T. );
#159 = CARTESIAN_POINT( '', ( 0.0157500000000000, -0.0200000000000000, 0.0352000000000000 ) );
#160 = DIRECTION( '', ( 0.00000000000000, 1.00000000000000, 0.00000000000000 ) );
#161 = DIRECTION( '', ( 0.00000000000000, 0.00000000000000, 1.00000000000000 ) );
#162 = SURFACE_STYLE_FILL_AREA( #208 );
#163 = ORIENTED_EDGE( '', *, *, #195, .F. );
#164 = ORIENTED_EDGE( '', *, *, #205, .F. );
#165 = ORIENTED_EDGE( '', *, *, #209, .T. );
#166 = ORIENTED_EDGE( '', *, *, #210, .T. );
#167 = CARTESIAN_POINT( '', ( 0.0157500000000000, 0.0122912878474779, 0.0252000000000000 ) );
#168 = DIRECTION( '', ( 0.00000000000000, 0.00000000000000, -1.00000000000000 ) );
#169 = DIRECTION( '', ( -1.00000000000000, 0.00000000000000, 0.00000000000000 ) );
#170 = SURFACE_STYLE_FILL_AREA( #211 );
#171 = ORIENTED_EDGE( '', *, *, #196, .F. );
#172 = ORIENTED_EDGE( '', *, *, #210, .F. );
#173 = ORIENTED_EDGE( '', *, *, #212, .T. );
#174 = ORIENTED_EDGE( '', *, *, #200, .T. );
#175 = CARTESIAN_POINT( '', ( 0.0157500000000000, 0.0200000000000000, 0.0352000000000000 ) );
#176 = DIRECTION( '', ( 0.00000000000000, 1.00000000000000, 1.73472347597681E-16 ) );
#177 = DIRECTION( '', ( 0.00000000000000, -1.73472347597681E-16, 1.00000000000000 ) );
#178 = SURFACE_STYLE_FILL_AREA( #213 );
#179 = ORIENTED_EDGE( '', *, *, #204, .T. );
#180 = ORIENTED_EDGE( '', *, *, #191, .F. );
#181 = ORIENTED_EDGE( '', *, *, #207, .T. );
#182 = ORIENTED_EDGE( '', *, *, #201, .T. );
#183 = ORIENTED_EDGE( '', *, *, #212, .F. );
#184 = ORIENTED_EDGE( '', *, *, #209, .F. );
#185 = CARTESIAN_POINT( '', ( 0.0157500000000000, -6.93889390390723E-18, 0.0224500000000000 ) );
#186 = DIRECTION( '', ( 1.00000000000000, 0.00000000000000, 0.00000000000000 ) );
#187 = DIRECTION( '', ( 0.00000000000000, 1.00000000000000, 0.00000000000000 ) );
#188 = FILL_AREA_STYLE( '', ( #214 ) );
#189 = EDGE_CURVE( '', #215, #216, #217, .T. );
#190 = EDGE_CURVE( '', #218, #215, #219, .T. );
#191 = EDGE_CURVE( '', #218, #220, #221, .T. );
#192 = EDGE_CURVE( '', #220, #216, #222, .T. );
#193 = FILL_AREA_STYLE( '', ( #223 ) );
#194 = EDGE_CURVE( '', #224, #216, #225, .T. );
#195 = EDGE_CURVE( '', #224, #226, #227, .T. );
#196 = EDGE_CURVE( '', #226, #228, #229, .T. );
#197 = EDGE_CURVE( '', #230, #228, #231, .T. );
#198 = EDGE_CURVE( '', #215, #230, #232, .T. );
#199 = FILL_AREA_STYLE( '', ( #233 ) );
#200 = EDGE_CURVE( '', #234, #228, #235, .T. );
#201 = EDGE_CURVE( '', #236, #234, #237, .T. );
#202 = EDGE_CURVE( '', #236, #230, #238, .T. );
#203 = FILL_AREA_STYLE( '', ( #239 ) );
#204 = EDGE_CURVE( '', #240, #220, #241, .T. );
#205 = EDGE_CURVE( '', #240, #224, #242, .T. );
#206 = FILL_AREA_STYLE( '', ( #243 ) );
#207 = EDGE_CURVE( '', #218, #236, #244, .T. );
#208 = FILL_AREA_STYLE( '', ( #245 ) );
#209 = EDGE_CURVE( '', #240, #246, #247, .T. );
#210 = EDGE_CURVE( '', #246, #226, #248, .T. );
#211 = FILL_AREA_STYLE( '', ( #249 ) );
#212 = EDGE_CURVE( '', #246, #234, #250, .T. );
#213 = FILL_AREA_STYLE( '', ( #251 ) );
#214 = FILL_AREA_STYLE_COLOUR( '', #252 );
#215 = VERTEX_POINT( '', #253 );
#216 = VERTEX_POINT( '', #254 );
#217 = LINE( '', #255, #256 );
#218 = VERTEX_POINT( '', #257 );
#219 = LINE( '', #258, #259 );
#220 = VERTEX_POINT( '', #260 );
#221 = LINE( '', #261, #262 );
#222 = LINE( '', #263, #264 );
#223 = FILL_AREA_STYLE_COLOUR( '', #265 );
#224 = VERTEX_POINT( '', #266 );
#225 = CIRCLE( '', #267, 0.00500000000000000 );
#226 = VERTEX_POINT( '', #268 );
#227 = LINE( '', #269, #270 );
#228 = VERTEX_POINT( '', #271 );
#229 = LINE( '', #272, #273 );
#230 = VERTEX_POINT( '', #274 );
#231 = LINE( '', #275, #276 );
#232 = LINE( '', #277, #278 );
#233 = FILL_AREA_STYLE_COLOUR( '', #279 );
#234 = VERTEX_POINT( '', #280 );
#235 = LINE( '', #281, #282 );
#236 = VERTEX_POINT( '', #283 );
#237 = LINE( '', #284, #285 );
#238 = LINE( '', #286, #287 );
#239 = FILL_AREA_STYLE_COLOUR( '', #288 );
#240 = VERTEX_POINT( '', #289 );
#241 = CIRCLE( '', #290, 0.00500000000000000 );
#242 = LINE( '', #291, #292 );
#243 = FILL_AREA_STYLE_COLOUR( '', #293 );
#244 = LINE( '', #294, #295 );
#245 = FILL_AREA_STYLE_COLOUR( '', #296 );
#246 = VERTEX_POINT( '', #297 );
#247 = LINE( '', #298, #299 );
#248 = LINE( '', #300, #301 );
#249 = FILL_AREA_STYLE_COLOUR( '', #302 );
#250 = LINE( '', #303, #304 );
#251 = FILL_AREA_STYLE_COLOUR( '', #305 );
#252 = COLOUR_RGB( '', 1.00000000000000, 0.756862759600000, 0.0549019612000000 );
#253 = CARTESIAN_POINT( '', ( 0.0457500000000000, -0.0200000000000000, 0.0252000000000000 ) );
#254 = CARTESIAN_POINT( '', ( 0.0457500000000000, -0.00458257569495584, 0.0252000000000000 ) );
#255 = CARTESIAN_POINT( '', ( 0.0457500000000000, -0.0110000000000000, 0.0252000000000000 ) );
#256 = VECTOR( '', #306, 1.00000000000000 );
#257 = CARTESIAN_POINT( '', ( 0.0157500000000000, -0.0200000000000000, 0.0252000000000000 ) );
#258 = CARTESIAN_POINT( '', ( 0.0157500000000000, -0.0200000000000000, 0.0252000000000000 ) );
#259 = VECTOR( '', #307, 1.00000000000000 );
#260 = CARTESIAN_POINT( '', ( 0.0157500000000000, -0.00458257569495584, 0.0252000000000000 ) );
#261 = CARTESIAN_POINT( '', ( 0.0157500000000000, -0.0110000000000000, 0.0252000000000000 ) );
#262 = VECTOR( '', #308, 1.00000000000000 );
#263 = CARTESIAN_POINT( '', ( 0.0157500000000000, -0.00458257569495584, 0.0252000000000000 ) );
#264 = VECTOR( '', #309, 1.00000000000000 );
#265 = COLOUR_RGB( '', 1.00000000000000, 0.756862759600000, 0.0549019612000000 );
#266 = CARTESIAN_POINT( '', ( 0.0457500000000000, 0.00458257569495584, 0.0252000000000000 ) );
#267 = AXIS2_PLACEMENT_3D( '', #310, #311, #312 );
#268 = CARTESIAN_POINT( '', ( 0.0457500000000000, 0.0200000000000000, 0.0252000000000000 ) );
#269 = CARTESIAN_POINT( '', ( 0.0457500000000000, 0.0122912878474779, 0.0252000000000000 ) );
#270 = VECTOR( '', #313, 1.00000000000000 );
#271 = CARTESIAN_POINT( '', ( 0.0457500000000000, 0.0200000000000000, 0.0452000000000000 ) );
#272 = CARTESIAN_POINT( '', ( 0.0457500000000000, 0.0200000000000000, 0.0352000000000000 ) );
#273 = VECTOR( '', #314, 1.00000000000000 );
#274 = CARTESIAN_POINT( '', ( 0.0457500000000000, -0.0200000000000000, 0.0452000000000000 ) );
#275 = CARTESIAN_POINT( '', ( 0.0457500000000000, -6.93889390390723E-18, 0.0452000000000000 ) );
#276 = VECTOR( '', #315, 1.00000000000000 );
#277 = CARTESIAN_POINT( '', ( 0.0457500000000000, -0.0200000000000000, 0.0352000000000000 ) );
#278 = VECTOR( '', #316, 1.00000000000000 );
#279 = COLOUR_RGB( '', 1.00000000000000, 0.756862759600000, 0.0549019612000000 );
#280 = CARTESIAN_POINT( '', ( 0.0157500000000000, 0.0200000000000000, 0.0452000000000000 ) );
#281 = CARTESIAN_POINT( '', ( 0.0157500000000000, 0.0200000000000000, 0.0452000000000000 ) );
#282 = VECTOR( '', #317, 1.00000000000000 );
#283 = CARTESIAN_POINT( '', ( 0.0157500000000000, -0.0200000000000000, 0.0452000000000000 ) );
#284 = CARTESIAN_POINT( '', ( 0.0157500000000000, -6.93889390390723E-18, 0.0452000000000000 ) );
#285 = VECTOR( '', #318, 1.00000000000000 );
#286 = CARTESIAN_POINT( '', ( 0.0157500000000000, -0.0200000000000000, 0.0452000000000000 ) );
#287 = VECTOR( '', #319, 1.00000000000000 );
#288 = COLOUR_RGB( '', 1.00000000000000, 0.756862759600000, 0.0549019612000000 );
#289 = CARTESIAN_POINT( '', ( 0.0157500000000000, 0.00458257569495584, 0.0252000000000000 ) );
#290 = AXIS2_PLACEMENT_3D( '', #320, #321, #322 );
#291 = CARTESIAN_POINT( '', ( 0.0157500000000000, 0.00458257569495584, 0.0252000000000000 ) );
#292 = VECTOR( '', #323, 1.00000000000000 );
#293 = COLOUR_RGB( '', 1.00000000000000, 0.756862759600000, 0.0549019612000000 );
#294 = CARTESIAN_POINT( '', ( 0.0157500000000000, -0.0200000000000000, 0.0352000000000000 ) );
#295 = VECTOR( '', #324, 1.00000000000000 );
#296 = COLOUR_RGB( '', 1.00000000000000, 0.756862759600000, 0.0549019612000000 );
#297 = CARTESIAN_POINT( '', ( 0.0157500000000000, 0.0200000000000000, 0.0252000000000000 ) );
#298 = CARTESIAN_POINT( '', ( 0.0157500000000000, 0.0122912878474779, 0.0252000000000000 ) );
#299 = VECTOR( '', #325, 1.00000000000000 );
#300 = CARTESIAN_POINT( '', ( 0.0157500000000000, 0.0200000000000000, 0.0252000000000000 ) );
#301 = VECTOR( '', #326, 1.00000000000000 );
#302 = COLOUR_RGB( '', 1.00000000000000, 0.756862759600000, 0.0549019612000000 );
#303 = CARTESIAN_POINT( '', ( 0.0157500000000000, 0.0200000000000000, 0.0352000000000000 ) );
#304 = VECTOR( '', #327, 1.00000000000000 );
#305 = COLOUR_RGB( '', 1.00000000000000, 0.756862759600000, 0.0549019612000000 );
#306 = DIRECTION( '', ( 0.00000000000000, 1.00000000000000, 0.00000000000000 ) );
#307 = DIRECTION( '', ( 1.00000000000000, 0.00000000000000, 0.00000000000000 ) );
#308 = DIRECTION( '', ( 0.00000000000000, 1.00000000000000, 0.00000000000000 ) );
#309 = DIRECTION( '', ( 1.00000000000000, 0.00000000000000, 0.00000000000000 ) );
#310 = CARTESIAN_POINT( '', ( 0.0457500000000000, -8.67361737988404E-19, 0.0232000000000000 ) );
#311 = DIRECTION( '', ( 1.00000000000000, 0.00000000000000, 0.00000000000000 ) );
#312 = DIRECTION( '', ( 0.00000000000000, 0.00000000000000, -1.00000000000000 ) );
#313 = DIRECTION( '', ( 0.00000000000000, 1.00000000000000, 0.00000000000000 ) );
#314 = DIRECTION( '', ( 0.00000000000000, -1.73472347597681E-16, 1.00000000000000 ) );
#315 = DIRECTION( '', ( 0.00000000000000, 1.00000000000000, 0.00000000000000 ) );
#316 = DIRECTION( '', ( 0.00000000000000, 0.00000000000000, 1.00000000000000 ) );
#317 = DIRECTION( '', ( 1.00000000000000, 0.00000000000000, 0.00000000000000 ) );
#318 = DIRECTION( '', ( 0.00000000000000, 1.00000000000000, 0.00000000000000 ) );
#319 = DIRECTION( '', ( 1.00000000000000, 0.00000000000000, 0.00000000000000 ) );
#320 = CARTESIAN_POINT( '', ( 0.0157500000000000, -8.67361737988404E-19, 0.0232000000000000 ) );
#321 = DIRECTION( '', ( 1.00000000000000, 0.00000000000000, 0.00000000000000 ) );
#322 = DIRECTION( '', ( 0.00000000000000, 0.00000000000000, -1.00000000000000 ) );
#323 = DIRECTION( '', ( 1.00000000000000, 0.00000000000000, 0.00000000000000 ) );
#324 = DIRECTION( '', ( 0.00000000000000, 0.00000000000000, 1.00000000000000 ) );
#325 = DIRECTION( '', ( 0.00000000000000, 1.00000000000000, 0.00000000000000 ) );
#326 = DIRECTION( '', ( 1.00000000000000, 0.00000000000000, 0.00000000000000 ) );
#327 = DIRECTION( '', ( 0.00000000000000, -1.73472347597681E-16, 1.00000000000000 ) );
ENDSEC;
END-ISO-10303-21;
