ISO-10303-21;
HEADER;
FILE_DESCRIPTION (( 'STEP AP214' ),
    '1' );
FILE_NAME ('7202-8-019.STEP',
    '2019-03-27T17:06:15',
    ( '' ),
    ( '' ),
    'SwSTEP 2.0',
    'SolidWorks 2018',
    '' );
FILE_SCHEMA (( 'AUTOMOTIVE_DESIGN' ));
ENDSEC;

DATA;
#1 = MANIFOLD_SOLID_BREP ( 'Linear austragen1', #137 ) ;
#2 = VERTEX_POINT ( 'NONE', #73 ) ;
#3 = CIRCLE ( 'NONE', #63, 10.00000000000000000 ) ;
#4 = MECHANICAL_DESIGN_GEOMETRIC_PRESENTATION_REPRESENTATION (  '', ( #85 ), #34 ) ;
#5 = ORIENTED_EDGE ( 'NONE', *, *, #143, .T. ) ;
#6 = EDGE_CURVE ( 'NONE', #214, #62, #57, .T. ) ;
#7 = FACE_BOUND ( 'NONE', #151, .T. ) ;
#8 = ADVANCED_FACE ( 'NONE', ( #96, #7 ), #31, .F. ) ;
#9 = CIRCLE ( 'NONE', #205, 10.00000000000000000 ) ;
#10 = SURFACE_STYLE_USAGE ( .BOTH. , #64 ) ;
#11 =( LENGTH_UNIT ( ) NAMED_UNIT ( * ) SI_UNIT ( .MILLI., .METRE. ) );
#12 =( NAMED_UNIT ( * ) PLANE_ANGLE_UNIT ( ) SI_UNIT ( $, .RADIAN. ) );
#13 =( LENGTH_UNIT ( ) NAMED_UNIT ( * ) SI_UNIT ( .MILLI., .METRE. ) );
#14 = SURFACE_STYLE_USAGE ( .BOTH. , #161 ) ;
#15 = ADVANCED_FACE ( 'NONE', ( #65 ), #138, .F. ) ;
#16 = LINE ( 'NONE', #87, #58 ) ;
#17 =( NAMED_UNIT ( * ) PLANE_ANGLE_UNIT ( ) SI_UNIT ( $, .RADIAN. ) );
#18 =( NAMED_UNIT ( * ) SI_UNIT ( $, .STERADIAN. ) SOLID_ANGLE_UNIT ( ) );
#19 =( GEOMETRIC_REPRESENTATION_CONTEXT ( 3 ) GLOBAL_UNCERTAINTY_ASSIGNED_CONTEXT ( ( #95 ) ) GLOBAL_UNIT_ASSIGNED_CONTEXT ( ( #13, #17, #21 ) ) REPRESENTATION_CONTEXT ( 'NONE', 'WORKASPACE' ) );
#20 = ADVANCED_FACE ( 'NONE', ( #158 ), #33, .T. ) ;
#21 =( NAMED_UNIT ( * ) SI_UNIT ( $, .STERADIAN. ) SOLID_ANGLE_UNIT ( ) );
#22 =( LENGTH_UNIT ( ) NAMED_UNIT ( * ) SI_UNIT ( .MILLI., .METRE. ) );
#23 =( NAMED_UNIT ( * ) PLANE_ANGLE_UNIT ( ) SI_UNIT ( $, .RADIAN. ) );
#24 = ADVANCED_FACE ( 'NONE', ( #197 ), #126, .T. ) ;
#25 = DIRECTION ( 'NONE',  ( -0.0000000000000000000, -0.0000000000000000000, -1.000000000000000000 ) ) ;
#26 = ADVANCED_FACE ( 'NONE', ( #179 ), #141, .F. ) ;
#27 = CARTESIAN_POINT ( 'NONE',  ( 0.0000000000000000000, 0.0000000000000000000, 2.000000000000000000 ) ) ;
#28 = DIRECTION ( 'NONE',  ( -1.000000000000000000, 0.0000000000000000000, 0.0000000000000000000 ) ) ;
#29 = DIRECTION ( 'NONE',  ( 0.0000000000000000000, 0.0000000000000000000, 1.000000000000000000 ) ) ;
#30 = PRODUCT_DEFINITION ( 'UNKNOWN', '', #52, #157 ) ;
#31 = PLANE ( 'NONE',  #92 ) ;
#32 = CIRCLE ( 'NONE', #172, 7.050000000000000711 ) ;
#33 = CYLINDRICAL_SURFACE ( 'NONE', #191, 10.00000000000000000 ) ;
#34 =( GEOMETRIC_REPRESENTATION_CONTEXT ( 3 ) GLOBAL_UNCERTAINTY_ASSIGNED_CONTEXT ( ( #91 ) ) GLOBAL_UNIT_ASSIGNED_CONTEXT ( ( #22, #23, #42 ) ) REPRESENTATION_CONTEXT ( 'NONE', 'WORKASPACE' ) );
#35 = ADVANCED_FACE ( 'NONE', ( #84, #155 ), #102, .T. ) ;
#36 = EDGE_CURVE ( 'NONE', #163, #156, #145, .T. ) ;
#37 = ORIENTED_EDGE ( 'NONE', *, *, #6, .T. ) ;
#38 = PRESENTATION_LAYER_ASSIGNMENT (  '', '', ( #203 ) ) ;
#39 = EDGE_LOOP ( 'NONE', ( #97, #81, #112, #152 ) ) ;
#40 = DIRECTION ( 'NONE',  ( 1.000000000000000000, 0.0000000000000000000, 0.0000000000000000000 ) ) ;
#41 = DIRECTION ( 'NONE',  ( 0.0000000000000000000, 0.0000000000000000000, 1.000000000000000000 ) ) ;
#42 =( NAMED_UNIT ( * ) SI_UNIT ( $, .STERADIAN. ) SOLID_ANGLE_UNIT ( ) );
#43 = LINE ( 'NONE', #86, #79 ) ;
#44 = DIRECTION ( 'NONE',  ( 1.000000000000000000, 0.0000000000000000000, -0.0000000000000000000 ) ) ;
#45 = CARTESIAN_POINT ( 'NONE',  ( 0.0000000000000000000, 0.0000000000000000000, 2.000000000000000000 ) ) ;
#46 = EDGE_LOOP ( 'NONE', ( #135, #123, #154, #61 ) ) ;
#47 = CARTESIAN_POINT ( 'NONE',  ( 0.0000000000000000000, 0.0000000000000000000, 0.0000000000000000000 ) ) ;
#48 = DIRECTION ( 'NONE',  ( -1.000000000000000000, 0.0000000000000000000, 0.0000000000000000000 ) ) ;
#49 = VERTEX_POINT ( 'NONE', #109 ) ;
#50 = AXIS2_PLACEMENT_3D ( 'NONE', #106, #114, #105 ) ;
#51 = DIRECTION ( 'NONE',  ( -0.0000000000000000000, -0.0000000000000000000, -1.000000000000000000 ) ) ;
#52 = PRODUCT_DEFINITION_FORMATION_WITH_SPECIFIED_SOURCE ( 'ANY', '', #108, .NOT_KNOWN. ) ;
#53 = CARTESIAN_POINT ( 'NONE',  ( 0.0000000000000000000, 0.0000000000000000000, 2.000000000000000000 ) ) ;
#54 = DIRECTION ( 'NONE',  ( -1.000000000000000000, 0.0000000000000000000, 0.0000000000000000000 ) ) ;
#55 = DIRECTION ( 'NONE',  ( -0.0000000000000000000, -0.0000000000000000000, -1.000000000000000000 ) ) ;
#56 = CARTESIAN_POINT ( 'NONE',  ( 0.0000000000000000000, 0.0000000000000000000, 2.000000000000000000 ) ) ;
#57 = CIRCLE ( 'NONE', #117, 10.00000000000000000 ) ;
#58 = VECTOR ( 'NONE', #116, 1000.000000000000000 ) ;
#59 = DIRECTION ( 'NONE',  ( 0.0000000000000000000, 0.0000000000000000000, 1.000000000000000000 ) ) ;
#60 = MECHANICAL_DESIGN_GEOMETRIC_PRESENTATION_REPRESENTATION (  '', ( #203 ), #19 ) ;
#61 = ORIENTED_EDGE ( 'NONE', *, *, #213, .F. ) ;
#62 = VERTEX_POINT ( 'NONE', #166 ) ;
#63 = AXIS2_PLACEMENT_3D ( 'NONE', #132, #167, #177 ) ;
#64 = SURFACE_SIDE_STYLE ('',( #144 ) ) ;
#65 = FACE_OUTER_BOUND ( 'NONE', #46, .T. ) ;
#66 = FILL_AREA_STYLE ('',( #71 ) ) ;
#67 = SHAPE_DEFINITION_REPRESENTATION ( #94, #101 ) ;
#68 = APPLICATION_PROTOCOL_DEFINITION ( 'draft international standard', 'automotive_design', 1998, #192 ) ;
#69 = AXIS2_PLACEMENT_3D ( 'NONE', #47, #149, #180 ) ;
#70 = COLOUR_RGB ( '',0.8980392156862745390, 0.9176470588235293713, 0.9294117647058823817 ) ;
#71 = FILL_AREA_STYLE_COLOUR ( '', #70 ) ;
#72 = CARTESIAN_POINT ( 'NONE',  ( 0.0000000000000000000, 0.0000000000000000000, 2.000000000000000000 ) ) ;
#73 = CARTESIAN_POINT ( 'NONE',  ( -7.050000000000000711, 0.0000000000000000000, 0.0000000000000000000 ) ) ;
#74 = CIRCLE ( 'NONE', #133, 7.050000000000000711 ) ;
#75 = CARTESIAN_POINT ( 'NONE',  ( 0.0000000000000000000, 0.0000000000000000000, 0.0000000000000000000 ) ) ;
#76 = CARTESIAN_POINT ( 'NONE',  ( 7.050000000000000711, 8.633759933988840961E-16, 2.000000000000000000 ) ) ;
#77 = AXIS2_PLACEMENT_3D ( 'NONE', #120, #134, #146 ) ;
#78 = VERTEX_POINT ( 'NONE', #76 ) ;
#79 = VECTOR ( 'NONE', #196, 1000.000000000000000 ) ;
#80 = EDGE_LOOP ( 'NONE', ( #201, #113 ) ) ;
#81 = ORIENTED_EDGE ( 'NONE', *, *, #175, .T. ) ;
#82 = AXIS2_PLACEMENT_3D ( 'NONE', #45, #25, #139 ) ;
#83 = PRODUCT_RELATED_PRODUCT_CATEGORY ( 'part', '', ( #108 ) ) ;
#84 = FACE_OUTER_BOUND ( 'NONE', #178, .T. ) ;
#85 = STYLED_ITEM ( 'NONE', ( #127 ), #101 ) ;
#86 = CARTESIAN_POINT ( 'NONE',  ( 7.050000000000000711, 8.633759933988840961E-16, 2.000000000000000000 ) ) ;
#87 = CARTESIAN_POINT ( 'NONE',  ( -10.00000000000000000, 0.0000000000000000000, 2.000000000000000000 ) ) ;
#88 = ORIENTED_EDGE ( 'NONE', *, *, #153, .F. ) ;
#89 = CIRCLE ( 'NONE', #199, 7.050000000000000711 ) ;
#90 = CARTESIAN_POINT ( 'NONE',  ( 0.0000000000000000000, 0.0000000000000000000, 0.0000000000000000000 ) ) ;
#91 = UNCERTAINTY_MEASURE_WITH_UNIT (LENGTH_MEASURE( 1.000000000000000082E-05 ), #22, 'distance_accuracy_value', 'NONE');
#92 = AXIS2_PLACEMENT_3D ( 'NONE', #100, #41, #44 ) ;
#93 = ORIENTED_EDGE ( 'NONE', *, *, #187, .F. ) ;
#94 = PRODUCT_DEFINITION_SHAPE ( 'NONE', 'NONE',  #30 ) ;
#95 = UNCERTAINTY_MEASURE_WITH_UNIT (LENGTH_MEASURE( 1.000000000000000082E-05 ), #13, 'distance_accuracy_value', 'NONE');
#96 = FACE_OUTER_BOUND ( 'NONE', #80, .T. ) ;
#97 = ORIENTED_EDGE ( 'NONE', *, *, #118, .F. ) ;
#98 = ORIENTED_EDGE ( 'NONE', *, *, #206, .T. ) ;
#99 = FILL_AREA_STYLE_COLOUR ( '', #150 ) ;
#100 = CARTESIAN_POINT ( 'NONE',  ( 0.0000000000000000000, 0.0000000000000000000, 0.0000000000000000000 ) ) ;
#101 = ADVANCED_BREP_SHAPE_REPRESENTATION ( '7202-8-019', ( #1, #184 ), #168 ) ;
#102 = PLANE ( 'NONE',  #50 ) ;
#103 = FILL_AREA_STYLE ('',( #99 ) ) ;
#104 = ORIENTED_EDGE ( 'NONE', *, *, #153, .T. ) ;
#105 = DIRECTION ( 'NONE',  ( 1.000000000000000000, 0.0000000000000000000, -0.0000000000000000000 ) ) ;
#106 = CARTESIAN_POINT ( 'NONE',  ( 0.0000000000000000000, 0.0000000000000000000, 2.000000000000000000 ) ) ;
#107 = DIRECTION ( 'NONE',  ( -0.0000000000000000000, -0.0000000000000000000, -1.000000000000000000 ) ) ;
#108 = PRODUCT ( '7202-8-019', '7202-8-019', '', ( #188 ) ) ;
#109 = CARTESIAN_POINT ( 'NONE',  ( 7.050000000000000711, 8.633759933988840961E-16, 0.0000000000000000000 ) ) ;
#110 = EDGE_LOOP ( 'NONE', ( #183, #186, #104, #119 ) ) ;
#111 = VECTOR ( 'NONE', #107, 1000.000000000000000 ) ;
#112 = ORIENTED_EDGE ( 'NONE', *, *, #213, .T. ) ;
#113 = ORIENTED_EDGE ( 'NONE', *, *, #206, .F. ) ;
#114 = DIRECTION ( 'NONE',  ( 0.0000000000000000000, 0.0000000000000000000, 1.000000000000000000 ) ) ;
#115 = DIRECTION ( 'NONE',  ( 0.0000000000000000000, 0.0000000000000000000, 1.000000000000000000 ) ) ;
#116 = DIRECTION ( 'NONE',  ( -0.0000000000000000000, -0.0000000000000000000, -1.000000000000000000 ) ) ;
#117 = AXIS2_PLACEMENT_3D ( 'NONE', #27, #29, #40 ) ;
#118 = EDGE_CURVE ( 'NONE', #78, #49, #43, .T. ) ;
#119 = ORIENTED_EDGE ( 'NONE', *, *, #36, .T. ) ;
#120 = CARTESIAN_POINT ( 'NONE',  ( 0.0000000000000000000, 0.0000000000000000000, 2.000000000000000000 ) ) ;
#121 = CARTESIAN_POINT ( 'NONE',  ( -10.00000000000000000, 0.0000000000000000000, 0.0000000000000000000 ) ) ;
#122 = DIRECTION ( 'NONE',  ( 1.000000000000000000, 0.0000000000000000000, 0.0000000000000000000 ) ) ;
#123 = ORIENTED_EDGE ( 'NONE', *, *, #118, .T. ) ;
#124 = PRESENTATION_LAYER_ASSIGNMENT (  '', '', ( #85 ) ) ;
#125 = ORIENTED_EDGE ( 'NONE', *, *, #169, .T. ) ;
#126 = CYLINDRICAL_SURFACE ( 'NONE', #182, 10.00000000000000000 ) ;
#127 = PRESENTATION_STYLE_ASSIGNMENT (( #14 ) ) ;
#128 = ORIENTED_EDGE ( 'NONE', *, *, #175, .F. ) ;
#129 = CARTESIAN_POINT ( 'NONE',  ( 10.00000000000000000, 1.224646799147353256E-15, 0.0000000000000000000 ) ) ;
#130 = DIRECTION ( 'NONE',  ( 0.0000000000000000000, 0.0000000000000000000, 1.000000000000000000 ) ) ;
#131 = CARTESIAN_POINT ( 'NONE',  ( 0.0000000000000000000, 0.0000000000000000000, 0.0000000000000000000 ) ) ;
#132 = CARTESIAN_POINT ( 'NONE',  ( 0.0000000000000000000, 0.0000000000000000000, 0.0000000000000000000 ) ) ;
#133 = AXIS2_PLACEMENT_3D ( 'NONE', #75, #194, #181 ) ;
#134 = DIRECTION ( 'NONE',  ( 0.0000000000000000000, 0.0000000000000000000, 1.000000000000000000 ) ) ;
#135 = ORIENTED_EDGE ( 'NONE', *, *, #187, .T. ) ;
#136 = EDGE_CURVE ( 'NONE', #49, #2, #89, .T. ) ;
#137 = CLOSED_SHELL ( 'NONE', ( #15, #20, #35, #8, #24, #26 ) ) ;
#138 = CYLINDRICAL_SURFACE ( 'NONE', #82, 7.050000000000000711 ) ;
#139 = DIRECTION ( 'NONE',  ( -1.000000000000000000, 0.0000000000000000000, 0.0000000000000000000 ) ) ;
#140 = ORIENTED_EDGE ( 'NONE', *, *, #143, .F. ) ;
#141 = CYLINDRICAL_SURFACE ( 'NONE', #160, 7.050000000000000711 ) ;
#142 = VERTEX_POINT ( 'NONE', #195 ) ;
#143 = EDGE_CURVE ( 'NONE', #62, #214, #9, .T. ) ;
#144 = SURFACE_STYLE_FILL_AREA ( #66 ) ;
#145 = CIRCLE ( 'NONE', #69, 10.00000000000000000 ) ;
#146 = DIRECTION ( 'NONE',  ( 1.000000000000000000, 0.0000000000000000000, 0.0000000000000000000 ) ) ;
#147 = DIRECTION ( 'NONE',  ( -0.0000000000000000000, -0.0000000000000000000, -1.000000000000000000 ) ) ;
#148 = CARTESIAN_POINT ( 'NONE',  ( 10.00000000000000000, 1.224646799147353256E-15, 2.000000000000000000 ) ) ;
#149 = DIRECTION ( 'NONE',  ( 0.0000000000000000000, 0.0000000000000000000, 1.000000000000000000 ) ) ;
#150 = COLOUR_RGB ( '',0.8980392156862745390, 0.9176470588235293713, 0.9294117647058823817 ) ;
#151 = EDGE_LOOP ( 'NONE', ( #125, #171 ) ) ;
#152 = ORIENTED_EDGE ( 'NONE', *, *, #136, .F. ) ;
#153 = EDGE_CURVE ( 'NONE', #214, #163, #16, .T. ) ;
#154 = ORIENTED_EDGE ( 'NONE', *, *, #169, .F. ) ;
#155 = FACE_BOUND ( 'NONE', #162, .T. ) ;
#156 = VERTEX_POINT ( 'NONE', #129 ) ;
#157 = PRODUCT_DEFINITION_CONTEXT ( 'detailed design', #189, 'design' ) ;
#158 = FACE_OUTER_BOUND ( 'NONE', #193, .T. ) ;
#159 = DIRECTION ( 'NONE',  ( 1.000000000000000000, 0.0000000000000000000, 0.0000000000000000000 ) ) ;
#160 = AXIS2_PLACEMENT_3D ( 'NONE', #176, #51, #28 ) ;
#161 = SURFACE_SIDE_STYLE ('',( #173 ) ) ;
#162 = EDGE_LOOP ( 'NONE', ( #93, #128 ) ) ;
#163 = VERTEX_POINT ( 'NONE', #121 ) ;
#164 = CARTESIAN_POINT ( 'NONE',  ( -7.050000000000000711, 0.0000000000000000000, 2.000000000000000000 ) ) ;
#165 = CARTESIAN_POINT ( 'NONE',  ( -10.00000000000000000, 0.0000000000000000000, 2.000000000000000000 ) ) ;
#166 = CARTESIAN_POINT ( 'NONE',  ( 10.00000000000000000, 1.224646799147353256E-15, 2.000000000000000000 ) ) ;
#167 = DIRECTION ( 'NONE',  ( 0.0000000000000000000, 0.0000000000000000000, 1.000000000000000000 ) ) ;
#168 =( GEOMETRIC_REPRESENTATION_CONTEXT ( 3 ) GLOBAL_UNCERTAINTY_ASSIGNED_CONTEXT ( ( #174 ) ) GLOBAL_UNIT_ASSIGNED_CONTEXT ( ( #11, #12, #18 ) ) REPRESENTATION_CONTEXT ( 'NONE', 'WORKASPACE' ) );
#169 = EDGE_CURVE ( 'NONE', #2, #49, #74, .T. ) ;
#170 = LINE ( 'NONE', #164, #209 ) ;
#171 = ORIENTED_EDGE ( 'NONE', *, *, #136, .T. ) ;
#172 = AXIS2_PLACEMENT_3D ( 'NONE', #210, #208, #212 ) ;
#173 = SURFACE_STYLE_FILL_AREA ( #103 ) ;
#174 = UNCERTAINTY_MEASURE_WITH_UNIT (LENGTH_MEASURE( 1.000000000000000082E-05 ), #11, 'distance_accuracy_value', 'NONE');
#175 = EDGE_CURVE ( 'NONE', #78, #142, #32, .T. ) ;
#176 = CARTESIAN_POINT ( 'NONE',  ( 0.0000000000000000000, 0.0000000000000000000, 2.000000000000000000 ) ) ;
#177 = DIRECTION ( 'NONE',  ( 1.000000000000000000, 0.0000000000000000000, 0.0000000000000000000 ) ) ;
#178 = EDGE_LOOP ( 'NONE', ( #37, #5 ) ) ;
#179 = FACE_OUTER_BOUND ( 'NONE', #39, .T. ) ;
#180 = DIRECTION ( 'NONE',  ( 1.000000000000000000, 0.0000000000000000000, 0.0000000000000000000 ) ) ;
#181 = DIRECTION ( 'NONE',  ( 1.000000000000000000, 0.0000000000000000000, 0.0000000000000000000 ) ) ;
#182 = AXIS2_PLACEMENT_3D ( 'NONE', #56, #207, #54 ) ;
#183 = ORIENTED_EDGE ( 'NONE', *, *, #200, .F. ) ;
#184 = AXIS2_PLACEMENT_3D ( 'NONE', #90, #115, #159 ) ;
#185 = ORIENTED_EDGE ( 'NONE', *, *, #200, .T. ) ;
#186 = ORIENTED_EDGE ( 'NONE', *, *, #6, .F. ) ;
#187 = EDGE_CURVE ( 'NONE', #142, #78, #204, .T. ) ;
#188 = PRODUCT_CONTEXT ( 'NONE', #192, 'mechanical' ) ;
#189 = APPLICATION_CONTEXT ( 'automotive_design' ) ;
#190 = APPLICATION_PROTOCOL_DEFINITION ( 'draft international standard', 'automotive_design', 1998, #189 ) ;
#191 = AXIS2_PLACEMENT_3D ( 'NONE', #53, #55, #48 ) ;
#192 = APPLICATION_CONTEXT ( 'automotive_design' ) ;
#193 = EDGE_LOOP ( 'NONE', ( #140, #185, #98, #88 ) ) ;
#194 = DIRECTION ( 'NONE',  ( 0.0000000000000000000, 0.0000000000000000000, 1.000000000000000000 ) ) ;
#195 = CARTESIAN_POINT ( 'NONE',  ( -7.050000000000000711, 0.0000000000000000000, 2.000000000000000000 ) ) ;
#196 = DIRECTION ( 'NONE',  ( -0.0000000000000000000, -0.0000000000000000000, -1.000000000000000000 ) ) ;
#197 = FACE_OUTER_BOUND ( 'NONE', #110, .T. ) ;
#198 = DIRECTION ( 'NONE',  ( 1.000000000000000000, 0.0000000000000000000, 0.0000000000000000000 ) ) ;
#199 = AXIS2_PLACEMENT_3D ( 'NONE', #131, #130, #198 ) ;
#200 = EDGE_CURVE ( 'NONE', #62, #156, #211, .T. ) ;
#201 = ORIENTED_EDGE ( 'NONE', *, *, #36, .F. ) ;
#202 = PRESENTATION_STYLE_ASSIGNMENT (( #10 ) ) ;
#203 = STYLED_ITEM ( 'NONE', ( #202 ), #1 ) ;
#204 = CIRCLE ( 'NONE', #77, 7.050000000000000711 ) ;
#205 = AXIS2_PLACEMENT_3D ( 'NONE', #72, #59, #122 ) ;
#206 = EDGE_CURVE ( 'NONE', #156, #163, #3, .T. ) ;
#207 = DIRECTION ( 'NONE',  ( -0.0000000000000000000, -0.0000000000000000000, -1.000000000000000000 ) ) ;
#208 = DIRECTION ( 'NONE',  ( 0.0000000000000000000, 0.0000000000000000000, 1.000000000000000000 ) ) ;
#209 = VECTOR ( 'NONE', #147, 1000.000000000000000 ) ;
#210 = CARTESIAN_POINT ( 'NONE',  ( 0.0000000000000000000, 0.0000000000000000000, 2.000000000000000000 ) ) ;
#211 = LINE ( 'NONE', #148, #111 ) ;
#212 = DIRECTION ( 'NONE',  ( 1.000000000000000000, 0.0000000000000000000, 0.0000000000000000000 ) ) ;
#213 = EDGE_CURVE ( 'NONE', #142, #2, #170, .T. ) ;
#214 = VERTEX_POINT ( 'NONE', #165 ) ;
ENDSEC;
END-ISO-10303-21;
