ISO-10303-21;
HEADER;
FILE_DESCRIPTION( ( '' ), ' ' );
FILE_NAME( '/vol/tmp/translate-8159421736983430478/5c9b3a024a9872168f087f01.step', '2019-03-27T08:53:23', ( '' ), ( '' ), ' ', ' ', ' ' );
FILE_SCHEMA( ( 'AUTOMOTIVE_DESIGN { 1 0 10303 214 1 1 1 1 }' ) );
ENDSEC;
DATA;
#1 = MECHANICAL_DESIGN_GEOMETRIC_PRESENTATION_REPRESENTATION( ' ', ( #10, #11, #12, #13, #14, #15, #16, #17, #18, #19, #20, #21 ), #6 );
#2 = PRODUCT_DEFINITION_CONTEXT( '', #22, 'design' );
#3 = APPLICATION_PROTOCOL_DEFINITION( 'international standard', 'automotive_design', 2001, #22 );
#4 = PRODUCT_CATEGORY_RELATIONSHIP( 'NONE', 'NONE', #23, #24 );
#5 = SHAPE_DEFINITION_REPRESENTATION( #25, #26 );
#6 =  ( GEOMETRIC_REPRESENTATION_CONTEXT( 3 )GLOBAL_UNCERTAINTY_ASSIGNED_CONTEXT( ( #29 ) )GLOBAL_UNIT_ASSIGNED_CONTEXT( ( #31, #32, #33 ) )REPRESENTATION_CONTEXT( 'NONE', 'WORKSPACE' ) );
#10 = STYLED_ITEM( '', ( #35 ), #36 );
#11 = STYLED_ITEM( '', ( #37 ), #38 );
#12 = STYLED_ITEM( '', ( #39 ), #40 );
#13 = STYLED_ITEM( '', ( #41 ), #42 );
#14 = STYLED_ITEM( '', ( #43 ), #44 );
#15 = STYLED_ITEM( '', ( #45 ), #46 );
#16 = STYLED_ITEM( '', ( #47 ), #48 );
#17 = STYLED_ITEM( '', ( #49 ), #50 );
#18 = STYLED_ITEM( '', ( #51 ), #52 );
#19 = STYLED_ITEM( '', ( #53 ), #54 );
#20 = STYLED_ITEM( '', ( #55 ), #56 );
#21 = STYLED_ITEM( '', ( #57 ), #58 );
#22 = APPLICATION_CONTEXT( 'core data for automotive mechanical design processes' );
#23 = PRODUCT_CATEGORY( 'part', 'NONE' );
#24 = PRODUCT_RELATED_PRODUCT_CATEGORY( 'detail', ' ', ( #59 ) );
#25 = PRODUCT_DEFINITION_SHAPE( 'NONE', 'NONE', #60 );
#26 = ADVANCED_BREP_SHAPE_REPRESENTATION( 'MT02.0254.0021', ( #61, #62 ), #6 );
#29 = UNCERTAINTY_MEASURE_WITH_UNIT( LENGTH_MEASURE( 1.00000000000000E-06 ), #31, '', '' );
#31 =  ( CONVERSION_BASED_UNIT( 'METRE', #65 )LENGTH_UNIT(  )NAMED_UNIT( #68 ) );
#32 =  ( NAMED_UNIT( #70 )PLANE_ANGLE_UNIT(  )SI_UNIT( $, .RADIAN. ) );
#33 =  ( NAMED_UNIT( #70 )SI_UNIT( $, .STERADIAN. )SOLID_ANGLE_UNIT(  ) );
#35 = PRESENTATION_STYLE_ASSIGNMENT( ( #76 ) );
#36 = ADVANCED_FACE( '', ( #77, #78, #79 ), #80, .T. );
#37 = PRESENTATION_STYLE_ASSIGNMENT( ( #81 ) );
#38 = ADVANCED_FACE( '', ( #82 ), #83, .T. );
#39 = PRESENTATION_STYLE_ASSIGNMENT( ( #84 ) );
#40 = ADVANCED_FACE( '', ( #85 ), #86, .T. );
#41 = PRESENTATION_STYLE_ASSIGNMENT( ( #87 ) );
#42 = ADVANCED_FACE( '', ( #88 ), #89, .F. );
#43 = PRESENTATION_STYLE_ASSIGNMENT( ( #90 ) );
#44 = ADVANCED_FACE( '', ( #91, #92, #93 ), #94, .F. );
#45 = PRESENTATION_STYLE_ASSIGNMENT( ( #95 ) );
#46 = ADVANCED_FACE( '', ( #96, #97 ), #98, .F. );
#47 = PRESENTATION_STYLE_ASSIGNMENT( ( #99 ) );
#48 = ADVANCED_FACE( '', ( #100, #101 ), #102, .F. );
#49 = PRESENTATION_STYLE_ASSIGNMENT( ( #103 ) );
#50 = ADVANCED_FACE( '', ( #104 ), #105, .F. );
#51 = PRESENTATION_STYLE_ASSIGNMENT( ( #106 ) );
#52 = ADVANCED_FACE( '', ( #107 ), #108, .F. );
#53 = PRESENTATION_STYLE_ASSIGNMENT( ( #109 ) );
#54 = ADVANCED_FACE( '', ( #110 ), #111, .T. );
#55 = PRESENTATION_STYLE_ASSIGNMENT( ( #112 ) );
#56 = ADVANCED_FACE( '', ( #113 ), #114, .F. );
#57 = PRESENTATION_STYLE_ASSIGNMENT( ( #115 ) );
#58 = ADVANCED_FACE( '', ( #116 ), #117, .F. );
#59 = PRODUCT( 'MT02.0254.0021', 'MT02.0254.0021', 'PART-MT02.0254.0021-DESC', ( #118 ) );
#60 = PRODUCT_DEFINITION( 'NONE', 'NONE', #119, #2 );
#61 = MANIFOLD_SOLID_BREP( 'MT02.0254.0021', #120 );
#62 = AXIS2_PLACEMENT_3D( '', #121, #122, #123 );
#65 = LENGTH_MEASURE_WITH_UNIT( LENGTH_MEASURE( 1.00000000000000 ), #124 );
#68 = DIMENSIONAL_EXPONENTS( 1.00000000000000, 0.00000000000000, 0.00000000000000, 0.00000000000000, 0.00000000000000, 0.00000000000000, 0.00000000000000 );
#70 = DIMENSIONAL_EXPONENTS( 0.00000000000000, 0.00000000000000, 0.00000000000000, 0.00000000000000, 0.00000000000000, 0.00000000000000, 0.00000000000000 );
#76 = SURFACE_STYLE_USAGE( .BOTH., #125 );
#77 = FACE_BOUND( '', #126, .T. );
#78 = FACE_OUTER_BOUND( '', #127, .T. );
#79 = FACE_BOUND( '', #128, .T. );
#80 = PLANE( '', #129 );
#81 = SURFACE_STYLE_USAGE( .BOTH., #130 );
#82 = FACE_OUTER_BOUND( '', #131, .T. );
#83 = PLANE( '', #132 );
#84 = SURFACE_STYLE_USAGE( .BOTH., #133 );
#85 = FACE_OUTER_BOUND( '', #134, .T. );
#86 = PLANE( '', #135 );
#87 = SURFACE_STYLE_USAGE( .BOTH., #136 );
#88 = FACE_OUTER_BOUND( '', #137, .T. );
#89 = CYLINDRICAL_SURFACE( '', #138, 0.0127000000000000 );
#90 = SURFACE_STYLE_USAGE( .BOTH., #139 );
#91 = FACE_BOUND( '', #140, .T. );
#92 = FACE_OUTER_BOUND( '', #141, .T. );
#93 = FACE_BOUND( '', #142, .T. );
#94 = PLANE( '', #143 );
#95 = SURFACE_STYLE_USAGE( .BOTH., #144 );
#96 = FACE_OUTER_BOUND( '', #145, .T. );
#97 = FACE_OUTER_BOUND( '', #146, .T. );
#98 = CYLINDRICAL_SURFACE( '', #147, 0.0100000000000000 );
#99 = SURFACE_STYLE_USAGE( .BOTH., #148 );
#100 = FACE_OUTER_BOUND( '', #149, .T. );
#101 = FACE_OUTER_BOUND( '', #150, .T. );
#102 = CYLINDRICAL_SURFACE( '', #151, 0.0100000000000000 );
#103 = SURFACE_STYLE_USAGE( .BOTH., #152 );
#104 = FACE_OUTER_BOUND( '', #153, .T. );
#105 = PLANE( '', #154 );
#106 = SURFACE_STYLE_USAGE( .BOTH., #155 );
#107 = FACE_OUTER_BOUND( '', #156, .T. );
#108 = PLANE( '', #157 );
#109 = SURFACE_STYLE_USAGE( .BOTH., #158 );
#110 = FACE_OUTER_BOUND( '', #159, .T. );
#111 = PLANE( '', #160 );
#112 = SURFACE_STYLE_USAGE( .BOTH., #161 );
#113 = FACE_OUTER_BOUND( '', #162, .T. );
#114 = CYLINDRICAL_SURFACE( '', #163, 0.190000000000000 );
#115 = SURFACE_STYLE_USAGE( .BOTH., #164 );
#116 = FACE_OUTER_BOUND( '', #165, .T. );
#117 = CYLINDRICAL_SURFACE( '', #166, 0.190000000000000 );
#118 = PRODUCT_CONTEXT( '', #22, 'mechanical' );
#119 = PRODUCT_DEFINITION_FORMATION_WITH_SPECIFIED_SOURCE( ' ', 'NONE', #59, .NOT_KNOWN. );
#120 = CLOSED_SHELL( '', ( #42, #38, #50, #46, #52, #48, #44, #36, #54, #56, #58, #40 ) );
#121 = CARTESIAN_POINT( '', ( 0.00000000000000, 0.00000000000000, 0.00000000000000 ) );
#122 = DIRECTION( '', ( 0.00000000000000, 0.00000000000000, 1.00000000000000 ) );
#123 = DIRECTION( '', ( 1.00000000000000, 0.00000000000000, 0.00000000000000 ) );
#124 =  ( LENGTH_UNIT(  )NAMED_UNIT( #68 )SI_UNIT( $, .METRE. ) );
#125 = SURFACE_SIDE_STYLE( '', ( #168 ) );
#126 = EDGE_LOOP( '', ( #169 ) );
#127 = EDGE_LOOP( '', ( #170, #171, #172, #173, #174 ) );
#128 = EDGE_LOOP( '', ( #175 ) );
#129 = AXIS2_PLACEMENT_3D( '', #176, #177, #178 );
#130 = SURFACE_SIDE_STYLE( '', ( #179 ) );
#131 = EDGE_LOOP( '', ( #180, #181, #182, #183, #184, #185 ) );
#132 = AXIS2_PLACEMENT_3D( '', #186, #187, #188 );
#133 = SURFACE_SIDE_STYLE( '', ( #189 ) );
#134 = EDGE_LOOP( '', ( #190, #191, #192, #193 ) );
#135 = AXIS2_PLACEMENT_3D( '', #194, #195, #196 );
#136 = SURFACE_SIDE_STYLE( '', ( #197 ) );
#137 = EDGE_LOOP( '', ( #198, #199, #200, #201, #202, #203 ) );
#138 = AXIS2_PLACEMENT_3D( '', #204, #205, #206 );
#139 = SURFACE_SIDE_STYLE( '', ( #207 ) );
#140 = EDGE_LOOP( '', ( #208 ) );
#141 = EDGE_LOOP( '', ( #209, #210, #211, #212, #213 ) );
#142 = EDGE_LOOP( '', ( #214 ) );
#143 = AXIS2_PLACEMENT_3D( '', #215, #216, #217 );
#144 = SURFACE_SIDE_STYLE( '', ( #218 ) );
#145 = EDGE_LOOP( '', ( #219 ) );
#146 = EDGE_LOOP( '', ( #220 ) );
#147 = AXIS2_PLACEMENT_3D( '', #221, #222, #223 );
#148 = SURFACE_SIDE_STYLE( '', ( #224 ) );
#149 = EDGE_LOOP( '', ( #225 ) );
#150 = EDGE_LOOP( '', ( #226 ) );
#151 = AXIS2_PLACEMENT_3D( '', #227, #228, #229 );
#152 = SURFACE_SIDE_STYLE( '', ( #230 ) );
#153 = EDGE_LOOP( '', ( #231, #232, #233, #234, #235, #236 ) );
#154 = AXIS2_PLACEMENT_3D( '', #237, #238, #239 );
#155 = SURFACE_SIDE_STYLE( '', ( #240 ) );
#156 = EDGE_LOOP( '', ( #241, #242, #243, #244 ) );
#157 = AXIS2_PLACEMENT_3D( '', #245, #246, #247 );
#158 = SURFACE_SIDE_STYLE( '', ( #248 ) );
#159 = EDGE_LOOP( '', ( #249, #250, #251, #252 ) );
#160 = AXIS2_PLACEMENT_3D( '', #253, #254, #255 );
#161 = SURFACE_SIDE_STYLE( '', ( #256 ) );
#162 = EDGE_LOOP( '', ( #257, #258, #259, #260 ) );
#163 = AXIS2_PLACEMENT_3D( '', #261, #262, #263 );
#164 = SURFACE_SIDE_STYLE( '', ( #264 ) );
#165 = EDGE_LOOP( '', ( #265, #266, #267, #268 ) );
#166 = AXIS2_PLACEMENT_3D( '', #269, #270, #271 );
#168 = SURFACE_STYLE_FILL_AREA( #272 );
#169 = ORIENTED_EDGE( '', *, *, #273, .F. );
#170 = ORIENTED_EDGE( '', *, *, #274, .F. );
#171 = ORIENTED_EDGE( '', *, *, #275, .F. );
#172 = ORIENTED_EDGE( '', *, *, #276, .F. );
#173 = ORIENTED_EDGE( '', *, *, #277, .T. );
#174 = ORIENTED_EDGE( '', *, *, #278, .T. );
#175 = ORIENTED_EDGE( '', *, *, #279, .F. );
#176 = CARTESIAN_POINT( '', ( -0.0357750000000000, -0.0325000000000000, 0.0292500000000000 ) );
#177 = DIRECTION( '', ( 0.00000000000000, -1.00000000000000, 0.00000000000000 ) );
#178 = DIRECTION( '', ( 1.00000000000000, 0.00000000000000, 0.00000000000000 ) );
#179 = SURFACE_STYLE_FILL_AREA( #280 );
#180 = ORIENTED_EDGE( '', *, *, #281, .F. );
#181 = ORIENTED_EDGE( '', *, *, #282, .F. );
#182 = ORIENTED_EDGE( '', *, *, #274, .T. );
#183 = ORIENTED_EDGE( '', *, *, #283, .T. );
#184 = ORIENTED_EDGE( '', *, *, #284, .F. );
#185 = ORIENTED_EDGE( '', *, *, #285, .F. );
#186 = CARTESIAN_POINT( '', ( -0.138800000000000, -0.0325020000000000, 0.0780000000000000 ) );
#187 = DIRECTION( '', ( -1.00000000000000, 0.00000000000000, 0.00000000000000 ) );
#188 = DIRECTION( '', ( 0.00000000000000, 0.00000000000000, 1.00000000000000 ) );
#189 = SURFACE_STYLE_FILL_AREA( #286 );
#190 = ORIENTED_EDGE( '', *, *, #287, .F. );
#191 = ORIENTED_EDGE( '', *, *, #288, .F. );
#192 = ORIENTED_EDGE( '', *, *, #275, .T. );
#193 = ORIENTED_EDGE( '', *, *, #282, .T. );
#194 = CARTESIAN_POINT( '', ( -0.0754466933112239, -0.0325020000000000, 0.0480000000000000 ) );
#195 = DIRECTION( '', ( 1.09526941316491E-16, 0.00000000000000, -1.00000000000000 ) );
#196 = DIRECTION( '', ( -1.00000000000000, 0.00000000000000, -1.09526941316491E-16 ) );
#197 = SURFACE_STYLE_FILL_AREA( #289 );
#198 = ORIENTED_EDGE( '', *, *, #287, .T. );
#199 = ORIENTED_EDGE( '', *, *, #281, .T. );
#200 = ORIENTED_EDGE( '', *, *, #290, .T. );
#201 = ORIENTED_EDGE( '', *, *, #291, .T. );
#202 = ORIENTED_EDGE( '', *, *, #292, .T. );
#203 = ORIENTED_EDGE( '', *, *, #293, .T. );
#204 = CARTESIAN_POINT( '', ( 0.00620200000000000, 6.93889390390723E-18, 0.0480000000000000 ) );
#205 = DIRECTION( '', ( 1.00000000000000, -0.00000000000000, -0.00000000000000 ) );
#206 = DIRECTION( '', ( 0.00000000000000, 0.00000000000000, 1.00000000000000 ) );
#207 = SURFACE_STYLE_FILL_AREA( #294 );
#208 = ORIENTED_EDGE( '', *, *, #295, .T. );
#209 = ORIENTED_EDGE( '', *, *, #296, .T. );
#210 = ORIENTED_EDGE( '', *, *, #284, .T. );
#211 = ORIENTED_EDGE( '', *, *, #297, .F. );
#212 = ORIENTED_EDGE( '', *, *, #298, .F. );
#213 = ORIENTED_EDGE( '', *, *, #299, .T. );
#214 = ORIENTED_EDGE( '', *, *, #300, .T. );
#215 = CARTESIAN_POINT( '', ( -0.0357750000000000, 0.0325000000000000, 0.0292500000000000 ) );
#216 = DIRECTION( '', ( 0.00000000000000, -1.00000000000000, 0.00000000000000 ) );
#217 = DIRECTION( '', ( 1.00000000000000, 0.00000000000000, 0.00000000000000 ) );
#218 = SURFACE_STYLE_FILL_AREA( #301 );
#219 = ORIENTED_EDGE( '', *, *, #300, .F. );
#220 = ORIENTED_EDGE( '', *, *, #279, .T. );
#221 = CARTESIAN_POINT( '', ( -0.00980000000000000, -0.0325020000000000, 0.0900000000000000 ) );
#222 = DIRECTION( '', ( -0.00000000000000, -1.00000000000000, -0.00000000000000 ) );
#223 = DIRECTION( '', ( 0.00000000000000, 0.00000000000000, 1.00000000000000 ) );
#224 = SURFACE_STYLE_FILL_AREA( #302 );
#225 = ORIENTED_EDGE( '', *, *, #295, .F. );
#226 = ORIENTED_EDGE( '', *, *, #273, .T. );
#227 = CARTESIAN_POINT( '', ( -0.0898000000000000, -0.0325020000000000, 0.0900000000000000 ) );
#228 = DIRECTION( '', ( -0.00000000000000, -1.00000000000000, -0.00000000000000 ) );
#229 = DIRECTION( '', ( 0.00000000000000, 0.00000000000000, 1.00000000000000 ) );
#230 = SURFACE_STYLE_FILL_AREA( #303 );
#231 = ORIENTED_EDGE( '', *, *, #292, .F. );
#232 = ORIENTED_EDGE( '', *, *, #304, .T. );
#233 = ORIENTED_EDGE( '', *, *, #298, .T. );
#234 = ORIENTED_EDGE( '', *, *, #305, .F. );
#235 = ORIENTED_EDGE( '', *, *, #277, .F. );
#236 = ORIENTED_EDGE( '', *, *, #306, .T. );
#237 = CARTESIAN_POINT( '', ( 0.00620000000000000, -0.0325020000000000, 0.0787500000000000 ) );
#238 = DIRECTION( '', ( -1.00000000000000, 0.00000000000000, -1.77920356510441E-16 ) );
#239 = DIRECTION( '', ( -1.77920356510441E-16, 0.00000000000000, 1.00000000000000 ) );
#240 = SURFACE_STYLE_FILL_AREA( #307 );
#241 = ORIENTED_EDGE( '', *, *, #283, .F. );
#242 = ORIENTED_EDGE( '', *, *, #278, .F. );
#243 = ORIENTED_EDGE( '', *, *, #305, .T. );
#244 = ORIENTED_EDGE( '', *, *, #297, .T. );
#245 = CARTESIAN_POINT( '', ( -0.0663000000000000, -0.0325020000000000, 0.108000000000000 ) );
#246 = DIRECTION( '', ( 9.57088814332032E-17, 0.00000000000000, -1.00000000000000 ) );
#247 = DIRECTION( '', ( -1.00000000000000, 0.00000000000000, -9.57088814332032E-17 ) );
#248 = SURFACE_STYLE_FILL_AREA( #308 );
#249 = ORIENTED_EDGE( '', *, *, #290, .F. );
#250 = ORIENTED_EDGE( '', *, *, #285, .T. );
#251 = ORIENTED_EDGE( '', *, *, #296, .F. );
#252 = ORIENTED_EDGE( '', *, *, #309, .F. );
#253 = CARTESIAN_POINT( '', ( -0.0754466933112239, -0.0325020000000000, 0.0480000000000000 ) );
#254 = DIRECTION( '', ( 1.09526941316491E-16, 0.00000000000000, -1.00000000000000 ) );
#255 = DIRECTION( '', ( -1.00000000000000, 0.00000000000000, -1.09526941316491E-16 ) );
#256 = SURFACE_STYLE_FILL_AREA( #310 );
#257 = ORIENTED_EDGE( '', *, *, #291, .F. );
#258 = ORIENTED_EDGE( '', *, *, #309, .T. );
#259 = ORIENTED_EDGE( '', *, *, #299, .F. );
#260 = ORIENTED_EDGE( '', *, *, #304, .F. );
#261 = CARTESIAN_POINT( '', ( 0.0125624722360749, -0.0325020000000000, -0.140393441032189 ) );
#262 = DIRECTION( '', ( -0.00000000000000, -1.00000000000000, -0.00000000000000 ) );
#263 = DIRECTION( '', ( 0.00000000000000, 0.00000000000000, 1.00000000000000 ) );
#264 = SURFACE_STYLE_FILL_AREA( #311 );
#265 = ORIENTED_EDGE( '', *, *, #293, .F. );
#266 = ORIENTED_EDGE( '', *, *, #306, .F. );
#267 = ORIENTED_EDGE( '', *, *, #276, .T. );
#268 = ORIENTED_EDGE( '', *, *, #288, .T. );
#269 = CARTESIAN_POINT( '', ( 0.0125624722360749, -0.0325020000000000, -0.140393441032189 ) );
#270 = DIRECTION( '', ( -0.00000000000000, -1.00000000000000, -0.00000000000000 ) );
#271 = DIRECTION( '', ( 0.00000000000000, 0.00000000000000, 1.00000000000000 ) );
#272 = FILL_AREA_STYLE( '', ( #312 ) );
#273 = EDGE_CURVE( '', #313, #313, #314, .T. );
#274 = EDGE_CURVE( '', #315, #316, #317, .T. );
#275 = EDGE_CURVE( '', #318, #315, #319, .T. );
#276 = EDGE_CURVE( '', #320, #318, #321, .T. );
#277 = EDGE_CURVE( '', #320, #322, #323, .T. );
#278 = EDGE_CURVE( '', #322, #316, #324, .T. );
#279 = EDGE_CURVE( '', #325, #325, #326, .T. );
#280 = FILL_AREA_STYLE( '', ( #327 ) );
#281 = EDGE_CURVE( '', #328, #329, #330, .T. );
#282 = EDGE_CURVE( '', #315, #328, #331, .T. );
#283 = EDGE_CURVE( '', #316, #332, #333, .T. );
#284 = EDGE_CURVE( '', #334, #332, #335, .T. );
#285 = EDGE_CURVE( '', #329, #334, #336, .T. );
#286 = FILL_AREA_STYLE( '', ( #337 ) );
#287 = EDGE_CURVE( '', #338, #328, #339, .T. );
#288 = EDGE_CURVE( '', #318, #338, #340, .T. );
#289 = FILL_AREA_STYLE( '', ( #341 ) );
#290 = EDGE_CURVE( '', #329, #342, #343, .F. );
#291 = EDGE_CURVE( '', #342, #344, #345, .T. );
#292 = EDGE_CURVE( '', #344, #346, #347, .F. );
#293 = EDGE_CURVE( '', #346, #338, #348, .T. );
#294 = FILL_AREA_STYLE( '', ( #349 ) );
#295 = EDGE_CURVE( '', #350, #350, #351, .T. );
#296 = EDGE_CURVE( '', #352, #334, #353, .T. );
#297 = EDGE_CURVE( '', #354, #332, #355, .T. );
#298 = EDGE_CURVE( '', #356, #354, #357, .T. );
#299 = EDGE_CURVE( '', #356, #352, #358, .T. );
#300 = EDGE_CURVE( '', #359, #359, #360, .T. );
#301 = FILL_AREA_STYLE( '', ( #361 ) );
#302 = FILL_AREA_STYLE( '', ( #362 ) );
#303 = FILL_AREA_STYLE( '', ( #363 ) );
#304 = EDGE_CURVE( '', #344, #356, #364, .T. );
#305 = EDGE_CURVE( '', #322, #354, #365, .T. );
#306 = EDGE_CURVE( '', #320, #346, #366, .T. );
#307 = FILL_AREA_STYLE( '', ( #367 ) );
#308 = FILL_AREA_STYLE( '', ( #368 ) );
#309 = EDGE_CURVE( '', #342, #352, #369, .T. );
#310 = FILL_AREA_STYLE( '', ( #370 ) );
#311 = FILL_AREA_STYLE( '', ( #371 ) );
#312 = FILL_AREA_STYLE_COLOUR( '', #372 );
#313 = VERTEX_POINT( '', #373 );
#314 = CIRCLE( '', #374, 0.0100000000000000 );
#315 = VERTEX_POINT( '', #375 );
#316 = VERTEX_POINT( '', #376 );
#317 = LINE( '', #377, #378 );
#318 = VERTEX_POINT( '', #379 );
#319 = LINE( '', #380, #381 );
#320 = VERTEX_POINT( '', #382 );
#321 = CIRCLE( '', #383, 0.190000000000000 );
#322 = VERTEX_POINT( '', #384 );
#323 = LINE( '', #385, #386 );
#324 = LINE( '', #387, #388 );
#325 = VERTEX_POINT( '', #389 );
#326 = CIRCLE( '', #390, 0.0100000000000000 );
#327 = FILL_AREA_STYLE_COLOUR( '', #391 );
#328 = VERTEX_POINT( '', #392 );
#329 = VERTEX_POINT( '', #393 );
#330 = CIRCLE( '', #394, 0.0127000000000000 );
#331 = LINE( '', #395, #396 );
#332 = VERTEX_POINT( '', #397 );
#333 = LINE( '', #398, #399 );
#334 = VERTEX_POINT( '', #400 );
#335 = LINE( '', #401, #402 );
#336 = LINE( '', #403, #404 );
#337 = FILL_AREA_STYLE_COLOUR( '', #405 );
#338 = VERTEX_POINT( '', #406 );
#339 = LINE( '', #407, #408 );
#340 = LINE( '', #409, #410 );
#341 = FILL_AREA_STYLE_COLOUR( '', #411 );
#342 = VERTEX_POINT( '', #412 );
#343 = LINE( '', #413, #414 );
#344 = VERTEX_POINT( '', #415 );
#345 = B_SPLINE_CURVE_WITH_KNOTS( '', 3, ( #416, #417, #418, #419, #420, #421 ), .UNSPECIFIED., .F., .F., ( 4, 2, 4 ), ( 3.98986399474666E-17, 0.00917749824602448, 0.0183549964920489 ), .UNSPECIFIED. );
#346 = VERTEX_POINT( '', #422 );
#347 = CIRCLE( '', #423, 0.0127000000000000 );
#348 = B_SPLINE_CURVE_WITH_KNOTS( '', 3, ( #424, #425, #426, #427, #428, #429 ), .UNSPECIFIED., .F., .F., ( 4, 2, 4 ), ( 8.96073254374262E-17, 0.00917749824602446, 0.0183549964920488 ), .UNSPECIFIED. );
#349 = FILL_AREA_STYLE_COLOUR( '', #430 );
#350 = VERTEX_POINT( '', #431 );
#351 = CIRCLE( '', #432, 0.0100000000000000 );
#352 = VERTEX_POINT( '', #433 );
#353 = LINE( '', #434, #435 );
#354 = VERTEX_POINT( '', #436 );
#355 = LINE( '', #437, #438 );
#356 = VERTEX_POINT( '', #439 );
#357 = LINE( '', #440, #441 );
#358 = CIRCLE( '', #442, 0.190000000000000 );
#359 = VERTEX_POINT( '', #443 );
#360 = CIRCLE( '', #444, 0.0100000000000000 );
#361 = FILL_AREA_STYLE_COLOUR( '', #445 );
#362 = FILL_AREA_STYLE_COLOUR( '', #446 );
#363 = FILL_AREA_STYLE_COLOUR( '', #447 );
#364 = LINE( '', #448, #449 );
#365 = LINE( '', #450, #451 );
#366 = LINE( '', #452, #453 );
#367 = FILL_AREA_STYLE_COLOUR( '', #454 );
#368 = FILL_AREA_STYLE_COLOUR( '', #455 );
#369 = LINE( '', #456, #457 );
#370 = FILL_AREA_STYLE_COLOUR( '', #458 );
#371 = FILL_AREA_STYLE_COLOUR( '', #459 );
#372 = COLOUR_RGB( '', 0.376470595600000, 0.415686279500000, 0.450980395100000 );
#373 = CARTESIAN_POINT( '', ( -0.0898000000000000, -0.0325000000000000, 0.0800000000000000 ) );
#374 = AXIS2_PLACEMENT_3D( '', #460, #461, #462 );
#375 = CARTESIAN_POINT( '', ( -0.138800000000000, -0.0325000000000000, 0.0480000000000000 ) );
#376 = CARTESIAN_POINT( '', ( -0.138800000000000, -0.0325000000000000, 0.108000000000000 ) );
#377 = CARTESIAN_POINT( '', ( -0.138800000000000, -0.0325000000000000, 0.0780000000000000 ) );
#378 = VECTOR( '', #463, 1.00000000000000 );
#379 = CARTESIAN_POINT( '', ( -0.0120933866224479, -0.0325000000000000, 0.0480000000000000 ) );
#380 = CARTESIAN_POINT( '', ( -0.0754466933112239, -0.0325000000000000, 0.0480000000000000 ) );
#381 = VECTOR( '', #464, 1.00000000000000 );
#382 = CARTESIAN_POINT( '', ( 0.00620000000000000, -0.0325000000000000, 0.0495000000000000 ) );
#383 = AXIS2_PLACEMENT_3D( '', #465, #466, #467 );
#384 = CARTESIAN_POINT( '', ( 0.00620000000000000, -0.0325000000000000, 0.108000000000000 ) );
#385 = CARTESIAN_POINT( '', ( 0.00620000000000000, -0.0325000000000000, 0.0787500000000000 ) );
#386 = VECTOR( '', #468, 1.00000000000000 );
#387 = CARTESIAN_POINT( '', ( -0.0663000000000000, -0.0325000000000000, 0.108000000000000 ) );
#388 = VECTOR( '', #469, 1.00000000000000 );
#389 = CARTESIAN_POINT( '', ( -0.00980000000000000, -0.0325000000000000, 0.0800000000000000 ) );
#390 = AXIS2_PLACEMENT_3D( '', #470, #471, #472 );
#391 = COLOUR_RGB( '', 0.376470595600000, 0.415686279500000, 0.450980395100000 );
#392 = CARTESIAN_POINT( '', ( -0.138800000000000, -0.0127000000000000, 0.0480000000000000 ) );
#393 = CARTESIAN_POINT( '', ( -0.138800000000000, 0.0127000000000000, 0.0480000000000000 ) );
#394 = AXIS2_PLACEMENT_3D( '', #473, #474, #475 );
#395 = CARTESIAN_POINT( '', ( -0.138800000000000, -0.0325020000000000, 0.0480000000000000 ) );
#396 = VECTOR( '', #476, 1.00000000000000 );
#397 = CARTESIAN_POINT( '', ( -0.138800000000000, 0.0325000000000000, 0.108000000000000 ) );
#398 = CARTESIAN_POINT( '', ( -0.138800000000000, -0.0325020000000000, 0.108000000000000 ) );
#399 = VECTOR( '', #477, 1.00000000000000 );
#400 = CARTESIAN_POINT( '', ( -0.138800000000000, 0.0325000000000000, 0.0480000000000000 ) );
#401 = CARTESIAN_POINT( '', ( -0.138800000000000, 0.0325000000000000, 0.0780000000000000 ) );
#402 = VECTOR( '', #478, 1.00000000000000 );
#403 = CARTESIAN_POINT( '', ( -0.138800000000000, -0.0325020000000000, 0.0480000000000000 ) );
#404 = VECTOR( '', #479, 1.00000000000000 );
#405 = COLOUR_RGB( '', 0.376470595600000, 0.415686279500000, 0.450980395100000 );
#406 = CARTESIAN_POINT( '', ( -0.0120933866224479, -0.0127000000000000, 0.0480000000000000 ) );
#407 = CARTESIAN_POINT( '', ( 0.00620200000000000, -0.0127000000000000, 0.0480000000000000 ) );
#408 = VECTOR( '', #480, 1.00000000000000 );
#409 = CARTESIAN_POINT( '', ( -0.0120933866224479, -0.0325020000000000, 0.0480000000000000 ) );
#410 = VECTOR( '', #481, 1.00000000000000 );
#411 = COLOUR_RGB( '', 0.376470595600000, 0.415686279500000, 0.450980395100000 );
#412 = CARTESIAN_POINT( '', ( -0.0120933866224479, 0.0127000000000000, 0.0480000000000000 ) );
#413 = CARTESIAN_POINT( '', ( 0.00620200000000000, 0.0127000000000000, 0.0480000000000000 ) );
#414 = VECTOR( '', #482, 1.00000000000000 );
#415 = CARTESIAN_POINT( '', ( 0.00620000000000000, 0.0126111062163476, 0.0495000000000000 ) );
#416 = CARTESIAN_POINT( '', ( -0.0120933866224479, 0.0127000000000000, 0.0480000000000000 ) );
#417 = CARTESIAN_POINT( '', ( -0.00905650724752995, 0.0127000000000000, 0.0483974494484951 ) );
#418 = CARTESIAN_POINT( '', ( -0.00601365886215163, 0.0126819940530177, 0.0487210362084169 ) );
#419 = CARTESIAN_POINT( '', ( 8.40947276541549E-05, 0.0126436524837889, 0.0492210316309584 ) );
#420 = CARTESIAN_POINT( '', ( 0.00313899992310678, 0.0126233050231118, 0.0493974397014558 ) );
#421 = CARTESIAN_POINT( '', ( 0.00619999999999991, 0.0126111062163476, 0.0495000000000000 ) );
#422 = CARTESIAN_POINT( '', ( 0.00620000000000000, -0.0126111062163475, 0.0495000000000000 ) );
#423 = AXIS2_PLACEMENT_3D( '', #483, #484, #485 );
#424 = CARTESIAN_POINT( '', ( 0.00619999999999991, -0.0126111062163475, 0.0495000000000000 ) );
#425 = CARTESIAN_POINT( '', ( 0.00313899992310680, -0.0126233050231118, 0.0493974397014557 ) );
#426 = CARTESIAN_POINT( '', ( 8.40947276540241E-05, -0.0126436524837889, 0.0492210316309584 ) );
#427 = CARTESIAN_POINT( '', ( -0.00601365886215171, -0.0126819940530176, 0.0487210362084169 ) );
#428 = CARTESIAN_POINT( '', ( -0.00905650724752998, -0.0127000000000000, 0.0483974494484951 ) );
#429 = CARTESIAN_POINT( '', ( -0.0120933866224479, -0.0127000000000000, 0.0480000000000000 ) );
#430 = COLOUR_RGB( '', 0.376470595600000, 0.415686279500000, 0.450980395100000 );
#431 = CARTESIAN_POINT( '', ( -0.0898000000000000, 0.0325000000000000, 0.0800000000000000 ) );
#432 = AXIS2_PLACEMENT_3D( '', #486, #487, #488 );
#433 = CARTESIAN_POINT( '', ( -0.0120933866224479, 0.0325000000000000, 0.0480000000000000 ) );
#434 = CARTESIAN_POINT( '', ( -0.0754466933112239, 0.0325000000000000, 0.0480000000000000 ) );
#435 = VECTOR( '', #489, 1.00000000000000 );
#436 = CARTESIAN_POINT( '', ( 0.00620000000000000, 0.0325000000000000, 0.108000000000000 ) );
#437 = CARTESIAN_POINT( '', ( -0.0663000000000000, 0.0325000000000000, 0.108000000000000 ) );
#438 = VECTOR( '', #490, 1.00000000000000 );
#439 = CARTESIAN_POINT( '', ( 0.00620000000000000, 0.0325000000000000, 0.0495000000000000 ) );
#440 = CARTESIAN_POINT( '', ( 0.00620000000000000, 0.0325000000000000, 0.0787500000000000 ) );
#441 = VECTOR( '', #491, 1.00000000000000 );
#442 = AXIS2_PLACEMENT_3D( '', #492, #493, #494 );
#443 = CARTESIAN_POINT( '', ( -0.00980000000000000, 0.0325000000000000, 0.0800000000000000 ) );
#444 = AXIS2_PLACEMENT_3D( '', #495, #496, #497 );
#445 = COLOUR_RGB( '', 0.376470595600000, 0.415686279500000, 0.450980395100000 );
#446 = COLOUR_RGB( '', 0.376470595600000, 0.415686279500000, 0.450980395100000 );
#447 = COLOUR_RGB( '', 0.376470595600000, 0.415686279500000, 0.450980395100000 );
#448 = CARTESIAN_POINT( '', ( 0.00620000000000000, -0.0325020000000000, 0.0495000000000000 ) );
#449 = VECTOR( '', #498, 1.00000000000000 );
#450 = CARTESIAN_POINT( '', ( 0.00620000000000000, -0.0325020000000000, 0.108000000000000 ) );
#451 = VECTOR( '', #499, 1.00000000000000 );
#452 = CARTESIAN_POINT( '', ( 0.00620000000000000, -0.0325020000000000, 0.0495000000000000 ) );
#453 = VECTOR( '', #500, 1.00000000000000 );
#454 = COLOUR_RGB( '', 0.376470595600000, 0.415686279500000, 0.450980395100000 );
#455 = COLOUR_RGB( '', 0.376470595600000, 0.415686279500000, 0.450980395100000 );
#456 = CARTESIAN_POINT( '', ( -0.0120933866224479, -0.0325020000000000, 0.0480000000000000 ) );
#457 = VECTOR( '', #501, 1.00000000000000 );
#458 = COLOUR_RGB( '', 0.376470595600000, 0.415686279500000, 0.450980395100000 );
#459 = COLOUR_RGB( '', 0.376470595600000, 0.415686279500000, 0.450980395100000 );
#460 = CARTESIAN_POINT( '', ( -0.0898000000000000, -0.0325000000000000, 0.0900000000000000 ) );
#461 = DIRECTION( '', ( 0.00000000000000, -1.00000000000000, 0.00000000000000 ) );
#462 = DIRECTION( '', ( 0.00000000000000, 0.00000000000000, -1.00000000000000 ) );
#463 = DIRECTION( '', ( 0.00000000000000, 0.00000000000000, 1.00000000000000 ) );
#464 = DIRECTION( '', ( -1.00000000000000, 0.00000000000000, -1.09526941316491E-16 ) );
#465 = CARTESIAN_POINT( '', ( 0.0125624722360749, -0.0325000000000000, -0.140393441032189 ) );
#466 = DIRECTION( '', ( 0.00000000000000, -1.00000000000000, 0.00000000000000 ) );
#467 = DIRECTION( '', ( 0.00000000000000, 0.00000000000000, -1.00000000000000 ) );
#468 = DIRECTION( '', ( -1.77920356510441E-16, 0.00000000000000, 1.00000000000000 ) );
#469 = DIRECTION( '', ( -1.00000000000000, 0.00000000000000, -9.57088814332032E-17 ) );
#470 = CARTESIAN_POINT( '', ( -0.00980000000000000, -0.0325000000000000, 0.0900000000000000 ) );
#471 = DIRECTION( '', ( 0.00000000000000, -1.00000000000000, 0.00000000000000 ) );
#472 = DIRECTION( '', ( 0.00000000000000, 0.00000000000000, -1.00000000000000 ) );
#473 = CARTESIAN_POINT( '', ( -0.138800000000000, 6.93889390390723E-18, 0.0480000000000000 ) );
#474 = DIRECTION( '', ( -1.00000000000000, 0.00000000000000, 0.00000000000000 ) );
#475 = DIRECTION( '', ( 0.00000000000000, 0.00000000000000, 1.00000000000000 ) );
#476 = DIRECTION( '', ( 0.00000000000000, 1.00000000000000, 0.00000000000000 ) );
#477 = DIRECTION( '', ( 0.00000000000000, 1.00000000000000, 0.00000000000000 ) );
#478 = DIRECTION( '', ( 0.00000000000000, 0.00000000000000, 1.00000000000000 ) );
#479 = DIRECTION( '', ( 0.00000000000000, 1.00000000000000, 0.00000000000000 ) );
#480 = DIRECTION( '', ( -1.00000000000000, 0.00000000000000, 0.00000000000000 ) );
#481 = DIRECTION( '', ( 0.00000000000000, 1.00000000000000, 0.00000000000000 ) );
#482 = DIRECTION( '', ( -1.00000000000000, 0.00000000000000, 0.00000000000000 ) );
#483 = CARTESIAN_POINT( '', ( 0.00620000000000000, 6.93889390390723E-18, 0.0480000000000000 ) );
#484 = DIRECTION( '', ( -1.00000000000000, 0.00000000000000, -1.77920356510441E-16 ) );
#485 = DIRECTION( '', ( -1.77920356510441E-16, 0.00000000000000, 1.00000000000000 ) );
#486 = CARTESIAN_POINT( '', ( -0.0898000000000000, 0.0325000000000000, 0.0900000000000000 ) );
#487 = DIRECTION( '', ( 0.00000000000000, -1.00000000000000, 0.00000000000000 ) );
#488 = DIRECTION( '', ( 0.00000000000000, 0.00000000000000, -1.00000000000000 ) );
#489 = DIRECTION( '', ( -1.00000000000000, 0.00000000000000, -1.09526941316491E-16 ) );
#490 = DIRECTION( '', ( -1.00000000000000, 0.00000000000000, -9.57088814332032E-17 ) );
#491 = DIRECTION( '', ( -1.77920356510441E-16, 0.00000000000000, 1.00000000000000 ) );
#492 = CARTESIAN_POINT( '', ( 0.0125624722360749, 0.0325000000000000, -0.140393441032189 ) );
#493 = DIRECTION( '', ( 0.00000000000000, -1.00000000000000, 0.00000000000000 ) );
#494 = DIRECTION( '', ( 0.00000000000000, 0.00000000000000, -1.00000000000000 ) );
#495 = CARTESIAN_POINT( '', ( -0.00980000000000000, 0.0325000000000000, 0.0900000000000000 ) );
#496 = DIRECTION( '', ( 0.00000000000000, -1.00000000000000, 0.00000000000000 ) );
#497 = DIRECTION( '', ( 0.00000000000000, 0.00000000000000, -1.00000000000000 ) );
#498 = DIRECTION( '', ( 0.00000000000000, 1.00000000000000, 0.00000000000000 ) );
#499 = DIRECTION( '', ( 0.00000000000000, 1.00000000000000, 0.00000000000000 ) );
#500 = DIRECTION( '', ( 0.00000000000000, 1.00000000000000, 0.00000000000000 ) );
#501 = DIRECTION( '', ( 0.00000000000000, 1.00000000000000, 0.00000000000000 ) );
ENDSEC;
END-ISO-10303-21;
