ISO-10303-21;
HEADER;
/* Generated by software containing ST-Developer
 * from STEP Tools, Inc. (www.steptools.com) 
 */

FILE_DESCRIPTION(
/* description */ (''),
/* implementation_level */ '2;1');

FILE_NAME(
/* name */ 
'/var/folders/g3/8ws8g0395gq9zqwg1hdx_gch0000gn/T/com.autodesk.mas.fus
ion360/Neutron/614da1ac-f09f-45cc-917b-3f8a05f2ab31.stp',
/* time_stamp */ '2019-03-04T19:06:20+01:00',
/* author */ ('marcjaouen22'),
/* organization */ (''),
/* preprocessor_version */ 'ST-DEVELOPER v17.2',
/* originating_system */ 'Autodesk Translation Framework v7.6.0.251',
/* authorisation */ '');

FILE_SCHEMA (('AUTOMOTIVE_DESIGN { 1 0 10303 214 3 1 1 }'));
ENDSEC;

DATA;
#10=MECHANICAL_DESIGN_GEOMETRIC_PRESENTATION_REPRESENTATION('',(#13),#195);
#11=SHAPE_REPRESENTATION_RELATIONSHIP('SRR','None',#202,#12);
#12=ADVANCED_BREP_SHAPE_REPRESENTATION('',(#14),#194);
#13=STYLED_ITEM('',(#211),#14);
#14=MANIFOLD_SOLID_BREP('Body1',#104);
#15=FACE_BOUND('',#34,.T.);
#16=FACE_BOUND('',#38,.T.);
#17=FACE_BOUND('',#40,.T.);
#18=PLANE('',#123);
#19=PLANE('',#130);
#20=PLANE('',#131);
#21=CYLINDRICAL_SURFACE('',#121,20.43);
#22=CYLINDRICAL_SURFACE('',#125,8.);
#23=CYLINDRICAL_SURFACE('',#127,25.43);
#24=FACE_OUTER_BOUND('',#31,.T.);
#25=FACE_OUTER_BOUND('',#32,.T.);
#26=FACE_OUTER_BOUND('',#33,.T.);
#27=FACE_OUTER_BOUND('',#35,.T.);
#28=FACE_OUTER_BOUND('',#36,.T.);
#29=FACE_OUTER_BOUND('',#37,.T.);
#30=FACE_OUTER_BOUND('',#39,.T.);
#31=EDGE_LOOP('',(#74,#75,#76,#77));
#32=EDGE_LOOP('',(#78,#79,#80,#81));
#33=EDGE_LOOP('',(#82));
#34=EDGE_LOOP('',(#83));
#35=EDGE_LOOP('',(#84,#85,#86,#87));
#36=EDGE_LOOP('',(#88,#89,#90,#91));
#37=EDGE_LOOP('',(#92));
#38=EDGE_LOOP('',(#93));
#39=EDGE_LOOP('',(#94));
#40=EDGE_LOOP('',(#95));
#41=LINE('',#171,#45);
#42=LINE('',#175,#46);
#43=LINE('',#182,#47);
#44=LINE('',#188,#48);
#45=VECTOR('',#138,19.93);
#46=VECTOR('',#143,20.43);
#47=VECTOR('',#152,8.);
#48=VECTOR('',#159,25.43);
#49=CIRCLE('',#119,19.43);
#50=CIRCLE('',#120,20.43);
#51=CIRCLE('',#122,20.43);
#52=CIRCLE('',#124,8.);
#53=CIRCLE('',#126,8.);
#54=CIRCLE('',#128,25.43);
#55=CIRCLE('',#129,25.43);
#56=VERTEX_POINT('',#168);
#57=VERTEX_POINT('',#170);
#58=VERTEX_POINT('',#174);
#59=VERTEX_POINT('',#178);
#60=VERTEX_POINT('',#181);
#61=VERTEX_POINT('',#185);
#62=VERTEX_POINT('',#187);
#63=EDGE_CURVE('',#56,#56,#49,.T.);
#64=EDGE_CURVE('',#56,#57,#41,.T.);
#65=EDGE_CURVE('',#57,#57,#50,.T.);
#66=EDGE_CURVE('',#57,#58,#42,.T.);
#67=EDGE_CURVE('',#58,#58,#51,.T.);
#68=EDGE_CURVE('',#59,#59,#52,.T.);
#69=EDGE_CURVE('',#59,#60,#43,.T.);
#70=EDGE_CURVE('',#60,#60,#53,.T.);
#71=EDGE_CURVE('',#61,#61,#54,.T.);
#72=EDGE_CURVE('',#61,#62,#44,.T.);
#73=EDGE_CURVE('',#62,#62,#55,.T.);
#74=ORIENTED_EDGE('',*,*,#63,.T.);
#75=ORIENTED_EDGE('',*,*,#64,.T.);
#76=ORIENTED_EDGE('',*,*,#65,.T.);
#77=ORIENTED_EDGE('',*,*,#64,.F.);
#78=ORIENTED_EDGE('',*,*,#65,.F.);
#79=ORIENTED_EDGE('',*,*,#66,.T.);
#80=ORIENTED_EDGE('',*,*,#67,.F.);
#81=ORIENTED_EDGE('',*,*,#66,.F.);
#82=ORIENTED_EDGE('',*,*,#63,.F.);
#83=ORIENTED_EDGE('',*,*,#68,.T.);
#84=ORIENTED_EDGE('',*,*,#68,.F.);
#85=ORIENTED_EDGE('',*,*,#69,.T.);
#86=ORIENTED_EDGE('',*,*,#70,.F.);
#87=ORIENTED_EDGE('',*,*,#69,.F.);
#88=ORIENTED_EDGE('',*,*,#71,.F.);
#89=ORIENTED_EDGE('',*,*,#72,.T.);
#90=ORIENTED_EDGE('',*,*,#73,.T.);
#91=ORIENTED_EDGE('',*,*,#72,.F.);
#92=ORIENTED_EDGE('',*,*,#71,.T.);
#93=ORIENTED_EDGE('',*,*,#67,.T.);
#94=ORIENTED_EDGE('',*,*,#73,.F.);
#95=ORIENTED_EDGE('',*,*,#70,.T.);
#96=CONICAL_SURFACE('',#118,19.93,0.785398163397448);
#97=ADVANCED_FACE('',(#24),#96,.T.);
#98=ADVANCED_FACE('',(#25),#21,.T.);
#99=ADVANCED_FACE('',(#26,#15),#18,.T.);
#100=ADVANCED_FACE('',(#27),#22,.F.);
#101=ADVANCED_FACE('',(#28),#23,.T.);
#102=ADVANCED_FACE('',(#29,#16),#19,.T.);
#103=ADVANCED_FACE('',(#30,#17),#20,.F.);
#104=CLOSED_SHELL('',(#97,#98,#99,#100,#101,#102,#103));
#105=DERIVED_UNIT_ELEMENT(#107,1.);
#106=DERIVED_UNIT_ELEMENT(#197,3.);
#107=(
MASS_UNIT()
NAMED_UNIT(*)
SI_UNIT(.KILO.,.GRAM.)
);
#108=DERIVED_UNIT((#105,#106));
#109=MEASURE_REPRESENTATION_ITEM('density measure',
POSITIVE_RATIO_MEASURE(7850.),#108);
#110=PROPERTY_DEFINITION_REPRESENTATION(#115,#112);
#111=PROPERTY_DEFINITION_REPRESENTATION(#116,#113);
#112=REPRESENTATION('material name',(#114),#194);
#113=REPRESENTATION('density',(#109),#194);
#114=DESCRIPTIVE_REPRESENTATION_ITEM('Steel','Steel');
#115=PROPERTY_DEFINITION('material property','material name',#204);
#116=PROPERTY_DEFINITION('material property','density of part',#204);
#117=AXIS2_PLACEMENT_3D('placement',#166,#132,#133);
#118=AXIS2_PLACEMENT_3D('',#167,#134,#135);
#119=AXIS2_PLACEMENT_3D('',#169,#136,#137);
#120=AXIS2_PLACEMENT_3D('',#172,#139,#140);
#121=AXIS2_PLACEMENT_3D('',#173,#141,#142);
#122=AXIS2_PLACEMENT_3D('',#176,#144,#145);
#123=AXIS2_PLACEMENT_3D('',#177,#146,#147);
#124=AXIS2_PLACEMENT_3D('',#179,#148,#149);
#125=AXIS2_PLACEMENT_3D('',#180,#150,#151);
#126=AXIS2_PLACEMENT_3D('',#183,#153,#154);
#127=AXIS2_PLACEMENT_3D('',#184,#155,#156);
#128=AXIS2_PLACEMENT_3D('',#186,#157,#158);
#129=AXIS2_PLACEMENT_3D('',#189,#160,#161);
#130=AXIS2_PLACEMENT_3D('',#190,#162,#163);
#131=AXIS2_PLACEMENT_3D('',#191,#164,#165);
#132=DIRECTION('axis',(0.,0.,1.));
#133=DIRECTION('refdir',(1.,0.,0.));
#134=DIRECTION('center_axis',(0.,0.,-1.));
#135=DIRECTION('ref_axis',(-1.,0.,0.));
#136=DIRECTION('center_axis',(0.,0.,-1.));
#137=DIRECTION('ref_axis',(-1.,0.,0.));
#138=DIRECTION('',(0.707106781186547,8.65956056235493E-17,-0.707106781186547));
#139=DIRECTION('center_axis',(0.,0.,1.));
#140=DIRECTION('ref_axis',(-1.,0.,0.));
#141=DIRECTION('center_axis',(0.,0.,1.));
#142=DIRECTION('ref_axis',(-1.,0.,0.));
#143=DIRECTION('',(0.,0.,-1.));
#144=DIRECTION('center_axis',(0.,0.,-1.));
#145=DIRECTION('ref_axis',(-1.,0.,0.));
#146=DIRECTION('center_axis',(0.,0.,1.));
#147=DIRECTION('ref_axis',(-1.,0.,0.));
#148=DIRECTION('center_axis',(0.,0.,-1.));
#149=DIRECTION('ref_axis',(-1.,0.,0.));
#150=DIRECTION('center_axis',(0.,0.,-1.));
#151=DIRECTION('ref_axis',(-1.,0.,0.));
#152=DIRECTION('',(0.,0.,-1.));
#153=DIRECTION('center_axis',(0.,0.,1.));
#154=DIRECTION('ref_axis',(-1.,0.,0.));
#155=DIRECTION('center_axis',(0.,0.,1.));
#156=DIRECTION('ref_axis',(1.,0.,0.));
#157=DIRECTION('center_axis',(0.,0.,1.));
#158=DIRECTION('ref_axis',(1.,0.,0.));
#159=DIRECTION('',(0.,0.,-1.));
#160=DIRECTION('center_axis',(0.,0.,1.));
#161=DIRECTION('ref_axis',(1.,0.,0.));
#162=DIRECTION('center_axis',(0.,0.,1.));
#163=DIRECTION('ref_axis',(1.,0.,0.));
#164=DIRECTION('center_axis',(0.,0.,1.));
#165=DIRECTION('ref_axis',(1.,0.,0.));
#166=CARTESIAN_POINT('',(0.,0.,0.));
#167=CARTESIAN_POINT('Origin',(0.,0.,18.1));
#168=CARTESIAN_POINT('',(19.43,-2.37948873074331E-15,18.6));
#169=CARTESIAN_POINT('Origin',(0.,0.,18.6));
#170=CARTESIAN_POINT('',(20.43,2.50195341065804E-15,17.6));
#171=CARTESIAN_POINT('',(19.93,2.44072107070068E-15,18.1));
#172=CARTESIAN_POINT('Origin',(0.,0.,17.6));
#173=CARTESIAN_POINT('Origin',(0.,0.,5.8));
#174=CARTESIAN_POINT('',(20.43,2.50195341065804E-15,5.8));
#175=CARTESIAN_POINT('',(20.43,2.50195341065804E-15,5.8));
#176=CARTESIAN_POINT('Origin',(0.,0.,5.8));
#177=CARTESIAN_POINT('Origin',(0.,0.,18.6));
#178=CARTESIAN_POINT('',(8.,9.79717439317883E-16,18.6));
#179=CARTESIAN_POINT('Origin',(0.,0.,18.6));
#180=CARTESIAN_POINT('Origin',(0.,0.,18.6));
#181=CARTESIAN_POINT('',(8.,9.79717439317883E-16,0.));
#182=CARTESIAN_POINT('',(8.,-9.79717439317883E-16,18.6));
#183=CARTESIAN_POINT('Origin',(0.,0.,0.));
#184=CARTESIAN_POINT('Origin',(0.,0.,0.));
#185=CARTESIAN_POINT('',(-25.43,-3.11427681023172E-15,5.8));
#186=CARTESIAN_POINT('Origin',(0.,0.,5.8));
#187=CARTESIAN_POINT('',(-25.43,-3.11427681023172E-15,0.));
#188=CARTESIAN_POINT('',(-25.43,-3.11427681023172E-15,0.));
#189=CARTESIAN_POINT('Origin',(0.,0.,0.));
#190=CARTESIAN_POINT('Origin',(0.,0.,5.8));
#191=CARTESIAN_POINT('Origin',(0.,0.,0.));
#192=UNCERTAINTY_MEASURE_WITH_UNIT(LENGTH_MEASURE(0.01),#196,
'DISTANCE_ACCURACY_VALUE',
'Maximum model space distance between geometric entities at asserted c
onnectivities');
#193=UNCERTAINTY_MEASURE_WITH_UNIT(LENGTH_MEASURE(0.01),#196,
'DISTANCE_ACCURACY_VALUE',
'Maximum model space distance between geometric entities at asserted c
onnectivities');
#194=(
GEOMETRIC_REPRESENTATION_CONTEXT(3)
GLOBAL_UNCERTAINTY_ASSIGNED_CONTEXT((#192))
GLOBAL_UNIT_ASSIGNED_CONTEXT((#196,#198,#199))
REPRESENTATION_CONTEXT('','3D')
);
#195=(
GEOMETRIC_REPRESENTATION_CONTEXT(3)
GLOBAL_UNCERTAINTY_ASSIGNED_CONTEXT((#193))
GLOBAL_UNIT_ASSIGNED_CONTEXT((#196,#198,#199))
REPRESENTATION_CONTEXT('','3D')
);
#196=(
LENGTH_UNIT()
NAMED_UNIT(*)
SI_UNIT(.MILLI.,.METRE.)
);
#197=(
LENGTH_UNIT()
NAMED_UNIT(*)
SI_UNIT($,.METRE.)
);
#198=(
NAMED_UNIT(*)
PLANE_ANGLE_UNIT()
SI_UNIT($,.RADIAN.)
);
#199=(
NAMED_UNIT(*)
SI_UNIT($,.STERADIAN.)
SOLID_ANGLE_UNIT()
);
#200=SHAPE_DEFINITION_REPRESENTATION(#201,#202);
#201=PRODUCT_DEFINITION_SHAPE('',$,#204);
#202=SHAPE_REPRESENTATION('',(#117),#194);
#203=PRODUCT_DEFINITION_CONTEXT('part definition',#208,'design');
#204=PRODUCT_DEFINITION('cales triangles bx','cales triangles bx v1',#205,
#203);
#205=PRODUCT_DEFINITION_FORMATION('',$,#210);
#206=PRODUCT_RELATED_PRODUCT_CATEGORY('cales triangles bx v1',
'cales triangles bx v1',(#210));
#207=APPLICATION_PROTOCOL_DEFINITION('international standard',
'automotive_design',2009,#208);
#208=APPLICATION_CONTEXT(
'Core Data for Automotive Mechanical Design Process');
#209=PRODUCT_CONTEXT('part definition',#208,'mechanical');
#210=PRODUCT('cales triangles bx','cales triangles bx v1',$,(#209));
#211=PRESENTATION_STYLE_ASSIGNMENT((#212));
#212=SURFACE_STYLE_USAGE(.BOTH.,#213);
#213=SURFACE_SIDE_STYLE('',(#214));
#214=SURFACE_STYLE_FILL_AREA(#215);
#215=FILL_AREA_STYLE('Steel - Satin',(#216));
#216=FILL_AREA_STYLE_COLOUR('Steel - Satin',#217);
#217=COLOUR_RGB('Steel - Satin',0.627450980392157,0.627450980392157,0.627450980392157);
ENDSEC;
END-ISO-10303-21;
