ISO-10303-21;
HEADER;
FILE_DESCRIPTION(('CATIA V5 STEP Exchange'),'2;1');

FILE_NAME('C:\\Users\\Hugo\\Documents\\ESTACA\\association\\PV3e\\Ann\X2\00E9\X0\e 2018-2019\\Construction iDrogen\\trains roulants\\Format stp\\Bride ext axe arriere cote disque.stp','2019-03-02T16:40:49+00:00',('none'),('none'),'CATIA Version 5 Release 19 GA (IN-10)','CATIA V5 STEP AP203','none');

FILE_SCHEMA(('CONFIG_CONTROL_DESIGN'));

ENDSEC;
/* file written by CATIA V5R19 */
DATA;
#5=PRODUCT('Bride ext axe arriere cote disque','','',(#2)) ;
#1=APPLICATION_CONTEXT('configuration controlled 3D design of mechanical parts and assemblies') ;
#14=PRODUCT_DEFINITION('',' ',#6,#3) ;
#16=SECURITY_CLASSIFICATION(' ',' ',#15) ;
#15=SECURITY_CLASSIFICATION_LEVEL('unclassified') ;
#47=CARTESIAN_POINT(' ',(0.,0.,0.)) ;
#52=CARTESIAN_POINT('Axis2P3D Location',(1.,0.,0.)) ;
#57=CARTESIAN_POINT('Line Origine',(1.,-37.5,4.59227382683E-015)) ;
#61=CARTESIAN_POINT('Vertex',(0.,-37.5,4.59227382683E-015)) ;
#63=CARTESIAN_POINT('Vertex',(2.,-37.5,4.59227382683E-015)) ;
#66=CARTESIAN_POINT('Axis2P3D Location',(0.,0.,0.)) ;
#70=CARTESIAN_POINT('Vertex',(0.,37.5,0.)) ;
#73=CARTESIAN_POINT('Line Origine',(1.,37.5,-9.18454765367E-015)) ;
#77=CARTESIAN_POINT('Vertex',(2.,37.5,0.)) ;
#80=CARTESIAN_POINT('Axis2P3D Location',(2.,0.,0.)) ;
#92=CARTESIAN_POINT('Axis2P3D Location',(0.,0.,0.)) ;
#97=CARTESIAN_POINT('Axis2P3D Location',(2.,0.,0.)) ;
#109=CARTESIAN_POINT('Axis2P3D Location',(1.,0.,-30.)) ;
#114=CARTESIAN_POINT('Line Origine',(1.,-2.5,-30.)) ;
#118=CARTESIAN_POINT('Vertex',(0.,-2.5,-30.)) ;
#120=CARTESIAN_POINT('Vertex',(2.,-2.5,-30.)) ;
#123=CARTESIAN_POINT('Axis2P3D Location',(0.,0.,-30.)) ;
#127=CARTESIAN_POINT('Vertex',(0.,2.5,-30.)) ;
#130=CARTESIAN_POINT('Line Origine',(1.,2.5,-30.)) ;
#134=CARTESIAN_POINT('Vertex',(2.,2.5,-30.)) ;
#137=CARTESIAN_POINT('Axis2P3D Location',(2.,0.,-30.)) ;
#149=CARTESIAN_POINT('Axis2P3D Location',(0.,0.,-30.)) ;
#154=CARTESIAN_POINT('Axis2P3D Location',(2.,0.,-30.)) ;
#166=CARTESIAN_POINT('Axis2P3D Location',(2.,0.,0.)) ;
#175=CARTESIAN_POINT('Axis2P3D Location',(2.,28.5316954889,-9.27050983125)) ;
#179=CARTESIAN_POINT('Vertex',(2.,27.7591530029,-11.648151122)) ;
#181=CARTESIAN_POINT('Vertex',(2.,29.3042379748,-6.89286854051)) ;
#184=CARTESIAN_POINT('Axis2P3D Location',(2.,28.5316954889,-9.27050983125)) ;
#197=CARTESIAN_POINT('Axis2P3D Location',(2.,0.,0.)) ;
#201=CARTESIAN_POINT('Vertex',(2.,3.74,-9.16005552659E-016)) ;
#203=CARTESIAN_POINT('Vertex',(2.,-3.74,4.5800277633E-016)) ;
#206=CARTESIAN_POINT('Axis2P3D Location',(2.,0.,0.)) ;
#215=CARTESIAN_POINT('Axis2P3D Location',(2.,17.6335575688,24.2705098312)) ;
#219=CARTESIAN_POINT('Vertex',(2.,19.6561000547,22.8010467005)) ;
#221=CARTESIAN_POINT('Vertex',(2.,15.6110150828,25.739972962)) ;
#224=CARTESIAN_POINT('Axis2P3D Location',(2.,17.6335575688,24.2705098312)) ;
#233=CARTESIAN_POINT('Axis2P3D Location',(2.,-17.6335575688,24.2705098312)) ;
#237=CARTESIAN_POINT('Vertex',(2.,-15.6110150828,25.739972962)) ;
#239=CARTESIAN_POINT('Vertex',(2.,-19.6561000547,22.8010467005)) ;
#242=CARTESIAN_POINT('Axis2P3D Location',(2.,-17.6335575688,24.2705098312)) ;
#251=CARTESIAN_POINT('Axis2P3D Location',(2.,-28.5316954889,-9.27050983125)) ;
#255=CARTESIAN_POINT('Vertex',(2.,-29.3042379748,-6.89286854051)) ;
#257=CARTESIAN_POINT('Vertex',(2.,-27.7591530029,-11.648151122)) ;
#260=CARTESIAN_POINT('Axis2P3D Location',(2.,-28.5316954889,-9.27050983125)) ;
#270=CARTESIAN_POINT('Axis2P3D Location',(0.,0.,0.)) ;
#279=CARTESIAN_POINT('Axis2P3D Location',(0.,28.5316954889,-9.27050983125)) ;
#283=CARTESIAN_POINT('Vertex',(-4.4408920985E-016,29.3042379748,-6.89286854051)) ;
#285=CARTESIAN_POINT('Vertex',(-4.4408920985E-016,27.7591530029,-11.648151122)) ;
#288=CARTESIAN_POINT('Axis2P3D Location',(0.,28.5316954889,-9.27050983125)) ;
#301=CARTESIAN_POINT('Axis2P3D Location',(0.,17.6335575688,24.2705098312)) ;
#305=CARTESIAN_POINT('Vertex',(-2.22044604925E-016,15.6110150828,25.739972962)) ;
#307=CARTESIAN_POINT('Vertex',(-2.22044604925E-016,19.6561000547,22.8010467005)) ;
#310=CARTESIAN_POINT('Axis2P3D Location',(0.,17.6335575688,24.2705098312)) ;
#319=CARTESIAN_POINT('Axis2P3D Location',(0.,-17.6335575688,24.2705098312)) ;
#323=CARTESIAN_POINT('Vertex',(0.,-19.6561000547,22.8010467005)) ;
#325=CARTESIAN_POINT('Vertex',(0.,-15.6110150828,25.739972962)) ;
#328=CARTESIAN_POINT('Axis2P3D Location',(0.,-17.6335575688,24.2705098312)) ;
#337=CARTESIAN_POINT('Axis2P3D Location',(0.,-28.5316954889,-9.27050983125)) ;
#341=CARTESIAN_POINT('Vertex',(0.,-27.7591530029,-11.648151122)) ;
#343=CARTESIAN_POINT('Vertex',(0.,-29.3042379748,-6.89286854051)) ;
#346=CARTESIAN_POINT('Axis2P3D Location',(0.,-28.5316954889,-9.27050983125)) ;
#356=CARTESIAN_POINT('Axis2P3D Location',(1.,28.5316954889,-9.27050983125)) ;
#361=CARTESIAN_POINT('Line Origine',(1.,27.7591530029,-11.648151122)) ;
#366=CARTESIAN_POINT('Line Origine',(1.,29.3042379748,-6.89286854051)) ;
#385=CARTESIAN_POINT('Axis2P3D Location',(1.,17.6335575688,24.2705098312)) ;
#390=CARTESIAN_POINT('Line Origine',(1.,19.6561000547,22.8010467005)) ;
#395=CARTESIAN_POINT('Line Origine',(1.,15.6110150828,25.739972962)) ;
#414=CARTESIAN_POINT('Axis2P3D Location',(1.,-17.6335575688,24.2705098312)) ;
#419=CARTESIAN_POINT('Line Origine',(1.,-15.6110150828,25.739972962)) ;
#424=CARTESIAN_POINT('Line Origine',(1.,-19.6561000547,22.8010467005)) ;
#443=CARTESIAN_POINT('Axis2P3D Location',(1.,-28.5316954889,-9.27050983125)) ;
#448=CARTESIAN_POINT('Line Origine',(1.,-29.3042379748,-6.89286854051)) ;
#453=CARTESIAN_POINT('Line Origine',(1.,-27.7591530029,-11.648151122)) ;
#472=CARTESIAN_POINT('Axis2P3D Location',(3.75,0.,0.)) ;
#477=CARTESIAN_POINT('Line Origine',(3.75,3.74,0.)) ;
#481=CARTESIAN_POINT('Vertex',(5.25,3.74,-9.16005552659E-016)) ;
#484=CARTESIAN_POINT('Line Origine',(3.75,-3.74,4.5800277633E-016)) ;
#488=CARTESIAN_POINT('Vertex',(5.25,-3.74,4.5800277633E-016)) ;
#491=CARTESIAN_POINT('Axis2P3D Location',(5.25,0.,0.)) ;
#503=CARTESIAN_POINT('Axis2P3D Location',(5.25,0.,0.)) ;
#515=CARTESIAN_POINT('Axis2P3D Location',(5.5,0.,0.)) ;
#520=CARTESIAN_POINT('Axis2P3D Location',(5.5,-4.39284025822E-014,-1.67837965748E-013)) ;
#524=CARTESIAN_POINT('Vertex',(5.5,-3.49,3.63799943297E-007)) ;
#526=CARTESIAN_POINT('Vertex',(5.5,3.49,1.79310667877E-015)) ;
#529=CARTESIAN_POINT('Axis2P3D Location',(5.5,-9.64332780296E-015,3.60822483003E-016)) ;
#539=CARTESIAN_POINT('Axis2P3D Location',(8.99,3.32178728968E-014,-3.96798593983E-012)) ;
#544=CARTESIAN_POINT('Line Origine',(5.375,-3.615,7.94468935087E-013)) ;
#549=CARTESIAN_POINT('Line Origine',(5.375,3.615,7.9324768976E-013)) ;
#561=CARTESIAN_POINT('Axis2P3D Location',(8.99,2.29425367593E-013,7.97450994128E-013)) ;
#53=DIRECTION('Axis2P3D Direction',(1.,0.,0.)) ;
#54=DIRECTION('Axis2P3D XDirection',(0.,1.,0.)) ;
#58=DIRECTION('Vector Direction',(1.,0.,0.)) ;
#67=DIRECTION('Axis2P3D Direction',(1.,0.,0.)) ;
#74=DIRECTION('Vector Direction',(1.,0.,0.)) ;
#81=DIRECTION('Axis2P3D Direction',(1.,0.,0.)) ;
#93=DIRECTION('Axis2P3D Direction',(1.,0.,0.)) ;
#98=DIRECTION('Axis2P3D Direction',(1.,0.,0.)) ;
#110=DIRECTION('Axis2P3D Direction',(-1.,0.,0.)) ;
#111=DIRECTION('Axis2P3D XDirection',(0.,-1.,0.)) ;
#115=DIRECTION('Vector Direction',(-1.,0.,0.)) ;
#124=DIRECTION('Axis2P3D Direction',(-1.,0.,0.)) ;
#131=DIRECTION('Vector Direction',(-1.,0.,0.)) ;
#138=DIRECTION('Axis2P3D Direction',(-1.,0.,0.)) ;
#150=DIRECTION('Axis2P3D Direction',(-1.,0.,0.)) ;
#155=DIRECTION('Axis2P3D Direction',(-1.,0.,0.)) ;
#167=DIRECTION('Axis2P3D Direction',(1.,0.,0.)) ;
#168=DIRECTION('Axis2P3D XDirection',(0.,1.,0.)) ;
#176=DIRECTION('Axis2P3D Direction',(1.,0.,0.)) ;
#185=DIRECTION('Axis2P3D Direction',(1.,0.,0.)) ;
#198=DIRECTION('Axis2P3D Direction',(1.,0.,0.)) ;
#207=DIRECTION('Axis2P3D Direction',(1.,0.,0.)) ;
#216=DIRECTION('Axis2P3D Direction',(1.,0.,0.)) ;
#225=DIRECTION('Axis2P3D Direction',(1.,0.,0.)) ;
#234=DIRECTION('Axis2P3D Direction',(1.,0.,0.)) ;
#243=DIRECTION('Axis2P3D Direction',(1.,0.,0.)) ;
#252=DIRECTION('Axis2P3D Direction',(1.,0.,0.)) ;
#261=DIRECTION('Axis2P3D Direction',(1.,0.,0.)) ;
#271=DIRECTION('Axis2P3D Direction',(1.,0.,0.)) ;
#272=DIRECTION('Axis2P3D XDirection',(0.,1.,0.)) ;
#280=DIRECTION('Axis2P3D Direction',(1.,0.,0.)) ;
#289=DIRECTION('Axis2P3D Direction',(1.,0.,0.)) ;
#302=DIRECTION('Axis2P3D Direction',(1.,0.,0.)) ;
#311=DIRECTION('Axis2P3D Direction',(1.,0.,0.)) ;
#320=DIRECTION('Axis2P3D Direction',(1.,0.,0.)) ;
#329=DIRECTION('Axis2P3D Direction',(1.,0.,0.)) ;
#338=DIRECTION('Axis2P3D Direction',(1.,0.,0.)) ;
#347=DIRECTION('Axis2P3D Direction',(1.,0.,0.)) ;
#357=DIRECTION('Axis2P3D Direction',(-1.,-0.,0.)) ;
#358=DIRECTION('Axis2P3D XDirection',(0.,-0.309016994375,-0.951056516295)) ;
#362=DIRECTION('Vector Direction',(-1.,0.,0.)) ;
#367=DIRECTION('Vector Direction',(-1.,0.,0.)) ;
#386=DIRECTION('Axis2P3D Direction',(-1.,0.,-0.)) ;
#387=DIRECTION('Axis2P3D XDirection',(0.,0.809016994375,-0.587785252292)) ;
#391=DIRECTION('Vector Direction',(-1.,0.,0.)) ;
#396=DIRECTION('Vector Direction',(-1.,0.,0.)) ;
#415=DIRECTION('Axis2P3D Direction',(-1.,0.,0.)) ;
#416=DIRECTION('Axis2P3D XDirection',(0.,0.809016994375,0.587785252292)) ;
#420=DIRECTION('Vector Direction',(-1.,0.,0.)) ;
#425=DIRECTION('Vector Direction',(-1.,0.,0.)) ;
#444=DIRECTION('Axis2P3D Direction',(-1.,0.,0.)) ;
#445=DIRECTION('Axis2P3D XDirection',(0.,-0.309016994375,0.951056516295)) ;
#449=DIRECTION('Vector Direction',(-1.,0.,0.)) ;
#454=DIRECTION('Vector Direction',(-1.,0.,0.)) ;
#473=DIRECTION('Axis2P3D Direction',(1.,0.,0.)) ;
#474=DIRECTION('Axis2P3D XDirection',(0.,1.,0.)) ;
#478=DIRECTION('Vector Direction',(1.,0.,0.)) ;
#485=DIRECTION('Vector Direction',(1.,0.,0.)) ;
#492=DIRECTION('Axis2P3D Direction',(1.,0.,0.)) ;
#504=DIRECTION('Axis2P3D Direction',(1.,0.,0.)) ;
#516=DIRECTION('Axis2P3D Direction',(1.,0.,0.)) ;
#517=DIRECTION('Axis2P3D XDirection',(0.,1.,0.)) ;
#521=DIRECTION('Axis2P3D Direction',(1.,0.,0.)) ;
#530=DIRECTION('Axis2P3D Direction',(1.,0.,0.)) ;
#540=DIRECTION('Axis2P3D Direction',(-1.,-8.881784197E-015,1.06092912233E-012)) ;
#541=DIRECTION('Axis2P3D XDirection',(5.25650226272E-013,-0.872772948888,0.488126397246)) ;
#545=DIRECTION('Vector Direction',(-0.707106781187,-0.707106781186,9.31692864983E-013)) ;
#550=DIRECTION('Vector Direction',(-0.707106781187,0.707106781186,9.31064828E-013)) ;
#562=DIRECTION('Axis2P3D Direction',(-1.,-6.12843109593E-014,-2.13162820728E-013)) ;
#563=DIRECTION('Axis2P3D XDirection',(-6.12446392424E-014,1.,1.86010245748E-018)) ;
#48=AXIS2_PLACEMENT_3D(' ',#47,$,$) ;
#55=AXIS2_PLACEMENT_3D('Cylinder Axis2P3D',#52,#53,#54) ;
#68=AXIS2_PLACEMENT_3D('Circle Axis2P3D',#66,#67,$) ;
#82=AXIS2_PLACEMENT_3D('Circle Axis2P3D',#80,#81,$) ;
#94=AXIS2_PLACEMENT_3D('Circle Axis2P3D',#92,#93,$) ;
#99=AXIS2_PLACEMENT_3D('Circle Axis2P3D',#97,#98,$) ;
#112=AXIS2_PLACEMENT_3D('Cylinder Axis2P3D',#109,#110,#111) ;
#125=AXIS2_PLACEMENT_3D('Circle Axis2P3D',#123,#124,$) ;
#139=AXIS2_PLACEMENT_3D('Circle Axis2P3D',#137,#138,$) ;
#151=AXIS2_PLACEMENT_3D('Circle Axis2P3D',#149,#150,$) ;
#156=AXIS2_PLACEMENT_3D('Circle Axis2P3D',#154,#155,$) ;
#169=AXIS2_PLACEMENT_3D('Plane Axis2P3D',#166,#167,#168) ;
#177=AXIS2_PLACEMENT_3D('Circle Axis2P3D',#175,#176,$) ;
#186=AXIS2_PLACEMENT_3D('Circle Axis2P3D',#184,#185,$) ;
#199=AXIS2_PLACEMENT_3D('Circle Axis2P3D',#197,#198,$) ;
#208=AXIS2_PLACEMENT_3D('Circle Axis2P3D',#206,#207,$) ;
#217=AXIS2_PLACEMENT_3D('Circle Axis2P3D',#215,#216,$) ;
#226=AXIS2_PLACEMENT_3D('Circle Axis2P3D',#224,#225,$) ;
#235=AXIS2_PLACEMENT_3D('Circle Axis2P3D',#233,#234,$) ;
#244=AXIS2_PLACEMENT_3D('Circle Axis2P3D',#242,#243,$) ;
#253=AXIS2_PLACEMENT_3D('Circle Axis2P3D',#251,#252,$) ;
#262=AXIS2_PLACEMENT_3D('Circle Axis2P3D',#260,#261,$) ;
#273=AXIS2_PLACEMENT_3D('Plane Axis2P3D',#270,#271,#272) ;
#281=AXIS2_PLACEMENT_3D('Circle Axis2P3D',#279,#280,$) ;
#290=AXIS2_PLACEMENT_3D('Circle Axis2P3D',#288,#289,$) ;
#303=AXIS2_PLACEMENT_3D('Circle Axis2P3D',#301,#302,$) ;
#312=AXIS2_PLACEMENT_3D('Circle Axis2P3D',#310,#311,$) ;
#321=AXIS2_PLACEMENT_3D('Circle Axis2P3D',#319,#320,$) ;
#330=AXIS2_PLACEMENT_3D('Circle Axis2P3D',#328,#329,$) ;
#339=AXIS2_PLACEMENT_3D('Circle Axis2P3D',#337,#338,$) ;
#348=AXIS2_PLACEMENT_3D('Circle Axis2P3D',#346,#347,$) ;
#359=AXIS2_PLACEMENT_3D('Cylinder Axis2P3D',#356,#357,#358) ;
#388=AXIS2_PLACEMENT_3D('Cylinder Axis2P3D',#385,#386,#387) ;
#417=AXIS2_PLACEMENT_3D('Cylinder Axis2P3D',#414,#415,#416) ;
#446=AXIS2_PLACEMENT_3D('Cylinder Axis2P3D',#443,#444,#445) ;
#475=AXIS2_PLACEMENT_3D('Cylinder Axis2P3D',#472,#473,#474) ;
#493=AXIS2_PLACEMENT_3D('Circle Axis2P3D',#491,#492,$) ;
#505=AXIS2_PLACEMENT_3D('Circle Axis2P3D',#503,#504,$) ;
#518=AXIS2_PLACEMENT_3D('Plane Axis2P3D',#515,#516,#517) ;
#522=AXIS2_PLACEMENT_3D('Circle Axis2P3D',#520,#521,$) ;
#531=AXIS2_PLACEMENT_3D('Circle Axis2P3D',#529,#530,$) ;
#542=AXIS2_PLACEMENT_3D('Cone Axis2P3D',#539,#540,#541) ;
#564=AXIS2_PLACEMENT_3D('Cone Axis2P3D',#561,#562,#563) ;
#40=PRODUCT_DEFINITION_SHAPE(' ',' ',#14) ;
#31=APPROVAL_PERSON_ORGANIZATION(#25,#21,#19) ;
#25=PERSON_AND_ORGANIZATION(#22,#23) ;
#22=PERSON(' ',' ',' ',$,$,$) ;
#23=ORGANIZATION(' ',' ',' ') ;
#21=APPROVAL(#20,' ') ;
#20=APPROVAL_STATUS('not_yet_approved') ;
#19=APPROVAL_ROLE('APPROVER') ;
#13=DATE_AND_TIME(#11,#12) ;
#12=LOCAL_TIME(17,40,49.,#10) ;
#10=COORDINATED_UNIVERSAL_TIME_OFFSET(0,0,.AHEAD.) ;
#86=ORIENTED_EDGE('',*,*,#65,.F.) ;
#87=ORIENTED_EDGE('',*,*,#72,.T.) ;
#88=ORIENTED_EDGE('',*,*,#79,.T.) ;
#89=ORIENTED_EDGE('',*,*,#84,.F.) ;
#103=ORIENTED_EDGE('',*,*,#79,.F.) ;
#104=ORIENTED_EDGE('',*,*,#96,.T.) ;
#105=ORIENTED_EDGE('',*,*,#65,.T.) ;
#106=ORIENTED_EDGE('',*,*,#101,.F.) ;
#143=ORIENTED_EDGE('',*,*,#122,.F.) ;
#144=ORIENTED_EDGE('',*,*,#129,.T.) ;
#145=ORIENTED_EDGE('',*,*,#136,.T.) ;
#146=ORIENTED_EDGE('',*,*,#141,.F.) ;
#160=ORIENTED_EDGE('',*,*,#136,.F.) ;
#161=ORIENTED_EDGE('',*,*,#153,.T.) ;
#162=ORIENTED_EDGE('',*,*,#122,.T.) ;
#163=ORIENTED_EDGE('',*,*,#158,.F.) ;
#172=ORIENTED_EDGE('',*,*,#101,.T.) ;
#173=ORIENTED_EDGE('',*,*,#84,.T.) ;
#190=ORIENTED_EDGE('',*,*,#183,.T.) ;
#191=ORIENTED_EDGE('',*,*,#188,.T.) ;
#194=ORIENTED_EDGE('',*,*,#141,.T.) ;
#195=ORIENTED_EDGE('',*,*,#158,.T.) ;
#212=ORIENTED_EDGE('',*,*,#205,.F.) ;
#213=ORIENTED_EDGE('',*,*,#210,.F.) ;
#230=ORIENTED_EDGE('',*,*,#223,.T.) ;
#231=ORIENTED_EDGE('',*,*,#228,.T.) ;
#248=ORIENTED_EDGE('',*,*,#241,.T.) ;
#249=ORIENTED_EDGE('',*,*,#246,.T.) ;
#266=ORIENTED_EDGE('',*,*,#259,.T.) ;
#267=ORIENTED_EDGE('',*,*,#264,.T.) ;
#276=ORIENTED_EDGE('',*,*,#72,.F.) ;
#277=ORIENTED_EDGE('',*,*,#96,.F.) ;
#294=ORIENTED_EDGE('',*,*,#287,.F.) ;
#295=ORIENTED_EDGE('',*,*,#292,.F.) ;
#298=ORIENTED_EDGE('',*,*,#153,.F.) ;
#299=ORIENTED_EDGE('',*,*,#129,.F.) ;
#316=ORIENTED_EDGE('',*,*,#309,.F.) ;
#317=ORIENTED_EDGE('',*,*,#314,.F.) ;
#334=ORIENTED_EDGE('',*,*,#327,.F.) ;
#335=ORIENTED_EDGE('',*,*,#332,.F.) ;
#352=ORIENTED_EDGE('',*,*,#345,.F.) ;
#353=ORIENTED_EDGE('',*,*,#350,.F.) ;
#372=ORIENTED_EDGE('',*,*,#365,.F.) ;
#373=ORIENTED_EDGE('',*,*,#292,.T.) ;
#374=ORIENTED_EDGE('',*,*,#370,.T.) ;
#375=ORIENTED_EDGE('',*,*,#183,.F.) ;
#379=ORIENTED_EDGE('',*,*,#370,.F.) ;
#380=ORIENTED_EDGE('',*,*,#287,.T.) ;
#381=ORIENTED_EDGE('',*,*,#365,.T.) ;
#382=ORIENTED_EDGE('',*,*,#188,.F.) ;
#401=ORIENTED_EDGE('',*,*,#394,.F.) ;
#402=ORIENTED_EDGE('',*,*,#314,.T.) ;
#403=ORIENTED_EDGE('',*,*,#399,.T.) ;
#404=ORIENTED_EDGE('',*,*,#223,.F.) ;
#408=ORIENTED_EDGE('',*,*,#399,.F.) ;
#409=ORIENTED_EDGE('',*,*,#309,.T.) ;
#410=ORIENTED_EDGE('',*,*,#394,.T.) ;
#411=ORIENTED_EDGE('',*,*,#228,.F.) ;
#430=ORIENTED_EDGE('',*,*,#423,.F.) ;
#431=ORIENTED_EDGE('',*,*,#332,.T.) ;
#432=ORIENTED_EDGE('',*,*,#428,.T.) ;
#433=ORIENTED_EDGE('',*,*,#241,.F.) ;
#437=ORIENTED_EDGE('',*,*,#428,.F.) ;
#438=ORIENTED_EDGE('',*,*,#327,.T.) ;
#439=ORIENTED_EDGE('',*,*,#423,.T.) ;
#440=ORIENTED_EDGE('',*,*,#246,.F.) ;
#459=ORIENTED_EDGE('',*,*,#452,.F.) ;
#460=ORIENTED_EDGE('',*,*,#350,.T.) ;
#461=ORIENTED_EDGE('',*,*,#457,.T.) ;
#462=ORIENTED_EDGE('',*,*,#259,.F.) ;
#466=ORIENTED_EDGE('',*,*,#457,.F.) ;
#467=ORIENTED_EDGE('',*,*,#345,.T.) ;
#468=ORIENTED_EDGE('',*,*,#452,.T.) ;
#469=ORIENTED_EDGE('',*,*,#264,.F.) ;
#497=ORIENTED_EDGE('',*,*,#483,.F.) ;
#498=ORIENTED_EDGE('',*,*,#205,.T.) ;
#499=ORIENTED_EDGE('',*,*,#490,.T.) ;
#500=ORIENTED_EDGE('',*,*,#495,.F.) ;
#509=ORIENTED_EDGE('',*,*,#490,.F.) ;
#510=ORIENTED_EDGE('',*,*,#210,.T.) ;
#511=ORIENTED_EDGE('',*,*,#483,.T.) ;
#512=ORIENTED_EDGE('',*,*,#507,.F.) ;
#535=ORIENTED_EDGE('',*,*,#528,.T.) ;
#536=ORIENTED_EDGE('',*,*,#533,.T.) ;
#555=ORIENTED_EDGE('',*,*,#548,.T.) ;
#556=ORIENTED_EDGE('',*,*,#507,.T.) ;
#557=ORIENTED_EDGE('',*,*,#553,.F.) ;
#558=ORIENTED_EDGE('',*,*,#528,.F.) ;
#567=ORIENTED_EDGE('',*,*,#553,.T.) ;
#568=ORIENTED_EDGE('',*,*,#495,.T.) ;
#569=ORIENTED_EDGE('',*,*,#548,.F.) ;
#570=ORIENTED_EDGE('',*,*,#533,.F.) ;
#192=FACE_BOUND('',#189,.T.) ;
#196=FACE_BOUND('',#193,.T.) ;
#214=FACE_BOUND('',#211,.T.) ;
#232=FACE_BOUND('',#229,.T.) ;
#250=FACE_BOUND('',#247,.T.) ;
#268=FACE_BOUND('',#265,.T.) ;
#296=FACE_BOUND('',#293,.T.) ;
#300=FACE_BOUND('',#297,.T.) ;
#318=FACE_BOUND('',#315,.T.) ;
#336=FACE_BOUND('',#333,.T.) ;
#354=FACE_BOUND('',#351,.T.) ;
#51=CLOSED_SHELL('Closed Shell',(#91,#108,#148,#165,#269,#355,#377,#384,#406,#413,#435,#442,#464,#471,#502,#514,#538,#560,#572)) ;
#59=VECTOR('Line Direction',#58,1.) ;
#75=VECTOR('Line Direction',#74,1.) ;
#116=VECTOR('Line Direction',#115,1.) ;
#132=VECTOR('Line Direction',#131,1.) ;
#363=VECTOR('Line Direction',#362,1.) ;
#368=VECTOR('Line Direction',#367,1.) ;
#392=VECTOR('Line Direction',#391,1.) ;
#397=VECTOR('Line Direction',#396,1.) ;
#421=VECTOR('Line Direction',#420,1.) ;
#426=VECTOR('Line Direction',#425,1.) ;
#450=VECTOR('Line Direction',#449,1.) ;
#455=VECTOR('Line Direction',#454,1.) ;
#479=VECTOR('Line Direction',#478,1.) ;
#486=VECTOR('Line Direction',#485,1.) ;
#546=VECTOR('Line Direction',#545,1.) ;
#551=VECTOR('Line Direction',#550,1.) ;
#574=ADVANCED_BREP_SHAPE_REPRESENTATION('NONE',(#573),#46) ;
#49=SHAPE_REPRESENTATION(' ',(#48),#46) ;
#91=ADVANCED_FACE('Corps principal',(#90),#56,.T.) ;
#108=ADVANCED_FACE('Corps principal',(#107),#56,.T.) ;
#148=ADVANCED_FACE('Corps principal',(#147),#113,.F.) ;
#165=ADVANCED_FACE('Corps principal',(#164),#113,.F.) ;
#269=ADVANCED_FACE('Corps principal',(#174,#192,#196,#214,#232,#250,#268),#170,.T.) ;
#355=ADVANCED_FACE('Corps principal',(#278,#296,#300,#318,#336,#354),#274,.F.) ;
#377=ADVANCED_FACE('Corps principal',(#376),#360,.F.) ;
#384=ADVANCED_FACE('Corps principal',(#383),#360,.F.) ;
#406=ADVANCED_FACE('Corps principal',(#405),#389,.F.) ;
#413=ADVANCED_FACE('Corps principal',(#412),#389,.F.) ;
#435=ADVANCED_FACE('Corps principal',(#434),#418,.F.) ;
#442=ADVANCED_FACE('Corps principal',(#441),#418,.F.) ;
#464=ADVANCED_FACE('Corps principal',(#463),#447,.F.) ;
#471=ADVANCED_FACE('Corps principal',(#470),#447,.F.) ;
#502=ADVANCED_FACE('Corps principal',(#501),#476,.T.) ;
#514=ADVANCED_FACE('Corps principal',(#513),#476,.T.) ;
#538=ADVANCED_FACE('Corps principal',(#537),#519,.T.) ;
#560=ADVANCED_FACE('Corps principal',(#559),#543,.T.) ;
#572=ADVANCED_FACE('Corps principal',(#571),#565,.T.) ;
#4=APPLICATION_PROTOCOL_DEFINITION('international standard','config_control_design',1994,#1) ;
#32=APPROVAL_DATE_TIME(#13,#21) ;
#573=MANIFOLD_SOLID_BREP('Corps principal',#51) ;
#11=CALENDAR_DATE(2019,2,3) ;
#30=CC_DESIGN_APPROVAL(#21,(#16,#6,#14)) ;
#18=CC_DESIGN_DATE_AND_TIME_ASSIGNMENT(#13,#17,(#16)) ;
#29=CC_DESIGN_DATE_AND_TIME_ASSIGNMENT(#13,#28,(#14)) ;
#17=DATE_TIME_ROLE('classification_date') ;
#28=DATE_TIME_ROLE('creation_date') ;
#27=CC_DESIGN_PERSON_AND_ORGANIZATION_ASSIGNMENT(#25,#26,(#16)) ;
#33=CC_DESIGN_PERSON_AND_ORGANIZATION_ASSIGNMENT(#25,#34,(#6)) ;
#35=CC_DESIGN_PERSON_AND_ORGANIZATION_ASSIGNMENT(#25,#36,(#6,#14)) ;
#37=CC_DESIGN_PERSON_AND_ORGANIZATION_ASSIGNMENT(#25,#38,(#5)) ;
#26=PERSON_AND_ORGANIZATION_ROLE('classification_officer') ;
#34=PERSON_AND_ORGANIZATION_ROLE('design_supplier') ;
#36=PERSON_AND_ORGANIZATION_ROLE('creator') ;
#38=PERSON_AND_ORGANIZATION_ROLE('design_owner') ;
#39=CC_DESIGN_SECURITY_CLASSIFICATION(#16,(#6)) ;
#69=CIRCLE('generated circle',#68,37.5) ;
#83=CIRCLE('generated circle',#82,37.5) ;
#95=CIRCLE('generated circle',#94,37.5) ;
#100=CIRCLE('generated circle',#99,37.5) ;
#126=CIRCLE('generated circle',#125,2.5) ;
#140=CIRCLE('generated circle',#139,2.5) ;
#152=CIRCLE('generated circle',#151,2.5) ;
#157=CIRCLE('generated circle',#156,2.5) ;
#178=CIRCLE('generated circle',#177,2.5) ;
#187=CIRCLE('generated circle',#186,2.5) ;
#200=CIRCLE('generated circle',#199,3.74) ;
#209=CIRCLE('generated circle',#208,3.74) ;
#218=CIRCLE('generated circle',#217,2.5) ;
#227=CIRCLE('generated circle',#226,2.5) ;
#236=CIRCLE('generated circle',#235,2.5) ;
#245=CIRCLE('generated circle',#244,2.5) ;
#254=CIRCLE('generated circle',#253,2.5) ;
#263=CIRCLE('generated circle',#262,2.5) ;
#282=CIRCLE('generated circle',#281,2.5) ;
#291=CIRCLE('generated circle',#290,2.5) ;
#304=CIRCLE('generated circle',#303,2.5) ;
#313=CIRCLE('generated circle',#312,2.5) ;
#322=CIRCLE('generated circle',#321,2.5) ;
#331=CIRCLE('generated circle',#330,2.5) ;
#340=CIRCLE('generated circle',#339,2.5) ;
#349=CIRCLE('generated circle',#348,2.5) ;
#494=CIRCLE('generated circle',#493,3.74) ;
#506=CIRCLE('generated circle',#505,3.74) ;
#523=CIRCLE('generated circle',#522,3.49) ;
#532=CIRCLE('generated circle',#531,3.49) ;
#543=CONICAL_SURFACE('Cone',#542,0.,0.785398163397) ;
#565=CONICAL_SURFACE('Cone',#564,0.,0.785398163397) ;
#575=SHAPE_REPRESENTATION_RELATIONSHIP(' ',' ',#49,#574) ;
#56=CYLINDRICAL_SURFACE('generated cylinder',#55,37.5) ;
#113=CYLINDRICAL_SURFACE('generated cylinder',#112,2.5) ;
#360=CYLINDRICAL_SURFACE('generated cylinder',#359,2.5) ;
#389=CYLINDRICAL_SURFACE('generated cylinder',#388,2.5) ;
#418=CYLINDRICAL_SURFACE('generated cylinder',#417,2.5) ;
#447=CYLINDRICAL_SURFACE('generated cylinder',#446,2.5) ;
#476=CYLINDRICAL_SURFACE('generated cylinder',#475,3.74) ;
#3=DESIGN_CONTEXT(' ',#1,'design') ;
#65=EDGE_CURVE('',#62,#64,#60,.T.) ;
#72=EDGE_CURVE('',#62,#71,#69,.T.) ;
#79=EDGE_CURVE('',#71,#78,#76,.T.) ;
#84=EDGE_CURVE('',#64,#78,#83,.T.) ;
#96=EDGE_CURVE('',#71,#62,#95,.T.) ;
#101=EDGE_CURVE('',#78,#64,#100,.T.) ;
#122=EDGE_CURVE('',#119,#121,#117,.F.) ;
#129=EDGE_CURVE('',#119,#128,#126,.T.) ;
#136=EDGE_CURVE('',#128,#135,#133,.F.) ;
#141=EDGE_CURVE('',#121,#135,#140,.T.) ;
#153=EDGE_CURVE('',#128,#119,#152,.T.) ;
#158=EDGE_CURVE('',#135,#121,#157,.T.) ;
#183=EDGE_CURVE('',#180,#182,#178,.F.) ;
#188=EDGE_CURVE('',#182,#180,#187,.F.) ;
#205=EDGE_CURVE('',#202,#204,#200,.T.) ;
#210=EDGE_CURVE('',#204,#202,#209,.T.) ;
#223=EDGE_CURVE('',#220,#222,#218,.F.) ;
#228=EDGE_CURVE('',#222,#220,#227,.F.) ;
#241=EDGE_CURVE('',#238,#240,#236,.F.) ;
#246=EDGE_CURVE('',#240,#238,#245,.F.) ;
#259=EDGE_CURVE('',#256,#258,#254,.F.) ;
#264=EDGE_CURVE('',#258,#256,#263,.F.) ;
#287=EDGE_CURVE('',#284,#286,#282,.F.) ;
#292=EDGE_CURVE('',#286,#284,#291,.F.) ;
#309=EDGE_CURVE('',#306,#308,#304,.F.) ;
#314=EDGE_CURVE('',#308,#306,#313,.F.) ;
#327=EDGE_CURVE('',#324,#326,#322,.F.) ;
#332=EDGE_CURVE('',#326,#324,#331,.F.) ;
#345=EDGE_CURVE('',#342,#344,#340,.F.) ;
#350=EDGE_CURVE('',#344,#342,#349,.F.) ;
#365=EDGE_CURVE('',#286,#180,#364,.F.) ;
#370=EDGE_CURVE('',#284,#182,#369,.F.) ;
#394=EDGE_CURVE('',#308,#220,#393,.F.) ;
#399=EDGE_CURVE('',#306,#222,#398,.F.) ;
#423=EDGE_CURVE('',#326,#238,#422,.F.) ;
#428=EDGE_CURVE('',#324,#240,#427,.F.) ;
#452=EDGE_CURVE('',#344,#256,#451,.F.) ;
#457=EDGE_CURVE('',#342,#258,#456,.F.) ;
#483=EDGE_CURVE('',#202,#482,#480,.T.) ;
#490=EDGE_CURVE('',#204,#489,#487,.T.) ;
#495=EDGE_CURVE('',#482,#489,#494,.T.) ;
#507=EDGE_CURVE('',#489,#482,#506,.T.) ;
#528=EDGE_CURVE('',#525,#527,#523,.T.) ;
#533=EDGE_CURVE('',#527,#525,#532,.T.) ;
#548=EDGE_CURVE('',#525,#489,#547,.T.) ;
#553=EDGE_CURVE('',#527,#482,#552,.T.) ;
#85=EDGE_LOOP('',(#86,#87,#88,#89)) ;
#102=EDGE_LOOP('',(#103,#104,#105,#106)) ;
#142=EDGE_LOOP('',(#143,#144,#145,#146)) ;
#159=EDGE_LOOP('',(#160,#161,#162,#163)) ;
#171=EDGE_LOOP('',(#172,#173)) ;
#189=EDGE_LOOP('',(#190,#191)) ;
#193=EDGE_LOOP('',(#194,#195)) ;
#211=EDGE_LOOP('',(#212,#213)) ;
#229=EDGE_LOOP('',(#230,#231)) ;
#247=EDGE_LOOP('',(#248,#249)) ;
#265=EDGE_LOOP('',(#266,#267)) ;
#275=EDGE_LOOP('',(#276,#277)) ;
#293=EDGE_LOOP('',(#294,#295)) ;
#297=EDGE_LOOP('',(#298,#299)) ;
#315=EDGE_LOOP('',(#316,#317)) ;
#333=EDGE_LOOP('',(#334,#335)) ;
#351=EDGE_LOOP('',(#352,#353)) ;
#371=EDGE_LOOP('',(#372,#373,#374,#375)) ;
#378=EDGE_LOOP('',(#379,#380,#381,#382)) ;
#400=EDGE_LOOP('',(#401,#402,#403,#404)) ;
#407=EDGE_LOOP('',(#408,#409,#410,#411)) ;
#429=EDGE_LOOP('',(#430,#431,#432,#433)) ;
#436=EDGE_LOOP('',(#437,#438,#439,#440)) ;
#458=EDGE_LOOP('',(#459,#460,#461,#462)) ;
#465=EDGE_LOOP('',(#466,#467,#468,#469)) ;
#496=EDGE_LOOP('',(#497,#498,#499,#500)) ;
#508=EDGE_LOOP('',(#509,#510,#511,#512)) ;
#534=EDGE_LOOP('',(#535,#536)) ;
#554=EDGE_LOOP('',(#555,#556,#557,#558)) ;
#566=EDGE_LOOP('',(#567,#568,#569,#570)) ;
#90=FACE_OUTER_BOUND('',#85,.T.) ;
#107=FACE_OUTER_BOUND('',#102,.T.) ;
#147=FACE_OUTER_BOUND('',#142,.T.) ;
#164=FACE_OUTER_BOUND('',#159,.T.) ;
#174=FACE_OUTER_BOUND('',#171,.T.) ;
#278=FACE_OUTER_BOUND('',#275,.T.) ;
#376=FACE_OUTER_BOUND('',#371,.T.) ;
#383=FACE_OUTER_BOUND('',#378,.T.) ;
#405=FACE_OUTER_BOUND('',#400,.T.) ;
#412=FACE_OUTER_BOUND('',#407,.T.) ;
#434=FACE_OUTER_BOUND('',#429,.T.) ;
#441=FACE_OUTER_BOUND('',#436,.T.) ;
#463=FACE_OUTER_BOUND('',#458,.T.) ;
#470=FACE_OUTER_BOUND('',#465,.T.) ;
#501=FACE_OUTER_BOUND('',#496,.T.) ;
#513=FACE_OUTER_BOUND('',#508,.T.) ;
#537=FACE_OUTER_BOUND('',#534,.T.) ;
#559=FACE_OUTER_BOUND('',#554,.T.) ;
#571=FACE_OUTER_BOUND('',#566,.T.) ;
#45=UNCERTAINTY_MEASURE_WITH_UNIT(LENGTH_MEASURE(0.005),#41,'distance_accuracy_value','CONFUSED CURVE UNCERTAINTY') ;
#60=LINE('Line',#57,#59) ;
#76=LINE('Line',#73,#75) ;
#117=LINE('Line',#114,#116) ;
#133=LINE('Line',#130,#132) ;
#364=LINE('Line',#361,#363) ;
#369=LINE('Line',#366,#368) ;
#393=LINE('Line',#390,#392) ;
#398=LINE('Line',#395,#397) ;
#422=LINE('Line',#419,#421) ;
#427=LINE('Line',#424,#426) ;
#451=LINE('Line',#448,#450) ;
#456=LINE('Line',#453,#455) ;
#480=LINE('Line',#477,#479) ;
#487=LINE('Line',#484,#486) ;
#547=LINE('Line',#544,#546) ;
#552=LINE('Line',#549,#551) ;
#2=MECHANICAL_CONTEXT(' ',#1,'mechanical') ;
#24=PERSONAL_ADDRESS(' ',' ',' ',' ',' ',' ',' ',' ',' ',' ',' ',' ',(#22),' ') ;
#170=PLANE('Plane',#169) ;
#274=PLANE('Plane',#273) ;
#519=PLANE('Plane',#518) ;
#43=PLANE_ANGLE_MEASURE_WITH_UNIT(PLANE_ANGLE_MEASURE(0.0174532925199),#42) ;
#7=PRODUCT_CATEGORY('part',$) ;
#9=PRODUCT_CATEGORY_RELATIONSHIP(' ',' ',#7,#8) ;
#6=PRODUCT_DEFINITION_FORMATION_WITH_SPECIFIED_SOURCE('',' ',#5,.NOT_KNOWN.) ;
#8=PRODUCT_RELATED_PRODUCT_CATEGORY('detail',$,(#5)) ;
#50=SHAPE_DEFINITION_REPRESENTATION(#40,#49) ;
#62=VERTEX_POINT('',#61) ;
#64=VERTEX_POINT('',#63) ;
#71=VERTEX_POINT('',#70) ;
#78=VERTEX_POINT('',#77) ;
#119=VERTEX_POINT('',#118) ;
#121=VERTEX_POINT('',#120) ;
#128=VERTEX_POINT('',#127) ;
#135=VERTEX_POINT('',#134) ;
#180=VERTEX_POINT('',#179) ;
#182=VERTEX_POINT('',#181) ;
#202=VERTEX_POINT('',#201) ;
#204=VERTEX_POINT('',#203) ;
#220=VERTEX_POINT('',#219) ;
#222=VERTEX_POINT('',#221) ;
#238=VERTEX_POINT('',#237) ;
#240=VERTEX_POINT('',#239) ;
#256=VERTEX_POINT('',#255) ;
#258=VERTEX_POINT('',#257) ;
#284=VERTEX_POINT('',#283) ;
#286=VERTEX_POINT('',#285) ;
#306=VERTEX_POINT('',#305) ;
#308=VERTEX_POINT('',#307) ;
#324=VERTEX_POINT('',#323) ;
#326=VERTEX_POINT('',#325) ;
#342=VERTEX_POINT('',#341) ;
#344=VERTEX_POINT('',#343) ;
#482=VERTEX_POINT('',#481) ;
#489=VERTEX_POINT('',#488) ;
#525=VERTEX_POINT('',#524) ;
#527=VERTEX_POINT('',#526) ;
#41=(LENGTH_UNIT()NAMED_UNIT(*)SI_UNIT(.MILLI.,.METRE.)) ;
#42=(NAMED_UNIT(*)PLANE_ANGLE_UNIT()SI_UNIT($,.RADIAN.)) ;
#44=(NAMED_UNIT(*)SI_UNIT($,.STERADIAN.)SOLID_ANGLE_UNIT()) ;
#46=(GEOMETRIC_REPRESENTATION_CONTEXT(3)GLOBAL_UNCERTAINTY_ASSIGNED_CONTEXT((#45))GLOBAL_UNIT_ASSIGNED_CONTEXT((#41,#42,#44))REPRESENTATION_CONTEXT(' ',' ')) ;
ENDSEC;
END-ISO-10303-21;
