ISO-10303-21;
HEADER;
FILE_DESCRIPTION(('CATIA V5 STEP Exchange'),'2;1');

FILE_NAME('C:\\Users\\Hugo\\Documents\\ESTACA\\association\\PV3e\\Ann\X2\00E9\X0\e 2018-2019\\Construction iDrogen\\trains roulants\\Format stp\\Bride ext axe arriere cote couronne.stp','2019-03-02T16:39:05+00:00',('none'),('none'),'CATIA Version 5 Release 19 GA (IN-10)','CATIA V5 STEP AP203','none');

FILE_SCHEMA(('CONFIG_CONTROL_DESIGN'));

ENDSEC;
/* file written by CATIA V5R19 */
DATA;
#5=PRODUCT('Bride ext axe arriere cote couronne','','',(#2)) ;
#1=APPLICATION_CONTEXT('configuration controlled 3D design of mechanical parts and assemblies') ;
#14=PRODUCT_DEFINITION('',' ',#6,#3) ;
#16=SECURITY_CLASSIFICATION(' ',' ',#15) ;
#15=SECURITY_CLASSIFICATION_LEVEL('unclassified') ;
#47=CARTESIAN_POINT(' ',(0.,0.,0.)) ;
#52=CARTESIAN_POINT('Axis2P3D Location',(0.,0.,0.)) ;
#57=CARTESIAN_POINT('Axis2P3D Location',(0.,0.,0.)) ;
#61=CARTESIAN_POINT('Vertex',(0.,-37.5,4.59227382683E-015)) ;
#63=CARTESIAN_POINT('Vertex',(0.,37.5,0.)) ;
#66=CARTESIAN_POINT('Axis2P3D Location',(0.,0.,0.)) ;
#75=CARTESIAN_POINT('Axis2P3D Location',(0.,0.,0.)) ;
#79=CARTESIAN_POINT('Vertex',(0.,3.74,4.5800277633E-016)) ;
#81=CARTESIAN_POINT('Vertex',(0.,-3.74,-9.16005552659E-016)) ;
#84=CARTESIAN_POINT('Axis2P3D Location',(0.,0.,0.)) ;
#93=CARTESIAN_POINT('Axis2P3D Location',(0.,28.5316954889,-9.27050983125)) ;
#97=CARTESIAN_POINT('Vertex',(-4.4408920985E-016,29.3042379748,-6.89286854051)) ;
#99=CARTESIAN_POINT('Vertex',(-4.4408920985E-016,27.7591530029,-11.648151122)) ;
#102=CARTESIAN_POINT('Axis2P3D Location',(0.,28.5316954889,-9.27050983125)) ;
#111=CARTESIAN_POINT('Axis2P3D Location',(0.,0.,-30.)) ;
#115=CARTESIAN_POINT('Vertex',(0.,2.5,-30.)) ;
#117=CARTESIAN_POINT('Vertex',(0.,-2.5,-30.)) ;
#120=CARTESIAN_POINT('Axis2P3D Location',(0.,0.,-30.)) ;
#129=CARTESIAN_POINT('Axis2P3D Location',(0.,17.6335575688,24.2705098312)) ;
#133=CARTESIAN_POINT('Vertex',(-2.22044604925E-016,15.6110150828,25.739972962)) ;
#135=CARTESIAN_POINT('Vertex',(-2.22044604925E-016,19.6561000547,22.8010467005)) ;
#138=CARTESIAN_POINT('Axis2P3D Location',(0.,17.6335575688,24.2705098312)) ;
#147=CARTESIAN_POINT('Axis2P3D Location',(0.,-17.6335575688,24.2705098312)) ;
#151=CARTESIAN_POINT('Vertex',(0.,-19.6561000547,22.8010467005)) ;
#153=CARTESIAN_POINT('Vertex',(0.,-15.6110150828,25.739972962)) ;
#156=CARTESIAN_POINT('Axis2P3D Location',(0.,-17.6335575688,24.2705098312)) ;
#165=CARTESIAN_POINT('Axis2P3D Location',(0.,-28.5316954889,-9.27050983125)) ;
#169=CARTESIAN_POINT('Vertex',(0.,-27.7591530029,-11.648151122)) ;
#171=CARTESIAN_POINT('Vertex',(0.,-29.3042379748,-6.89286854051)) ;
#174=CARTESIAN_POINT('Axis2P3D Location',(0.,-28.5316954889,-9.27050983125)) ;
#184=CARTESIAN_POINT('Axis2P3D Location',(1.,-28.5316954889,-9.27050983125)) ;
#189=CARTESIAN_POINT('Line Origine',(1.,-27.7591530029,-11.648151122)) ;
#193=CARTESIAN_POINT('Vertex',(2.,-27.7591530029,-11.648151122)) ;
#196=CARTESIAN_POINT('Line Origine',(1.,-29.3042379748,-6.89286854051)) ;
#200=CARTESIAN_POINT('Vertex',(2.,-29.3042379748,-6.89286854051)) ;
#203=CARTESIAN_POINT('Axis2P3D Location',(2.,-28.5316954889,-9.27050983125)) ;
#215=CARTESIAN_POINT('Axis2P3D Location',(2.,-28.5316954889,-9.27050983125)) ;
#227=CARTESIAN_POINT('Axis2P3D Location',(1.,-17.6335575688,24.2705098312)) ;
#232=CARTESIAN_POINT('Line Origine',(1.,-19.6561000547,22.8010467005)) ;
#236=CARTESIAN_POINT('Vertex',(2.,-19.6561000547,22.8010467005)) ;
#239=CARTESIAN_POINT('Line Origine',(1.,-15.6110150828,25.739972962)) ;
#243=CARTESIAN_POINT('Vertex',(2.,-15.6110150828,25.739972962)) ;
#246=CARTESIAN_POINT('Axis2P3D Location',(2.,-17.6335575688,24.2705098312)) ;
#258=CARTESIAN_POINT('Axis2P3D Location',(2.,-17.6335575688,24.2705098312)) ;
#270=CARTESIAN_POINT('Axis2P3D Location',(1.,17.6335575688,24.2705098312)) ;
#275=CARTESIAN_POINT('Line Origine',(1.,15.6110150828,25.739972962)) ;
#279=CARTESIAN_POINT('Vertex',(2.,15.6110150828,25.739972962)) ;
#282=CARTESIAN_POINT('Line Origine',(1.,19.6561000547,22.8010467005)) ;
#286=CARTESIAN_POINT('Vertex',(2.,19.6561000547,22.8010467005)) ;
#289=CARTESIAN_POINT('Axis2P3D Location',(2.,17.6335575688,24.2705098312)) ;
#301=CARTESIAN_POINT('Axis2P3D Location',(2.,17.6335575688,24.2705098312)) ;
#313=CARTESIAN_POINT('Axis2P3D Location',(1.,28.5316954889,-9.27050983125)) ;
#318=CARTESIAN_POINT('Line Origine',(1.,29.3042379748,-6.89286854051)) ;
#322=CARTESIAN_POINT('Vertex',(2.,29.3042379748,-6.89286854051)) ;
#325=CARTESIAN_POINT('Line Origine',(1.,27.7591530029,-11.648151122)) ;
#329=CARTESIAN_POINT('Vertex',(2.,27.7591530029,-11.648151122)) ;
#332=CARTESIAN_POINT('Axis2P3D Location',(2.,28.5316954889,-9.27050983125)) ;
#344=CARTESIAN_POINT('Axis2P3D Location',(2.,28.5316954889,-9.27050983125)) ;
#356=CARTESIAN_POINT('Axis2P3D Location',(2.,0.,0.)) ;
#361=CARTESIAN_POINT('Axis2P3D Location',(2.,0.,0.)) ;
#365=CARTESIAN_POINT('Vertex',(2.,37.5,0.)) ;
#367=CARTESIAN_POINT('Vertex',(2.,-37.5,4.59227382683E-015)) ;
#370=CARTESIAN_POINT('Axis2P3D Location',(2.,0.,0.)) ;
#383=CARTESIAN_POINT('Axis2P3D Location',(2.,0.,-30.)) ;
#387=CARTESIAN_POINT('Vertex',(2.,-2.5,-30.)) ;
#389=CARTESIAN_POINT('Vertex',(2.,2.5,-30.)) ;
#392=CARTESIAN_POINT('Axis2P3D Location',(2.,0.,-30.)) ;
#414=CARTESIAN_POINT('Axis2P3D Location',(1.,0.,-30.)) ;
#419=CARTESIAN_POINT('Line Origine',(1.,2.5,-30.)) ;
#424=CARTESIAN_POINT('Line Origine',(1.,-2.5,-30.)) ;
#443=CARTESIAN_POINT('Axis2P3D Location',(1.,0.,0.)) ;
#448=CARTESIAN_POINT('Line Origine',(1.,-37.5,4.59227382683E-015)) ;
#453=CARTESIAN_POINT('Line Origine',(1.,37.5,-9.18454765367E-015)) ;
#472=CARTESIAN_POINT('Axis2P3D Location',(-1.,0.,0.)) ;
#477=CARTESIAN_POINT('Line Origine',(-1.,-3.74,0.)) ;
#481=CARTESIAN_POINT('Vertex',(-1.75,-3.74,-9.16005552659E-016)) ;
#484=CARTESIAN_POINT('Line Origine',(-1.,3.74,4.5800277633E-016)) ;
#488=CARTESIAN_POINT('Vertex',(-1.75,3.74,4.5800277633E-016)) ;
#491=CARTESIAN_POINT('Axis2P3D Location',(-1.75,0.,0.)) ;
#503=CARTESIAN_POINT('Axis2P3D Location',(-1.75,0.,0.)) ;
#515=CARTESIAN_POINT('Axis2P3D Location',(-2.,0.,0.)) ;
#520=CARTESIAN_POINT('Axis2P3D Location',(-2.,4.48009684906E-014,-1.68060010353E-013)) ;
#524=CARTESIAN_POINT('Vertex',(-2.,3.49,3.63799955474E-007)) ;
#526=CARTESIAN_POINT('Vertex',(-2.,-3.49,1.57106207384E-015)) ;
#529=CARTESIAN_POINT('Axis2P3D Location',(-2.,9.0552565446E-015,1.38777878078E-016)) ;
#539=CARTESIAN_POINT('Axis2P3D Location',(-5.49,-3.94173582663E-014,-3.9449554734E-012)) ;
#544=CARTESIAN_POINT('Line Origine',(-1.875,3.615,7.92976795342E-013)) ;
#549=CARTESIAN_POINT('Line Origine',(-1.875,-3.615,7.93198839947E-013)) ;
#561=CARTESIAN_POINT('Axis2P3D Location',(-5.49,-2.42268427542E-013,7.81064102284E-013)) ;
#53=DIRECTION('Axis2P3D Direction',(1.,0.,0.)) ;
#54=DIRECTION('Axis2P3D XDirection',(0.,1.,0.)) ;
#58=DIRECTION('Axis2P3D Direction',(1.,0.,0.)) ;
#67=DIRECTION('Axis2P3D Direction',(1.,0.,0.)) ;
#76=DIRECTION('Axis2P3D Direction',(1.,0.,0.)) ;
#85=DIRECTION('Axis2P3D Direction',(1.,0.,0.)) ;
#94=DIRECTION('Axis2P3D Direction',(1.,0.,0.)) ;
#103=DIRECTION('Axis2P3D Direction',(1.,0.,0.)) ;
#112=DIRECTION('Axis2P3D Direction',(1.,0.,0.)) ;
#121=DIRECTION('Axis2P3D Direction',(1.,0.,0.)) ;
#130=DIRECTION('Axis2P3D Direction',(1.,0.,0.)) ;
#139=DIRECTION('Axis2P3D Direction',(1.,0.,0.)) ;
#148=DIRECTION('Axis2P3D Direction',(1.,0.,0.)) ;
#157=DIRECTION('Axis2P3D Direction',(1.,0.,0.)) ;
#166=DIRECTION('Axis2P3D Direction',(1.,0.,0.)) ;
#175=DIRECTION('Axis2P3D Direction',(1.,0.,0.)) ;
#185=DIRECTION('Axis2P3D Direction',(-1.,0.,0.)) ;
#186=DIRECTION('Axis2P3D XDirection',(0.,-0.309016994375,0.951056516295)) ;
#190=DIRECTION('Vector Direction',(-1.,0.,0.)) ;
#197=DIRECTION('Vector Direction',(-1.,0.,0.)) ;
#204=DIRECTION('Axis2P3D Direction',(-1.,0.,0.)) ;
#216=DIRECTION('Axis2P3D Direction',(-1.,0.,0.)) ;
#228=DIRECTION('Axis2P3D Direction',(-1.,0.,0.)) ;
#229=DIRECTION('Axis2P3D XDirection',(0.,0.809016994375,0.587785252292)) ;
#233=DIRECTION('Vector Direction',(-1.,0.,0.)) ;
#240=DIRECTION('Vector Direction',(-1.,0.,0.)) ;
#247=DIRECTION('Axis2P3D Direction',(-1.,0.,0.)) ;
#259=DIRECTION('Axis2P3D Direction',(-1.,0.,0.)) ;
#271=DIRECTION('Axis2P3D Direction',(-1.,0.,-0.)) ;
#272=DIRECTION('Axis2P3D XDirection',(0.,0.809016994375,-0.587785252292)) ;
#276=DIRECTION('Vector Direction',(-1.,0.,0.)) ;
#283=DIRECTION('Vector Direction',(-1.,0.,0.)) ;
#290=DIRECTION('Axis2P3D Direction',(-1.,0.,-0.)) ;
#302=DIRECTION('Axis2P3D Direction',(-1.,0.,-0.)) ;
#314=DIRECTION('Axis2P3D Direction',(-1.,-0.,0.)) ;
#315=DIRECTION('Axis2P3D XDirection',(0.,-0.309016994375,-0.951056516295)) ;
#319=DIRECTION('Vector Direction',(-1.,0.,0.)) ;
#326=DIRECTION('Vector Direction',(-1.,0.,0.)) ;
#333=DIRECTION('Axis2P3D Direction',(-1.,-0.,0.)) ;
#345=DIRECTION('Axis2P3D Direction',(-1.,-0.,0.)) ;
#357=DIRECTION('Axis2P3D Direction',(1.,0.,0.)) ;
#358=DIRECTION('Axis2P3D XDirection',(0.,1.,0.)) ;
#362=DIRECTION('Axis2P3D Direction',(1.,0.,0.)) ;
#371=DIRECTION('Axis2P3D Direction',(1.,0.,0.)) ;
#384=DIRECTION('Axis2P3D Direction',(1.,0.,0.)) ;
#393=DIRECTION('Axis2P3D Direction',(1.,0.,0.)) ;
#415=DIRECTION('Axis2P3D Direction',(-1.,0.,0.)) ;
#416=DIRECTION('Axis2P3D XDirection',(0.,-1.,0.)) ;
#420=DIRECTION('Vector Direction',(-1.,0.,0.)) ;
#425=DIRECTION('Vector Direction',(-1.,0.,0.)) ;
#444=DIRECTION('Axis2P3D Direction',(1.,0.,0.)) ;
#445=DIRECTION('Axis2P3D XDirection',(0.,1.,0.)) ;
#449=DIRECTION('Vector Direction',(1.,0.,0.)) ;
#454=DIRECTION('Vector Direction',(1.,0.,0.)) ;
#473=DIRECTION('Axis2P3D Direction',(-1.,0.,0.)) ;
#474=DIRECTION('Axis2P3D XDirection',(0.,-1.,0.)) ;
#478=DIRECTION('Vector Direction',(-1.,0.,0.)) ;
#485=DIRECTION('Vector Direction',(-1.,0.,0.)) ;
#492=DIRECTION('Axis2P3D Direction',(-1.,0.,0.)) ;
#504=DIRECTION('Axis2P3D Direction',(-1.,0.,0.)) ;
#516=DIRECTION('Axis2P3D Direction',(-1.,0.,0.)) ;
#517=DIRECTION('Axis2P3D XDirection',(0.,-1.,0.)) ;
#521=DIRECTION('Axis2P3D Direction',(-1.,0.,0.)) ;
#530=DIRECTION('Axis2P3D Direction',(-1.,0.,0.)) ;
#540=DIRECTION('Axis2P3D Direction',(1.,1.06581410364E-014,1.05471187339E-012)) ;
#541=DIRECTION('Axis2P3D XDirection',(-5.24201428354E-013,0.872772948888,0.488126397246)) ;
#545=DIRECTION('Vector Direction',(0.707106781187,0.707106781186,9.26668569115E-013)) ;
#550=DIRECTION('Vector Direction',(0.707106781187,-0.707106781186,9.26668569116E-013)) ;
#562=DIRECTION('Axis2P3D Direction',(1.,6.48370246381E-014,-2.0872192863E-013)) ;
#563=DIRECTION('Axis2P3D XDirection',(6.48007795855E-014,-1.,-5.75101127636E-017)) ;
#48=AXIS2_PLACEMENT_3D(' ',#47,$,$) ;
#55=AXIS2_PLACEMENT_3D('Plane Axis2P3D',#52,#53,#54) ;
#59=AXIS2_PLACEMENT_3D('Circle Axis2P3D',#57,#58,$) ;
#68=AXIS2_PLACEMENT_3D('Circle Axis2P3D',#66,#67,$) ;
#77=AXIS2_PLACEMENT_3D('Circle Axis2P3D',#75,#76,$) ;
#86=AXIS2_PLACEMENT_3D('Circle Axis2P3D',#84,#85,$) ;
#95=AXIS2_PLACEMENT_3D('Circle Axis2P3D',#93,#94,$) ;
#104=AXIS2_PLACEMENT_3D('Circle Axis2P3D',#102,#103,$) ;
#113=AXIS2_PLACEMENT_3D('Circle Axis2P3D',#111,#112,$) ;
#122=AXIS2_PLACEMENT_3D('Circle Axis2P3D',#120,#121,$) ;
#131=AXIS2_PLACEMENT_3D('Circle Axis2P3D',#129,#130,$) ;
#140=AXIS2_PLACEMENT_3D('Circle Axis2P3D',#138,#139,$) ;
#149=AXIS2_PLACEMENT_3D('Circle Axis2P3D',#147,#148,$) ;
#158=AXIS2_PLACEMENT_3D('Circle Axis2P3D',#156,#157,$) ;
#167=AXIS2_PLACEMENT_3D('Circle Axis2P3D',#165,#166,$) ;
#176=AXIS2_PLACEMENT_3D('Circle Axis2P3D',#174,#175,$) ;
#187=AXIS2_PLACEMENT_3D('Cylinder Axis2P3D',#184,#185,#186) ;
#205=AXIS2_PLACEMENT_3D('Circle Axis2P3D',#203,#204,$) ;
#217=AXIS2_PLACEMENT_3D('Circle Axis2P3D',#215,#216,$) ;
#230=AXIS2_PLACEMENT_3D('Cylinder Axis2P3D',#227,#228,#229) ;
#248=AXIS2_PLACEMENT_3D('Circle Axis2P3D',#246,#247,$) ;
#260=AXIS2_PLACEMENT_3D('Circle Axis2P3D',#258,#259,$) ;
#273=AXIS2_PLACEMENT_3D('Cylinder Axis2P3D',#270,#271,#272) ;
#291=AXIS2_PLACEMENT_3D('Circle Axis2P3D',#289,#290,$) ;
#303=AXIS2_PLACEMENT_3D('Circle Axis2P3D',#301,#302,$) ;
#316=AXIS2_PLACEMENT_3D('Cylinder Axis2P3D',#313,#314,#315) ;
#334=AXIS2_PLACEMENT_3D('Circle Axis2P3D',#332,#333,$) ;
#346=AXIS2_PLACEMENT_3D('Circle Axis2P3D',#344,#345,$) ;
#359=AXIS2_PLACEMENT_3D('Plane Axis2P3D',#356,#357,#358) ;
#363=AXIS2_PLACEMENT_3D('Circle Axis2P3D',#361,#362,$) ;
#372=AXIS2_PLACEMENT_3D('Circle Axis2P3D',#370,#371,$) ;
#385=AXIS2_PLACEMENT_3D('Circle Axis2P3D',#383,#384,$) ;
#394=AXIS2_PLACEMENT_3D('Circle Axis2P3D',#392,#393,$) ;
#417=AXIS2_PLACEMENT_3D('Cylinder Axis2P3D',#414,#415,#416) ;
#446=AXIS2_PLACEMENT_3D('Cylinder Axis2P3D',#443,#444,#445) ;
#475=AXIS2_PLACEMENT_3D('Cylinder Axis2P3D',#472,#473,#474) ;
#493=AXIS2_PLACEMENT_3D('Circle Axis2P3D',#491,#492,$) ;
#505=AXIS2_PLACEMENT_3D('Circle Axis2P3D',#503,#504,$) ;
#518=AXIS2_PLACEMENT_3D('Plane Axis2P3D',#515,#516,#517) ;
#522=AXIS2_PLACEMENT_3D('Circle Axis2P3D',#520,#521,$) ;
#531=AXIS2_PLACEMENT_3D('Circle Axis2P3D',#529,#530,$) ;
#542=AXIS2_PLACEMENT_3D('Cone Axis2P3D',#539,#540,#541) ;
#564=AXIS2_PLACEMENT_3D('Cone Axis2P3D',#561,#562,#563) ;
#40=PRODUCT_DEFINITION_SHAPE(' ',' ',#14) ;
#31=APPROVAL_PERSON_ORGANIZATION(#25,#21,#19) ;
#25=PERSON_AND_ORGANIZATION(#22,#23) ;
#22=PERSON(' ',' ',' ',$,$,$) ;
#23=ORGANIZATION(' ',' ',' ') ;
#21=APPROVAL(#20,' ') ;
#20=APPROVAL_STATUS('not_yet_approved') ;
#19=APPROVAL_ROLE('APPROVER') ;
#13=DATE_AND_TIME(#11,#12) ;
#12=LOCAL_TIME(17,39,5.,#10) ;
#10=COORDINATED_UNIVERSAL_TIME_OFFSET(0,0,.AHEAD.) ;
#72=ORIENTED_EDGE('',*,*,#65,.F.) ;
#73=ORIENTED_EDGE('',*,*,#70,.F.) ;
#90=ORIENTED_EDGE('',*,*,#83,.F.) ;
#91=ORIENTED_EDGE('',*,*,#88,.F.) ;
#108=ORIENTED_EDGE('',*,*,#101,.F.) ;
#109=ORIENTED_EDGE('',*,*,#106,.F.) ;
#126=ORIENTED_EDGE('',*,*,#119,.F.) ;
#127=ORIENTED_EDGE('',*,*,#124,.F.) ;
#144=ORIENTED_EDGE('',*,*,#137,.F.) ;
#145=ORIENTED_EDGE('',*,*,#142,.F.) ;
#162=ORIENTED_EDGE('',*,*,#155,.F.) ;
#163=ORIENTED_EDGE('',*,*,#160,.F.) ;
#180=ORIENTED_EDGE('',*,*,#173,.F.) ;
#181=ORIENTED_EDGE('',*,*,#178,.F.) ;
#209=ORIENTED_EDGE('',*,*,#195,.F.) ;
#210=ORIENTED_EDGE('',*,*,#173,.T.) ;
#211=ORIENTED_EDGE('',*,*,#202,.T.) ;
#212=ORIENTED_EDGE('',*,*,#207,.F.) ;
#221=ORIENTED_EDGE('',*,*,#202,.F.) ;
#222=ORIENTED_EDGE('',*,*,#178,.T.) ;
#223=ORIENTED_EDGE('',*,*,#195,.T.) ;
#224=ORIENTED_EDGE('',*,*,#219,.F.) ;
#252=ORIENTED_EDGE('',*,*,#238,.F.) ;
#253=ORIENTED_EDGE('',*,*,#155,.T.) ;
#254=ORIENTED_EDGE('',*,*,#245,.T.) ;
#255=ORIENTED_EDGE('',*,*,#250,.F.) ;
#264=ORIENTED_EDGE('',*,*,#245,.F.) ;
#265=ORIENTED_EDGE('',*,*,#160,.T.) ;
#266=ORIENTED_EDGE('',*,*,#238,.T.) ;
#267=ORIENTED_EDGE('',*,*,#262,.F.) ;
#295=ORIENTED_EDGE('',*,*,#281,.F.) ;
#296=ORIENTED_EDGE('',*,*,#137,.T.) ;
#297=ORIENTED_EDGE('',*,*,#288,.T.) ;
#298=ORIENTED_EDGE('',*,*,#293,.F.) ;
#307=ORIENTED_EDGE('',*,*,#288,.F.) ;
#308=ORIENTED_EDGE('',*,*,#142,.T.) ;
#309=ORIENTED_EDGE('',*,*,#281,.T.) ;
#310=ORIENTED_EDGE('',*,*,#305,.F.) ;
#338=ORIENTED_EDGE('',*,*,#324,.F.) ;
#339=ORIENTED_EDGE('',*,*,#101,.T.) ;
#340=ORIENTED_EDGE('',*,*,#331,.T.) ;
#341=ORIENTED_EDGE('',*,*,#336,.F.) ;
#350=ORIENTED_EDGE('',*,*,#331,.F.) ;
#351=ORIENTED_EDGE('',*,*,#106,.T.) ;
#352=ORIENTED_EDGE('',*,*,#324,.T.) ;
#353=ORIENTED_EDGE('',*,*,#348,.F.) ;
#376=ORIENTED_EDGE('',*,*,#369,.T.) ;
#377=ORIENTED_EDGE('',*,*,#374,.T.) ;
#380=ORIENTED_EDGE('',*,*,#348,.T.) ;
#381=ORIENTED_EDGE('',*,*,#336,.T.) ;
#398=ORIENTED_EDGE('',*,*,#391,.T.) ;
#399=ORIENTED_EDGE('',*,*,#396,.T.) ;
#402=ORIENTED_EDGE('',*,*,#305,.T.) ;
#403=ORIENTED_EDGE('',*,*,#293,.T.) ;
#406=ORIENTED_EDGE('',*,*,#262,.T.) ;
#407=ORIENTED_EDGE('',*,*,#250,.T.) ;
#410=ORIENTED_EDGE('',*,*,#219,.T.) ;
#411=ORIENTED_EDGE('',*,*,#207,.T.) ;
#430=ORIENTED_EDGE('',*,*,#423,.F.) ;
#431=ORIENTED_EDGE('',*,*,#119,.T.) ;
#432=ORIENTED_EDGE('',*,*,#428,.T.) ;
#433=ORIENTED_EDGE('',*,*,#396,.F.) ;
#437=ORIENTED_EDGE('',*,*,#428,.F.) ;
#438=ORIENTED_EDGE('',*,*,#124,.T.) ;
#439=ORIENTED_EDGE('',*,*,#423,.T.) ;
#440=ORIENTED_EDGE('',*,*,#391,.F.) ;
#459=ORIENTED_EDGE('',*,*,#452,.F.) ;
#460=ORIENTED_EDGE('',*,*,#65,.T.) ;
#461=ORIENTED_EDGE('',*,*,#457,.T.) ;
#462=ORIENTED_EDGE('',*,*,#374,.F.) ;
#466=ORIENTED_EDGE('',*,*,#457,.F.) ;
#467=ORIENTED_EDGE('',*,*,#70,.T.) ;
#468=ORIENTED_EDGE('',*,*,#452,.T.) ;
#469=ORIENTED_EDGE('',*,*,#369,.F.) ;
#497=ORIENTED_EDGE('',*,*,#483,.F.) ;
#498=ORIENTED_EDGE('',*,*,#88,.T.) ;
#499=ORIENTED_EDGE('',*,*,#490,.T.) ;
#500=ORIENTED_EDGE('',*,*,#495,.F.) ;
#509=ORIENTED_EDGE('',*,*,#490,.F.) ;
#510=ORIENTED_EDGE('',*,*,#83,.T.) ;
#511=ORIENTED_EDGE('',*,*,#483,.T.) ;
#512=ORIENTED_EDGE('',*,*,#507,.F.) ;
#535=ORIENTED_EDGE('',*,*,#528,.T.) ;
#536=ORIENTED_EDGE('',*,*,#533,.T.) ;
#555=ORIENTED_EDGE('',*,*,#548,.T.) ;
#556=ORIENTED_EDGE('',*,*,#507,.T.) ;
#557=ORIENTED_EDGE('',*,*,#553,.F.) ;
#558=ORIENTED_EDGE('',*,*,#528,.F.) ;
#567=ORIENTED_EDGE('',*,*,#553,.T.) ;
#568=ORIENTED_EDGE('',*,*,#495,.T.) ;
#569=ORIENTED_EDGE('',*,*,#548,.F.) ;
#570=ORIENTED_EDGE('',*,*,#533,.F.) ;
#92=FACE_BOUND('',#89,.T.) ;
#110=FACE_BOUND('',#107,.T.) ;
#128=FACE_BOUND('',#125,.T.) ;
#146=FACE_BOUND('',#143,.T.) ;
#164=FACE_BOUND('',#161,.T.) ;
#182=FACE_BOUND('',#179,.T.) ;
#382=FACE_BOUND('',#379,.T.) ;
#400=FACE_BOUND('',#397,.T.) ;
#404=FACE_BOUND('',#401,.T.) ;
#408=FACE_BOUND('',#405,.T.) ;
#412=FACE_BOUND('',#409,.T.) ;
#51=CLOSED_SHELL('Closed Shell',(#183,#214,#226,#257,#269,#300,#312,#343,#355,#413,#435,#442,#464,#471,#502,#514,#538,#560,#572)) ;
#191=VECTOR('Line Direction',#190,1.) ;
#198=VECTOR('Line Direction',#197,1.) ;
#234=VECTOR('Line Direction',#233,1.) ;
#241=VECTOR('Line Direction',#240,1.) ;
#277=VECTOR('Line Direction',#276,1.) ;
#284=VECTOR('Line Direction',#283,1.) ;
#320=VECTOR('Line Direction',#319,1.) ;
#327=VECTOR('Line Direction',#326,1.) ;
#421=VECTOR('Line Direction',#420,1.) ;
#426=VECTOR('Line Direction',#425,1.) ;
#450=VECTOR('Line Direction',#449,1.) ;
#455=VECTOR('Line Direction',#454,1.) ;
#479=VECTOR('Line Direction',#478,1.) ;
#486=VECTOR('Line Direction',#485,1.) ;
#546=VECTOR('Line Direction',#545,1.) ;
#551=VECTOR('Line Direction',#550,1.) ;
#574=ADVANCED_BREP_SHAPE_REPRESENTATION('NONE',(#573),#46) ;
#49=SHAPE_REPRESENTATION(' ',(#48),#46) ;
#183=ADVANCED_FACE('Corps principal',(#74,#92,#110,#128,#146,#164,#182),#56,.F.) ;
#214=ADVANCED_FACE('Corps principal',(#213),#188,.F.) ;
#226=ADVANCED_FACE('Corps principal',(#225),#188,.F.) ;
#257=ADVANCED_FACE('Corps principal',(#256),#231,.F.) ;
#269=ADVANCED_FACE('Corps principal',(#268),#231,.F.) ;
#300=ADVANCED_FACE('Corps principal',(#299),#274,.F.) ;
#312=ADVANCED_FACE('Corps principal',(#311),#274,.F.) ;
#343=ADVANCED_FACE('Corps principal',(#342),#317,.F.) ;
#355=ADVANCED_FACE('Corps principal',(#354),#317,.F.) ;
#413=ADVANCED_FACE('Corps principal',(#378,#382,#400,#404,#408,#412),#360,.T.) ;
#435=ADVANCED_FACE('Corps principal',(#434),#418,.F.) ;
#442=ADVANCED_FACE('Corps principal',(#441),#418,.F.) ;
#464=ADVANCED_FACE('Corps principal',(#463),#447,.T.) ;
#471=ADVANCED_FACE('Corps principal',(#470),#447,.T.) ;
#502=ADVANCED_FACE('Corps principal',(#501),#476,.T.) ;
#514=ADVANCED_FACE('Corps principal',(#513),#476,.T.) ;
#538=ADVANCED_FACE('Corps principal',(#537),#519,.T.) ;
#560=ADVANCED_FACE('Corps principal',(#559),#543,.T.) ;
#572=ADVANCED_FACE('Corps principal',(#571),#565,.T.) ;
#4=APPLICATION_PROTOCOL_DEFINITION('international standard','config_control_design',1994,#1) ;
#32=APPROVAL_DATE_TIME(#13,#21) ;
#573=MANIFOLD_SOLID_BREP('Corps principal',#51) ;
#11=CALENDAR_DATE(2019,2,3) ;
#30=CC_DESIGN_APPROVAL(#21,(#16,#6,#14)) ;
#18=CC_DESIGN_DATE_AND_TIME_ASSIGNMENT(#13,#17,(#16)) ;
#29=CC_DESIGN_DATE_AND_TIME_ASSIGNMENT(#13,#28,(#14)) ;
#17=DATE_TIME_ROLE('classification_date') ;
#28=DATE_TIME_ROLE('creation_date') ;
#27=CC_DESIGN_PERSON_AND_ORGANIZATION_ASSIGNMENT(#25,#26,(#16)) ;
#33=CC_DESIGN_PERSON_AND_ORGANIZATION_ASSIGNMENT(#25,#34,(#6)) ;
#35=CC_DESIGN_PERSON_AND_ORGANIZATION_ASSIGNMENT(#25,#36,(#6,#14)) ;
#37=CC_DESIGN_PERSON_AND_ORGANIZATION_ASSIGNMENT(#25,#38,(#5)) ;
#26=PERSON_AND_ORGANIZATION_ROLE('classification_officer') ;
#34=PERSON_AND_ORGANIZATION_ROLE('design_supplier') ;
#36=PERSON_AND_ORGANIZATION_ROLE('creator') ;
#38=PERSON_AND_ORGANIZATION_ROLE('design_owner') ;
#39=CC_DESIGN_SECURITY_CLASSIFICATION(#16,(#6)) ;
#60=CIRCLE('generated circle',#59,37.5) ;
#69=CIRCLE('generated circle',#68,37.5) ;
#78=CIRCLE('generated circle',#77,3.74) ;
#87=CIRCLE('generated circle',#86,3.74) ;
#96=CIRCLE('generated circle',#95,2.5) ;
#105=CIRCLE('generated circle',#104,2.5) ;
#114=CIRCLE('generated circle',#113,2.5) ;
#123=CIRCLE('generated circle',#122,2.5) ;
#132=CIRCLE('generated circle',#131,2.5) ;
#141=CIRCLE('generated circle',#140,2.5) ;
#150=CIRCLE('generated circle',#149,2.5) ;
#159=CIRCLE('generated circle',#158,2.5) ;
#168=CIRCLE('generated circle',#167,2.5) ;
#177=CIRCLE('generated circle',#176,2.5) ;
#206=CIRCLE('generated circle',#205,2.5) ;
#218=CIRCLE('generated circle',#217,2.5) ;
#249=CIRCLE('generated circle',#248,2.5) ;
#261=CIRCLE('generated circle',#260,2.5) ;
#292=CIRCLE('generated circle',#291,2.5) ;
#304=CIRCLE('generated circle',#303,2.5) ;
#335=CIRCLE('generated circle',#334,2.5) ;
#347=CIRCLE('generated circle',#346,2.5) ;
#364=CIRCLE('generated circle',#363,37.5) ;
#373=CIRCLE('generated circle',#372,37.5) ;
#386=CIRCLE('generated circle',#385,2.5) ;
#395=CIRCLE('generated circle',#394,2.5) ;
#494=CIRCLE('generated circle',#493,3.74) ;
#506=CIRCLE('generated circle',#505,3.74) ;
#523=CIRCLE('generated circle',#522,3.49) ;
#532=CIRCLE('generated circle',#531,3.49) ;
#543=CONICAL_SURFACE('Cone',#542,0.,0.785398163397) ;
#565=CONICAL_SURFACE('Cone',#564,0.,0.785398163397) ;
#575=SHAPE_REPRESENTATION_RELATIONSHIP(' ',' ',#49,#574) ;
#188=CYLINDRICAL_SURFACE('generated cylinder',#187,2.5) ;
#231=CYLINDRICAL_SURFACE('generated cylinder',#230,2.5) ;
#274=CYLINDRICAL_SURFACE('generated cylinder',#273,2.5) ;
#317=CYLINDRICAL_SURFACE('generated cylinder',#316,2.5) ;
#418=CYLINDRICAL_SURFACE('generated cylinder',#417,2.5) ;
#447=CYLINDRICAL_SURFACE('generated cylinder',#446,37.5) ;
#476=CYLINDRICAL_SURFACE('generated cylinder',#475,3.74) ;
#3=DESIGN_CONTEXT(' ',#1,'design') ;
#65=EDGE_CURVE('',#62,#64,#60,.T.) ;
#70=EDGE_CURVE('',#64,#62,#69,.T.) ;
#83=EDGE_CURVE('',#80,#82,#78,.F.) ;
#88=EDGE_CURVE('',#82,#80,#87,.F.) ;
#101=EDGE_CURVE('',#98,#100,#96,.F.) ;
#106=EDGE_CURVE('',#100,#98,#105,.F.) ;
#119=EDGE_CURVE('',#116,#118,#114,.F.) ;
#124=EDGE_CURVE('',#118,#116,#123,.F.) ;
#137=EDGE_CURVE('',#134,#136,#132,.F.) ;
#142=EDGE_CURVE('',#136,#134,#141,.F.) ;
#155=EDGE_CURVE('',#152,#154,#150,.F.) ;
#160=EDGE_CURVE('',#154,#152,#159,.F.) ;
#173=EDGE_CURVE('',#170,#172,#168,.F.) ;
#178=EDGE_CURVE('',#172,#170,#177,.F.) ;
#195=EDGE_CURVE('',#170,#194,#192,.F.) ;
#202=EDGE_CURVE('',#172,#201,#199,.F.) ;
#207=EDGE_CURVE('',#194,#201,#206,.T.) ;
#219=EDGE_CURVE('',#201,#194,#218,.T.) ;
#238=EDGE_CURVE('',#152,#237,#235,.F.) ;
#245=EDGE_CURVE('',#154,#244,#242,.F.) ;
#250=EDGE_CURVE('',#237,#244,#249,.T.) ;
#262=EDGE_CURVE('',#244,#237,#261,.T.) ;
#281=EDGE_CURVE('',#134,#280,#278,.F.) ;
#288=EDGE_CURVE('',#136,#287,#285,.F.) ;
#293=EDGE_CURVE('',#280,#287,#292,.T.) ;
#305=EDGE_CURVE('',#287,#280,#304,.T.) ;
#324=EDGE_CURVE('',#98,#323,#321,.F.) ;
#331=EDGE_CURVE('',#100,#330,#328,.F.) ;
#336=EDGE_CURVE('',#323,#330,#335,.T.) ;
#348=EDGE_CURVE('',#330,#323,#347,.T.) ;
#369=EDGE_CURVE('',#366,#368,#364,.T.) ;
#374=EDGE_CURVE('',#368,#366,#373,.T.) ;
#391=EDGE_CURVE('',#388,#390,#386,.F.) ;
#396=EDGE_CURVE('',#390,#388,#395,.F.) ;
#423=EDGE_CURVE('',#116,#390,#422,.F.) ;
#428=EDGE_CURVE('',#118,#388,#427,.F.) ;
#452=EDGE_CURVE('',#62,#368,#451,.T.) ;
#457=EDGE_CURVE('',#64,#366,#456,.T.) ;
#483=EDGE_CURVE('',#82,#482,#480,.T.) ;
#490=EDGE_CURVE('',#80,#489,#487,.T.) ;
#495=EDGE_CURVE('',#482,#489,#494,.T.) ;
#507=EDGE_CURVE('',#489,#482,#506,.T.) ;
#528=EDGE_CURVE('',#525,#527,#523,.T.) ;
#533=EDGE_CURVE('',#527,#525,#532,.T.) ;
#548=EDGE_CURVE('',#525,#489,#547,.T.) ;
#553=EDGE_CURVE('',#527,#482,#552,.T.) ;
#71=EDGE_LOOP('',(#72,#73)) ;
#89=EDGE_LOOP('',(#90,#91)) ;
#107=EDGE_LOOP('',(#108,#109)) ;
#125=EDGE_LOOP('',(#126,#127)) ;
#143=EDGE_LOOP('',(#144,#145)) ;
#161=EDGE_LOOP('',(#162,#163)) ;
#179=EDGE_LOOP('',(#180,#181)) ;
#208=EDGE_LOOP('',(#209,#210,#211,#212)) ;
#220=EDGE_LOOP('',(#221,#222,#223,#224)) ;
#251=EDGE_LOOP('',(#252,#253,#254,#255)) ;
#263=EDGE_LOOP('',(#264,#265,#266,#267)) ;
#294=EDGE_LOOP('',(#295,#296,#297,#298)) ;
#306=EDGE_LOOP('',(#307,#308,#309,#310)) ;
#337=EDGE_LOOP('',(#338,#339,#340,#341)) ;
#349=EDGE_LOOP('',(#350,#351,#352,#353)) ;
#375=EDGE_LOOP('',(#376,#377)) ;
#379=EDGE_LOOP('',(#380,#381)) ;
#397=EDGE_LOOP('',(#398,#399)) ;
#401=EDGE_LOOP('',(#402,#403)) ;
#405=EDGE_LOOP('',(#406,#407)) ;
#409=EDGE_LOOP('',(#410,#411)) ;
#429=EDGE_LOOP('',(#430,#431,#432,#433)) ;
#436=EDGE_LOOP('',(#437,#438,#439,#440)) ;
#458=EDGE_LOOP('',(#459,#460,#461,#462)) ;
#465=EDGE_LOOP('',(#466,#467,#468,#469)) ;
#496=EDGE_LOOP('',(#497,#498,#499,#500)) ;
#508=EDGE_LOOP('',(#509,#510,#511,#512)) ;
#534=EDGE_LOOP('',(#535,#536)) ;
#554=EDGE_LOOP('',(#555,#556,#557,#558)) ;
#566=EDGE_LOOP('',(#567,#568,#569,#570)) ;
#74=FACE_OUTER_BOUND('',#71,.T.) ;
#213=FACE_OUTER_BOUND('',#208,.T.) ;
#225=FACE_OUTER_BOUND('',#220,.T.) ;
#256=FACE_OUTER_BOUND('',#251,.T.) ;
#268=FACE_OUTER_BOUND('',#263,.T.) ;
#299=FACE_OUTER_BOUND('',#294,.T.) ;
#311=FACE_OUTER_BOUND('',#306,.T.) ;
#342=FACE_OUTER_BOUND('',#337,.T.) ;
#354=FACE_OUTER_BOUND('',#349,.T.) ;
#378=FACE_OUTER_BOUND('',#375,.T.) ;
#434=FACE_OUTER_BOUND('',#429,.T.) ;
#441=FACE_OUTER_BOUND('',#436,.T.) ;
#463=FACE_OUTER_BOUND('',#458,.T.) ;
#470=FACE_OUTER_BOUND('',#465,.T.) ;
#501=FACE_OUTER_BOUND('',#496,.T.) ;
#513=FACE_OUTER_BOUND('',#508,.T.) ;
#537=FACE_OUTER_BOUND('',#534,.T.) ;
#559=FACE_OUTER_BOUND('',#554,.T.) ;
#571=FACE_OUTER_BOUND('',#566,.T.) ;
#45=UNCERTAINTY_MEASURE_WITH_UNIT(LENGTH_MEASURE(0.005),#41,'distance_accuracy_value','CONFUSED CURVE UNCERTAINTY') ;
#192=LINE('Line',#189,#191) ;
#199=LINE('Line',#196,#198) ;
#235=LINE('Line',#232,#234) ;
#242=LINE('Line',#239,#241) ;
#278=LINE('Line',#275,#277) ;
#285=LINE('Line',#282,#284) ;
#321=LINE('Line',#318,#320) ;
#328=LINE('Line',#325,#327) ;
#422=LINE('Line',#419,#421) ;
#427=LINE('Line',#424,#426) ;
#451=LINE('Line',#448,#450) ;
#456=LINE('Line',#453,#455) ;
#480=LINE('Line',#477,#479) ;
#487=LINE('Line',#484,#486) ;
#547=LINE('Line',#544,#546) ;
#552=LINE('Line',#549,#551) ;
#2=MECHANICAL_CONTEXT(' ',#1,'mechanical') ;
#24=PERSONAL_ADDRESS(' ',' ',' ',' ',' ',' ',' ',' ',' ',' ',' ',' ',(#22),' ') ;
#56=PLANE('Plane',#55) ;
#360=PLANE('Plane',#359) ;
#519=PLANE('Plane',#518) ;
#43=PLANE_ANGLE_MEASURE_WITH_UNIT(PLANE_ANGLE_MEASURE(0.0174532925199),#42) ;
#7=PRODUCT_CATEGORY('part',$) ;
#9=PRODUCT_CATEGORY_RELATIONSHIP(' ',' ',#7,#8) ;
#6=PRODUCT_DEFINITION_FORMATION_WITH_SPECIFIED_SOURCE('',' ',#5,.NOT_KNOWN.) ;
#8=PRODUCT_RELATED_PRODUCT_CATEGORY('detail',$,(#5)) ;
#50=SHAPE_DEFINITION_REPRESENTATION(#40,#49) ;
#62=VERTEX_POINT('',#61) ;
#64=VERTEX_POINT('',#63) ;
#80=VERTEX_POINT('',#79) ;
#82=VERTEX_POINT('',#81) ;
#98=VERTEX_POINT('',#97) ;
#100=VERTEX_POINT('',#99) ;
#116=VERTEX_POINT('',#115) ;
#118=VERTEX_POINT('',#117) ;
#134=VERTEX_POINT('',#133) ;
#136=VERTEX_POINT('',#135) ;
#152=VERTEX_POINT('',#151) ;
#154=VERTEX_POINT('',#153) ;
#170=VERTEX_POINT('',#169) ;
#172=VERTEX_POINT('',#171) ;
#194=VERTEX_POINT('',#193) ;
#201=VERTEX_POINT('',#200) ;
#237=VERTEX_POINT('',#236) ;
#244=VERTEX_POINT('',#243) ;
#280=VERTEX_POINT('',#279) ;
#287=VERTEX_POINT('',#286) ;
#323=VERTEX_POINT('',#322) ;
#330=VERTEX_POINT('',#329) ;
#366=VERTEX_POINT('',#365) ;
#368=VERTEX_POINT('',#367) ;
#388=VERTEX_POINT('',#387) ;
#390=VERTEX_POINT('',#389) ;
#482=VERTEX_POINT('',#481) ;
#489=VERTEX_POINT('',#488) ;
#525=VERTEX_POINT('',#524) ;
#527=VERTEX_POINT('',#526) ;
#41=(LENGTH_UNIT()NAMED_UNIT(*)SI_UNIT(.MILLI.,.METRE.)) ;
#42=(NAMED_UNIT(*)PLANE_ANGLE_UNIT()SI_UNIT($,.RADIAN.)) ;
#44=(NAMED_UNIT(*)SI_UNIT($,.STERADIAN.)SOLID_ANGLE_UNIT()) ;
#46=(GEOMETRIC_REPRESENTATION_CONTEXT(3)GLOBAL_UNCERTAINTY_ASSIGNED_CONTEXT((#45))GLOBAL_UNIT_ASSIGNED_CONTEXT((#41,#42,#44))REPRESENTATION_CONTEXT(' ',' ')) ;
ENDSEC;
END-ISO-10303-21;
