ISO-10303-21;
HEADER;
FILE_DESCRIPTION( ( '' ), ' ' );
FILE_NAME( '/vol/tmp/translate-4001044215032818861/5c9a46626b622b16c658902f.step', '2019-03-26T15:33:56', ( '' ), ( '' ), ' ', ' ', ' ' );
FILE_SCHEMA( ( 'AUTOMOTIVE_DESIGN { 1 0 10303 214 1 1 1 1 }' ) );
ENDSEC;
DATA;
#1 = MECHANICAL_DESIGN_GEOMETRIC_PRESENTATION_REPRESENTATION( ' ', ( #10, #11, #12, #13, #14, #15, #16, #17, #18, #19, #20, #21 ), #6 );
#2 = PRODUCT_DEFINITION_CONTEXT( '', #22, 'design' );
#3 = APPLICATION_PROTOCOL_DEFINITION( 'international standard', 'automotive_design', 2001, #22 );
#4 = PRODUCT_CATEGORY_RELATIONSHIP( 'NONE', 'NONE', #23, #24 );
#5 = SHAPE_DEFINITION_REPRESENTATION( #25, #26 );
#6 =  ( GEOMETRIC_REPRESENTATION_CONTEXT( 3 )GLOBAL_UNCERTAINTY_ASSIGNED_CONTEXT( ( #29 ) )GLOBAL_UNIT_ASSIGNED_CONTEXT( ( #31, #32, #33 ) )REPRESENTATION_CONTEXT( 'NONE', 'WORKSPACE' ) );
#10 = STYLED_ITEM( '', ( #35 ), #36 );
#11 = STYLED_ITEM( '', ( #37 ), #38 );
#12 = STYLED_ITEM( '', ( #39 ), #40 );
#13 = STYLED_ITEM( '', ( #41 ), #42 );
#14 = STYLED_ITEM( '', ( #43 ), #44 );
#15 = STYLED_ITEM( '', ( #45 ), #46 );
#16 = STYLED_ITEM( '', ( #47 ), #48 );
#17 = STYLED_ITEM( '', ( #49 ), #50 );
#18 = STYLED_ITEM( '', ( #51 ), #52 );
#19 = STYLED_ITEM( '', ( #53 ), #54 );
#20 = STYLED_ITEM( '', ( #55 ), #56 );
#21 = STYLED_ITEM( '', ( #57 ), #58 );
#22 = APPLICATION_CONTEXT( 'core data for automotive mechanical design processes' );
#23 = PRODUCT_CATEGORY( 'part', 'NONE' );
#24 = PRODUCT_RELATED_PRODUCT_CATEGORY( 'detail', ' ', ( #59 ) );
#25 = PRODUCT_DEFINITION_SHAPE( 'NONE', 'NONE', #60 );
#26 = ADVANCED_BREP_SHAPE_REPRESENTATION( 'MT02.0160.0021', ( #61, #62 ), #6 );
#29 = UNCERTAINTY_MEASURE_WITH_UNIT( LENGTH_MEASURE( 1.00000000000000E-06 ), #31, '', '' );
#31 =  ( CONVERSION_BASED_UNIT( 'METRE', #65 )LENGTH_UNIT(  )NAMED_UNIT( #68 ) );
#32 =  ( NAMED_UNIT( #70 )PLANE_ANGLE_UNIT(  )SI_UNIT( $, .RADIAN. ) );
#33 =  ( NAMED_UNIT( #70 )SI_UNIT( $, .STERADIAN. )SOLID_ANGLE_UNIT(  ) );
#35 = PRESENTATION_STYLE_ASSIGNMENT( ( #76 ) );
#36 = ADVANCED_FACE( '', ( #77, #78, #79 ), #80, .F. );
#37 = PRESENTATION_STYLE_ASSIGNMENT( ( #81 ) );
#38 = ADVANCED_FACE( '', ( #82, #83, #84 ), #85, .T. );
#39 = PRESENTATION_STYLE_ASSIGNMENT( ( #86 ) );
#40 = ADVANCED_FACE( '', ( #87 ), #88, .T. );
#41 = PRESENTATION_STYLE_ASSIGNMENT( ( #89 ) );
#42 = ADVANCED_FACE( '', ( #90 ), #91, .T. );
#43 = PRESENTATION_STYLE_ASSIGNMENT( ( #92 ) );
#44 = ADVANCED_FACE( '', ( #93 ), #94, .T. );
#45 = PRESENTATION_STYLE_ASSIGNMENT( ( #95 ) );
#46 = ADVANCED_FACE( '', ( #96, #97 ), #98, .F. );
#47 = PRESENTATION_STYLE_ASSIGNMENT( ( #99 ) );
#48 = ADVANCED_FACE( '', ( #100, #101 ), #102, .F. );
#49 = PRESENTATION_STYLE_ASSIGNMENT( ( #103 ) );
#50 = ADVANCED_FACE( '', ( #104 ), #105, .F. );
#51 = PRESENTATION_STYLE_ASSIGNMENT( ( #106 ) );
#52 = ADVANCED_FACE( '', ( #107 ), #108, .F. );
#53 = PRESENTATION_STYLE_ASSIGNMENT( ( #109 ) );
#54 = ADVANCED_FACE( '', ( #110 ), #111, .F. );
#55 = PRESENTATION_STYLE_ASSIGNMENT( ( #112 ) );
#56 = ADVANCED_FACE( '', ( #113 ), #114, .F. );
#57 = PRESENTATION_STYLE_ASSIGNMENT( ( #115 ) );
#58 = ADVANCED_FACE( '', ( #116 ), #117, .F. );
#59 = PRODUCT( 'MT02.0160.0021', 'MT02.0160.0021', 'PART-MT02.0160.0021-DESC', ( #118 ) );
#60 = PRODUCT_DEFINITION( 'NONE', 'NONE', #119, #2 );
#61 = MANIFOLD_SOLID_BREP( 'MT02.0160.0021', #120 );
#62 = AXIS2_PLACEMENT_3D( '', #121, #122, #123 );
#65 = LENGTH_MEASURE_WITH_UNIT( LENGTH_MEASURE( 1.00000000000000 ), #124 );
#68 = DIMENSIONAL_EXPONENTS( 1.00000000000000, 0.00000000000000, 0.00000000000000, 0.00000000000000, 0.00000000000000, 0.00000000000000, 0.00000000000000 );
#70 = DIMENSIONAL_EXPONENTS( 0.00000000000000, 0.00000000000000, 0.00000000000000, 0.00000000000000, 0.00000000000000, 0.00000000000000, 0.00000000000000 );
#76 = SURFACE_STYLE_USAGE( .BOTH., #125 );
#77 = FACE_OUTER_BOUND( '', #126, .T. );
#78 = FACE_BOUND( '', #127, .T. );
#79 = FACE_BOUND( '', #128, .T. );
#80 = PLANE( '', #129 );
#81 = SURFACE_STYLE_USAGE( .BOTH., #130 );
#82 = FACE_BOUND( '', #131, .T. );
#83 = FACE_OUTER_BOUND( '', #132, .T. );
#84 = FACE_BOUND( '', #133, .T. );
#85 = PLANE( '', #134 );
#86 = SURFACE_STYLE_USAGE( .BOTH., #135 );
#87 = FACE_OUTER_BOUND( '', #136, .T. );
#88 = PLANE( '', #137 );
#89 = SURFACE_STYLE_USAGE( .BOTH., #138 );
#90 = FACE_OUTER_BOUND( '', #139, .T. );
#91 = PLANE( '', #140 );
#92 = SURFACE_STYLE_USAGE( .BOTH., #141 );
#93 = FACE_OUTER_BOUND( '', #142, .T. );
#94 = PLANE( '', #143 );
#95 = SURFACE_STYLE_USAGE( .BOTH., #144 );
#96 = FACE_OUTER_BOUND( '', #145, .T. );
#97 = FACE_OUTER_BOUND( '', #146, .T. );
#98 = CYLINDRICAL_SURFACE( '', #147, 0.0100000000000000 );
#99 = SURFACE_STYLE_USAGE( .BOTH., #148 );
#100 = FACE_OUTER_BOUND( '', #149, .T. );
#101 = FACE_OUTER_BOUND( '', #150, .T. );
#102 = CYLINDRICAL_SURFACE( '', #151, 0.0100000000000000 );
#103 = SURFACE_STYLE_USAGE( .BOTH., #152 );
#104 = FACE_OUTER_BOUND( '', #153, .T. );
#105 = CYLINDRICAL_SURFACE( '', #154, 0.150000000000000 );
#106 = SURFACE_STYLE_USAGE( .BOTH., #155 );
#107 = FACE_OUTER_BOUND( '', #156, .T. );
#108 = CYLINDRICAL_SURFACE( '', #157, 0.00800000000000000 );
#109 = SURFACE_STYLE_USAGE( .BOTH., #158 );
#110 = FACE_OUTER_BOUND( '', #159, .T. );
#111 = PLANE( '', #160 );
#112 = SURFACE_STYLE_USAGE( .BOTH., #161 );
#113 = FACE_OUTER_BOUND( '', #162, .T. );
#114 = CYLINDRICAL_SURFACE( '', #163, 0.150000000000000 );
#115 = SURFACE_STYLE_USAGE( .BOTH., #164 );
#116 = FACE_OUTER_BOUND( '', #165, .T. );
#117 = PLANE( '', #166 );
#118 = PRODUCT_CONTEXT( '', #22, 'mechanical' );
#119 = PRODUCT_DEFINITION_FORMATION_WITH_SPECIFIED_SOURCE( ' ', 'NONE', #59, .NOT_KNOWN. );
#120 = CLOSED_SHELL( '', ( #52, #36, #38, #44, #58, #54, #40, #46, #50, #42, #56, #48 ) );
#121 = CARTESIAN_POINT( '', ( 0.00000000000000, 0.00000000000000, 0.00000000000000 ) );
#122 = DIRECTION( '', ( 0.00000000000000, 0.00000000000000, 1.00000000000000 ) );
#123 = DIRECTION( '', ( 1.00000000000000, 0.00000000000000, 0.00000000000000 ) );
#124 =  ( LENGTH_UNIT(  )NAMED_UNIT( #68 )SI_UNIT( $, .METRE. ) );
#125 = SURFACE_SIDE_STYLE( '', ( #168 ) );
#126 = EDGE_LOOP( '', ( #169, #170, #171, #172, #173 ) );
#127 = EDGE_LOOP( '', ( #174 ) );
#128 = EDGE_LOOP( '', ( #175 ) );
#129 = AXIS2_PLACEMENT_3D( '', #176, #177, #178 );
#130 = SURFACE_SIDE_STYLE( '', ( #179 ) );
#131 = EDGE_LOOP( '', ( #180 ) );
#132 = EDGE_LOOP( '', ( #181, #182, #183, #184, #185 ) );
#133 = EDGE_LOOP( '', ( #186 ) );
#134 = AXIS2_PLACEMENT_3D( '', #187, #188, #189 );
#135 = SURFACE_SIDE_STYLE( '', ( #190 ) );
#136 = EDGE_LOOP( '', ( #191, #192, #193, #194 ) );
#137 = AXIS2_PLACEMENT_3D( '', #195, #196, #197 );
#138 = SURFACE_SIDE_STYLE( '', ( #198 ) );
#139 = EDGE_LOOP( '', ( #199, #200, #201, #202 ) );
#140 = AXIS2_PLACEMENT_3D( '', #203, #204, #205 );
#141 = SURFACE_SIDE_STYLE( '', ( #206 ) );
#142 = EDGE_LOOP( '', ( #207, #208, #209, #210, #211, #212 ) );
#143 = AXIS2_PLACEMENT_3D( '', #213, #214, #215 );
#144 = SURFACE_SIDE_STYLE( '', ( #216 ) );
#145 = EDGE_LOOP( '', ( #217 ) );
#146 = EDGE_LOOP( '', ( #218 ) );
#147 = AXIS2_PLACEMENT_3D( '', #219, #220, #221 );
#148 = SURFACE_SIDE_STYLE( '', ( #222 ) );
#149 = EDGE_LOOP( '', ( #223 ) );
#150 = EDGE_LOOP( '', ( #224 ) );
#151 = AXIS2_PLACEMENT_3D( '', #225, #226, #227 );
#152 = SURFACE_SIDE_STYLE( '', ( #228 ) );
#153 = EDGE_LOOP( '', ( #229, #230, #231, #232 ) );
#154 = AXIS2_PLACEMENT_3D( '', #233, #234, #235 );
#155 = SURFACE_SIDE_STYLE( '', ( #236 ) );
#156 = EDGE_LOOP( '', ( #237, #238, #239, #240, #241, #242 ) );
#157 = AXIS2_PLACEMENT_3D( '', #243, #244, #245 );
#158 = SURFACE_SIDE_STYLE( '', ( #246 ) );
#159 = EDGE_LOOP( '', ( #247, #248, #249, #250, #251, #252 ) );
#160 = AXIS2_PLACEMENT_3D( '', #253, #254, #255 );
#161 = SURFACE_SIDE_STYLE( '', ( #256 ) );
#162 = EDGE_LOOP( '', ( #257, #258, #259, #260 ) );
#163 = AXIS2_PLACEMENT_3D( '', #261, #262, #263 );
#164 = SURFACE_SIDE_STYLE( '', ( #264 ) );
#165 = EDGE_LOOP( '', ( #265, #266, #267, #268 ) );
#166 = AXIS2_PLACEMENT_3D( '', #269, #270, #271 );
#168 = SURFACE_STYLE_FILL_AREA( #272 );
#169 = ORIENTED_EDGE( '', *, *, #273, .T. );
#170 = ORIENTED_EDGE( '', *, *, #274, .T. );
#171 = ORIENTED_EDGE( '', *, *, #275, .T. );
#172 = ORIENTED_EDGE( '', *, *, #276, .F. );
#173 = ORIENTED_EDGE( '', *, *, #277, .F. );
#174 = ORIENTED_EDGE( '', *, *, #278, .T. );
#175 = ORIENTED_EDGE( '', *, *, #279, .T. );
#176 = CARTESIAN_POINT( '', ( -0.0610000000000000, 0.0325000000000000, 0.0651507639624108 ) );
#177 = DIRECTION( '', ( -1.05714320103794E-25, -1.00000000000000, 3.87795476282573E-25 ) );
#178 = DIRECTION( '', ( 1.00000000000000, -1.05714320103794E-25, 4.09955351145390E-50 ) );
#179 = SURFACE_STYLE_FILL_AREA( #280 );
#180 = ORIENTED_EDGE( '', *, *, #281, .F. );
#181 = ORIENTED_EDGE( '', *, *, #282, .F. );
#182 = ORIENTED_EDGE( '', *, *, #283, .T. );
#183 = ORIENTED_EDGE( '', *, *, #284, .T. );
#184 = ORIENTED_EDGE( '', *, *, #285, .F. );
#185 = ORIENTED_EDGE( '', *, *, #286, .F. );
#186 = ORIENTED_EDGE( '', *, *, #287, .F. );
#187 = CARTESIAN_POINT( '', ( -0.0357500000000000, -0.0325000000000000, 0.0292500000000000 ) );
#188 = DIRECTION( '', ( 0.00000000000000, -1.00000000000000, 0.00000000000000 ) );
#189 = DIRECTION( '', ( 1.00000000000000, 0.00000000000000, 0.00000000000000 ) );
#190 = SURFACE_STYLE_FILL_AREA( #288 );
#191 = ORIENTED_EDGE( '', *, *, #289, .F. );
#192 = ORIENTED_EDGE( '', *, *, #290, .T. );
#193 = ORIENTED_EDGE( '', *, *, #275, .F. );
#194 = ORIENTED_EDGE( '', *, *, #291, .F. );
#195 = CARTESIAN_POINT( '', ( -0.0737966933112239, -0.0325020000000000, 0.0329549078641145 ) );
#196 = DIRECTION( '', ( 1.12455786833373E-16, -3.87795476282573E-25, -1.00000000000000 ) );
#197 = DIRECTION( '', ( -1.00000000000000, 0.00000000000000, -1.12455786833373E-16 ) );
#198 = SURFACE_STYLE_FILL_AREA( #292 );
#199 = ORIENTED_EDGE( '', *, *, #293, .F. );
#200 = ORIENTED_EDGE( '', *, *, #294, .F. );
#201 = ORIENTED_EDGE( '', *, *, #285, .T. );
#202 = ORIENTED_EDGE( '', *, *, #295, .T. );
#203 = CARTESIAN_POINT( '', ( -0.0737966933112239, -0.0325020000000000, 0.0329549078641145 ) );
#204 = DIRECTION( '', ( 1.12455786833373E-16, -3.87795476282573E-25, -1.00000000000000 ) );
#205 = DIRECTION( '', ( -1.00000000000000, 0.00000000000000, -1.12455786833373E-16 ) );
#206 = SURFACE_STYLE_FILL_AREA( #296 );
#207 = ORIENTED_EDGE( '', *, *, #297, .F. );
#208 = ORIENTED_EDGE( '', *, *, #298, .T. );
#209 = ORIENTED_EDGE( '', *, *, #273, .F. );
#210 = ORIENTED_EDGE( '', *, *, #299, .F. );
#211 = ORIENTED_EDGE( '', *, *, #282, .T. );
#212 = ORIENTED_EDGE( '', *, *, #300, .T. );
#213 = CARTESIAN_POINT( '', ( 0.00950000000000000, -0.0325020000000000, 0.0637049078641145 ) );
#214 = DIRECTION( '', ( 1.00000000000000, -1.05714320103793E-25, 3.26187320269144E-16 ) );
#215 = DIRECTION( '', ( 3.26187320269144E-16, 0.00000000000000, -1.00000000000000 ) );
#216 = SURFACE_STYLE_FILL_AREA( #301 );
#217 = ORIENTED_EDGE( '', *, *, #278, .F. );
#218 = ORIENTED_EDGE( '', *, *, #287, .T. );
#219 = CARTESIAN_POINT( '', ( -0.00649999999999988, -0.0325020000000000, 0.0749549078641144 ) );
#220 = DIRECTION( '', ( -1.05714320103794E-25, -1.00000000000000, 3.87795476282572E-25 ) );
#221 = DIRECTION( '', ( 0.00000000000000, 3.87795476282572E-25, 1.00000000000000 ) );
#222 = SURFACE_STYLE_FILL_AREA( #302 );
#223 = ORIENTED_EDGE( '', *, *, #279, .F. );
#224 = ORIENTED_EDGE( '', *, *, #281, .T. );
#225 = CARTESIAN_POINT( '', ( -0.0865000000000000, -0.0325020000000000, 0.0749549078641144 ) );
#226 = DIRECTION( '', ( -1.05714320103794E-25, -1.00000000000000, 3.87795476282572E-25 ) );
#227 = DIRECTION( '', ( 0.00000000000000, 3.87795476282572E-25, 1.00000000000000 ) );
#228 = SURFACE_STYLE_FILL_AREA( #303 );
#229 = ORIENTED_EDGE( '', *, *, #304, .F. );
#230 = ORIENTED_EDGE( '', *, *, #291, .T. );
#231 = ORIENTED_EDGE( '', *, *, #274, .F. );
#232 = ORIENTED_EDGE( '', *, *, #298, .F. );
#233 = CARTESIAN_POINT( '', ( 0.00907102175824687, -0.0325020000000000, -0.115544478726857 ) );
#234 = DIRECTION( '', ( -1.05714320103794E-25, -1.00000000000000, 3.87795476282573E-25 ) );
#235 = DIRECTION( '', ( 0.00000000000000, 3.87795476282573E-25, 1.00000000000000 ) );
#236 = SURFACE_STYLE_FILL_AREA( #305 );
#237 = ORIENTED_EDGE( '', *, *, #293, .T. );
#238 = ORIENTED_EDGE( '', *, *, #306, .T. );
#239 = ORIENTED_EDGE( '', *, *, #289, .T. );
#240 = ORIENTED_EDGE( '', *, *, #304, .T. );
#241 = ORIENTED_EDGE( '', *, *, #297, .T. );
#242 = ORIENTED_EDGE( '', *, *, #307, .T. );
#243 = CARTESIAN_POINT( '', ( 0.0988000000000000, -2.47688652003189E-26, 0.0329549078641145 ) );
#244 = DIRECTION( '', ( 1.00000000000000, -1.05714320103794E-25, -0.00000000000000 ) );
#245 = DIRECTION( '', ( -1.05714320103794E-25, -1.00000000000000, 0.00000000000000 ) );
#246 = SURFACE_STYLE_FILL_AREA( #308 );
#247 = ORIENTED_EDGE( '', *, *, #306, .F. );
#248 = ORIENTED_EDGE( '', *, *, #295, .F. );
#249 = ORIENTED_EDGE( '', *, *, #284, .F. );
#250 = ORIENTED_EDGE( '', *, *, #309, .T. );
#251 = ORIENTED_EDGE( '', *, *, #276, .T. );
#252 = ORIENTED_EDGE( '', *, *, #290, .F. );
#253 = CARTESIAN_POINT( '', ( -0.135500000000000, -0.0325020000000000, 0.0629549078641145 ) );
#254 = DIRECTION( '', ( 1.00000000000000, -1.05714320103794E-25, 0.00000000000000 ) );
#255 = DIRECTION( '', ( 1.05714320103794E-25, 1.00000000000000, 0.00000000000000 ) );
#256 = SURFACE_STYLE_FILL_AREA( #310 );
#257 = ORIENTED_EDGE( '', *, *, #307, .F. );
#258 = ORIENTED_EDGE( '', *, *, #300, .F. );
#259 = ORIENTED_EDGE( '', *, *, #286, .T. );
#260 = ORIENTED_EDGE( '', *, *, #294, .T. );
#261 = CARTESIAN_POINT( '', ( 0.00907102175824687, -0.0325020000000000, -0.115544478726857 ) );
#262 = DIRECTION( '', ( -1.05714320103794E-25, -1.00000000000000, 3.87795476282573E-25 ) );
#263 = DIRECTION( '', ( 0.00000000000000, 3.87795476282573E-25, 1.00000000000000 ) );
#264 = SURFACE_STYLE_FILL_AREA( #311 );
#265 = ORIENTED_EDGE( '', *, *, #283, .F. );
#266 = ORIENTED_EDGE( '', *, *, #299, .T. );
#267 = ORIENTED_EDGE( '', *, *, #277, .T. );
#268 = ORIENTED_EDGE( '', *, *, #309, .F. );
#269 = CARTESIAN_POINT( '', ( -0.0630000000000000, -0.0325020000000000, 0.0929549078641144 ) );
#270 = DIRECTION( '', ( 1.91417762866406E-16, -3.87795476282573E-25, -1.00000000000000 ) );
#271 = DIRECTION( '', ( -1.00000000000000, 0.00000000000000, -1.91417762866406E-16 ) );
#272 = FILL_AREA_STYLE( '', ( #312 ) );
#273 = EDGE_CURVE( '', #313, #314, #315, .T. );
#274 = EDGE_CURVE( '', #314, #316, #317, .T. );
#275 = EDGE_CURVE( '', #316, #318, #319, .T. );
#276 = EDGE_CURVE( '', #320, #318, #321, .T. );
#277 = EDGE_CURVE( '', #313, #320, #322, .T. );
#278 = EDGE_CURVE( '', #323, #323, #324, .T. );
#279 = EDGE_CURVE( '', #325, #325, #326, .T. );
#280 = FILL_AREA_STYLE( '', ( #327 ) );
#281 = EDGE_CURVE( '', #328, #328, #329, .T. );
#282 = EDGE_CURVE( '', #330, #331, #332, .T. );
#283 = EDGE_CURVE( '', #330, #333, #334, .T. );
#284 = EDGE_CURVE( '', #333, #335, #336, .T. );
#285 = EDGE_CURVE( '', #337, #335, #338, .T. );
#286 = EDGE_CURVE( '', #331, #337, #339, .T. );
#287 = EDGE_CURVE( '', #340, #340, #341, .T. );
#288 = FILL_AREA_STYLE( '', ( #342 ) );
#289 = EDGE_CURVE( '', #343, #344, #345, .F. );
#290 = EDGE_CURVE( '', #343, #318, #346, .T. );
#291 = EDGE_CURVE( '', #344, #316, #347, .T. );
#292 = FILL_AREA_STYLE( '', ( #348 ) );
#293 = EDGE_CURVE( '', #349, #350, #351, .T. );
#294 = EDGE_CURVE( '', #337, #349, #352, .T. );
#295 = EDGE_CURVE( '', #335, #350, #353, .T. );
#296 = FILL_AREA_STYLE( '', ( #354 ) );
#297 = EDGE_CURVE( '', #355, #356, #357, .T. );
#298 = EDGE_CURVE( '', #355, #314, #358, .T. );
#299 = EDGE_CURVE( '', #330, #313, #359, .T. );
#300 = EDGE_CURVE( '', #331, #356, #360, .T. );
#301 = FILL_AREA_STYLE( '', ( #361 ) );
#302 = FILL_AREA_STYLE( '', ( #362 ) );
#303 = FILL_AREA_STYLE( '', ( #363 ) );
#304 = EDGE_CURVE( '', #344, #355, #364, .T. );
#305 = FILL_AREA_STYLE( '', ( #365 ) );
#306 = EDGE_CURVE( '', #350, #343, #366, .T. );
#307 = EDGE_CURVE( '', #356, #349, #367, .T. );
#308 = FILL_AREA_STYLE( '', ( #368 ) );
#309 = EDGE_CURVE( '', #333, #320, #369, .T. );
#310 = FILL_AREA_STYLE( '', ( #370 ) );
#311 = FILL_AREA_STYLE( '', ( #371 ) );
#312 = FILL_AREA_STYLE_COLOUR( '', #372 );
#313 = VERTEX_POINT( '', #373 );
#314 = VERTEX_POINT( '', #374 );
#315 = LINE( '', #375, #376 );
#316 = VERTEX_POINT( '', #377 );
#317 = CIRCLE( '', #378, 0.150000000000000 );
#318 = VERTEX_POINT( '', #379 );
#319 = LINE( '', #380, #381 );
#320 = VERTEX_POINT( '', #382 );
#321 = LINE( '', #383, #384 );
#322 = LINE( '', #385, #386 );
#323 = VERTEX_POINT( '', #387 );
#324 = CIRCLE( '', #388, 0.0100000000000000 );
#325 = VERTEX_POINT( '', #389 );
#326 = CIRCLE( '', #390, 0.0100000000000000 );
#327 = FILL_AREA_STYLE_COLOUR( '', #391 );
#328 = VERTEX_POINT( '', #392 );
#329 = CIRCLE( '', #393, 0.0100000000000000 );
#330 = VERTEX_POINT( '', #394 );
#331 = VERTEX_POINT( '', #395 );
#332 = LINE( '', #396, #397 );
#333 = VERTEX_POINT( '', #398 );
#334 = LINE( '', #399, #400 );
#335 = VERTEX_POINT( '', #401 );
#336 = LINE( '', #402, #403 );
#337 = VERTEX_POINT( '', #404 );
#338 = LINE( '', #405, #406 );
#339 = CIRCLE( '', #407, 0.150000000000000 );
#340 = VERTEX_POINT( '', #408 );
#341 = CIRCLE( '', #409, 0.0100000000000000 );
#342 = FILL_AREA_STYLE_COLOUR( '', #410 );
#343 = VERTEX_POINT( '', #411 );
#344 = VERTEX_POINT( '', #412 );
#345 = LINE( '', #413, #414 );
#346 = LINE( '', #415, #416 );
#347 = LINE( '', #417, #418 );
#348 = FILL_AREA_STYLE_COLOUR( '', #419 );
#349 = VERTEX_POINT( '', #420 );
#350 = VERTEX_POINT( '', #421 );
#351 = LINE( '', #422, #423 );
#352 = LINE( '', #424, #425 );
#353 = LINE( '', #426, #427 );
#354 = FILL_AREA_STYLE_COLOUR( '', #428 );
#355 = VERTEX_POINT( '', #429 );
#356 = VERTEX_POINT( '', #430 );
#357 = CIRCLE( '', #431, 0.00800000000000000 );
#358 = LINE( '', #432, #433 );
#359 = LINE( '', #434, #435 );
#360 = LINE( '', #436, #437 );
#361 = FILL_AREA_STYLE_COLOUR( '', #438 );
#362 = FILL_AREA_STYLE_COLOUR( '', #439 );
#363 = FILL_AREA_STYLE_COLOUR( '', #440 );
#364 = B_SPLINE_CURVE_WITH_KNOTS( '', 3, ( #441, #442, #443, #444, #445, #446 ), .UNSPECIFIED., .F., .F., ( 4, 2, 4 ), ( 6.11105435484612E-17, 0.0108248889539071, 0.0216497779078142 ), .UNSPECIFIED. );
#365 = FILL_AREA_STYLE_COLOUR( '', #447 );
#366 = CIRCLE( '', #448, 0.00800000000000000 );
#367 = B_SPLINE_CURVE_WITH_KNOTS( '', 3, ( #449, #450, #451, #452, #453, #454 ), .UNSPECIFIED., .F., .F., ( 4, 2, 4 ), ( 1.73472347597681E-18, 0.0108248694098117, 0.0216497388196234 ), .UNSPECIFIED. );
#368 = FILL_AREA_STYLE_COLOUR( '', #455 );
#369 = LINE( '', #456, #457 );
#370 = FILL_AREA_STYLE_COLOUR( '', #458 );
#371 = FILL_AREA_STYLE_COLOUR( '', #459 );
#372 = COLOUR_RGB( '', 0.564705908300000, 0.811764717100000, 0.945098042500000 );
#373 = CARTESIAN_POINT( '', ( 0.00950000000000000, 0.0325000000000000, 0.0929549078641144 ) );
#374 = CARTESIAN_POINT( '', ( 0.00950000000000000, 0.0325000000000000, 0.0344549078641144 ) );
#375 = CARTESIAN_POINT( '', ( 0.00950000000000000, 0.0325000000000000, 0.0637049078641145 ) );
#376 = VECTOR( '', #460, 1.00000000000000 );
#377 = CARTESIAN_POINT( '', ( -0.0120933866224479, 0.0325000000000000, 0.0329549078641145 ) );
#378 = AXIS2_PLACEMENT_3D( '', #461, #462, #463 );
#379 = CARTESIAN_POINT( '', ( -0.135500000000000, 0.0325000000000000, 0.0329549078641145 ) );
#380 = CARTESIAN_POINT( '', ( -0.0737966933112239, 0.0325000000000000, 0.0329549078641145 ) );
#381 = VECTOR( '', #464, 1.00000000000000 );
#382 = CARTESIAN_POINT( '', ( -0.135500000000000, 0.0325000000000000, 0.0929549078641144 ) );
#383 = CARTESIAN_POINT( '', ( -0.135500000000000, 0.0325000000000000, 0.0629549078641145 ) );
#384 = VECTOR( '', #465, 1.00000000000000 );
#385 = CARTESIAN_POINT( '', ( -0.0630000000000000, 0.0325000000000000, 0.0929549078641144 ) );
#386 = VECTOR( '', #466, 1.00000000000000 );
#387 = CARTESIAN_POINT( '', ( -0.00649999999999988, 0.0325000000000000, 0.0649549078641144 ) );
#388 = AXIS2_PLACEMENT_3D( '', #467, #468, #469 );
#389 = CARTESIAN_POINT( '', ( -0.0865000000000000, 0.0325000000000000, 0.0649549078641144 ) );
#390 = AXIS2_PLACEMENT_3D( '', #470, #471, #472 );
#391 = COLOUR_RGB( '', 0.564705908300000, 0.811764717100000, 0.945098042500000 );
#392 = CARTESIAN_POINT( '', ( -0.0865000000000000, -0.0325000000000000, 0.0649549078641144 ) );
#393 = AXIS2_PLACEMENT_3D( '', #473, #474, #475 );
#394 = CARTESIAN_POINT( '', ( 0.00950000000000000, -0.0325000000000000, 0.0929549078641144 ) );
#395 = CARTESIAN_POINT( '', ( 0.00950000000000000, -0.0325000000000000, 0.0344549078641144 ) );
#396 = CARTESIAN_POINT( '', ( 0.00950000000000000, -0.0325000000000000, 0.0637049078641145 ) );
#397 = VECTOR( '', #476, 1.00000000000000 );
#398 = CARTESIAN_POINT( '', ( -0.135500000000000, -0.0325000000000000, 0.0929549078641144 ) );
#399 = CARTESIAN_POINT( '', ( -0.0630000000000000, -0.0325000000000000, 0.0929549078641144 ) );
#400 = VECTOR( '', #477, 1.00000000000000 );
#401 = CARTESIAN_POINT( '', ( -0.135500000000000, -0.0325000000000000, 0.0329549078641145 ) );
#402 = CARTESIAN_POINT( '', ( -0.135500000000000, -0.0325000000000000, 0.0629549078641145 ) );
#403 = VECTOR( '', #478, 1.00000000000000 );
#404 = CARTESIAN_POINT( '', ( -0.0120933866224479, -0.0325000000000000, 0.0329549078641145 ) );
#405 = CARTESIAN_POINT( '', ( -0.0737966933112239, -0.0325000000000000, 0.0329549078641145 ) );
#406 = VECTOR( '', #479, 1.00000000000000 );
#407 = AXIS2_PLACEMENT_3D( '', #480, #481, #482 );
#408 = CARTESIAN_POINT( '', ( -0.00649999999999988, -0.0325000000000000, 0.0649549078641144 ) );
#409 = AXIS2_PLACEMENT_3D( '', #483, #484, #485 );
#410 = COLOUR_RGB( '', 0.564705908300000, 0.811764717100000, 0.945098042500000 );
#411 = CARTESIAN_POINT( '', ( -0.135500000000000, 0.00800000000000000, 0.0329549078641145 ) );
#412 = CARTESIAN_POINT( '', ( -0.0120933866224479, 0.00800000000000000, 0.0329549078641145 ) );
#413 = CARTESIAN_POINT( '', ( 0.0988000000000000, 0.00800000000000000, 0.0329549078641145 ) );
#414 = VECTOR( '', #486, 1.00000000000000 );
#415 = CARTESIAN_POINT( '', ( -0.135500000000000, -0.0325020000000000, 0.0329549078641145 ) );
#416 = VECTOR( '', #487, 1.00000000000000 );
#417 = CARTESIAN_POINT( '', ( -0.0120933866224479, -0.0325020000000000, 0.0329549078641145 ) );
#418 = VECTOR( '', #488, 1.00000000000000 );
#419 = COLOUR_RGB( '', 0.564705908300000, 0.811764717100000, 0.945098042500000 );
#420 = CARTESIAN_POINT( '', ( -0.0120933866224479, -0.00800000000000000, 0.0329549078641145 ) );
#421 = CARTESIAN_POINT( '', ( -0.135500000000000, -0.00800000000000000, 0.0329549078641145 ) );
#422 = CARTESIAN_POINT( '', ( 0.0988000000000000, -0.00800000000000000, 0.0329549078641145 ) );
#423 = VECTOR( '', #489, 1.00000000000000 );
#424 = CARTESIAN_POINT( '', ( -0.0120933866224479, -0.0325020000000000, 0.0329549078641145 ) );
#425 = VECTOR( '', #490, 1.00000000000000 );
#426 = CARTESIAN_POINT( '', ( -0.135500000000000, -0.0325020000000000, 0.0329549078641145 ) );
#427 = VECTOR( '', #491, 1.00000000000000 );
#428 = COLOUR_RGB( '', 0.564705908300000, 0.811764717100000, 0.945098042500000 );
#429 = CARTESIAN_POINT( '', ( 0.00950000000000000, 0.00785811682275085, 0.0344549078641145 ) );
#430 = CARTESIAN_POINT( '', ( 0.00950000000000000, -0.00785811682275085, 0.0344549078641144 ) );
#431 = AXIS2_PLACEMENT_3D( '', #492, #493, #494 );
#432 = CARTESIAN_POINT( '', ( 0.00950000000000000, -0.0325020000000000, 0.0344549078641144 ) );
#433 = VECTOR( '', #495, 1.00000000000000 );
#434 = CARTESIAN_POINT( '', ( 0.00950000000000000, -0.0325020000000000, 0.0929549078641144 ) );
#435 = VECTOR( '', #496, 1.00000000000000 );
#436 = CARTESIAN_POINT( '', ( 0.00950000000000000, -0.0325020000000000, 0.0344549078641144 ) );
#437 = VECTOR( '', #497, 1.00000000000000 );
#438 = COLOUR_RGB( '', 0.564705908300000, 0.811764717100000, 0.945098042500000 );
#439 = COLOUR_RGB( '', 0.564705908300000, 0.811764717100000, 0.945098042500000 );
#440 = COLOUR_RGB( '', 0.564705908300000, 0.811764717100000, 0.945098042500000 );
#441 = CARTESIAN_POINT( '', ( -0.0120933866224479, 0.00800000000000000, 0.0329549078641145 ) );
#442 = CARTESIAN_POINT( '', ( -0.00851597273182264, 0.00800000000000000, 0.0334647675360369 ) );
#443 = CARTESIAN_POINT( '', ( -0.00492741840459002, 0.00795440175752015, 0.0338444995145082 ) );
#444 = CARTESIAN_POINT( '', ( 0.00227273798150507, 0.00788238429115230, 0.0343448353841980 ) );
#445 = CARTESIAN_POINT( '', ( 0.00588655434132627, 0.00785614421794076, 0.0344652418368097 ) );
#446 = CARTESIAN_POINT( '', ( 0.00950000000000000, 0.00785811682275085, 0.0344549078641145 ) );
#447 = COLOUR_RGB( '', 0.564705908300000, 0.811764717100000, 0.945098042500000 );
#448 = AXIS2_PLACEMENT_3D( '', #498, #499, #500 );
#449 = CARTESIAN_POINT( '', ( 0.00950000000000000, -0.00785811682275085, 0.0344549078641145 ) );
#450 = CARTESIAN_POINT( '', ( 0.00588646521736016, -0.00785614416928737, 0.0344652420916923 ) );
#451 = CARTESIAN_POINT( '', ( 0.00227972946077993, -0.00788232302958270, 0.0343451523519484 ) );
#452 = CARTESIAN_POINT( '', ( -0.00492045274413320, -0.00795432343364368, 0.0338451520955641 ) );
#453 = CARTESIAN_POINT( '', ( -0.00851605605477643, -0.00800000000000000, 0.0334647556606948 ) );
#454 = CARTESIAN_POINT( '', ( -0.0120933866224479, -0.00800000000000000, 0.0329549078641145 ) );
#455 = COLOUR_RGB( '', 0.564705908300000, 0.811764717100000, 0.945098042500000 );
#456 = CARTESIAN_POINT( '', ( -0.135500000000000, -0.0325020000000000, 0.0929549078641144 ) );
#457 = VECTOR( '', #501, 1.00000000000000 );
#458 = COLOUR_RGB( '', 0.564705908300000, 0.811764717100000, 0.945098042500000 );
#459 = COLOUR_RGB( '', 0.564705908300000, 0.811764717100000, 0.945098042500000 );
#460 = DIRECTION( '', ( 3.26187320269144E-16, -3.87795476282573E-25, -1.00000000000000 ) );
#461 = CARTESIAN_POINT( '', ( 0.00907102175824687, 0.0325000000000000, -0.115544478726857 ) );
#462 = DIRECTION( '', ( -1.05714320103794E-25, -1.00000000000000, 3.87795476282573E-25 ) );
#463 = DIRECTION( '', ( 0.00000000000000, -3.87795476282573E-25, -1.00000000000000 ) );
#464 = DIRECTION( '', ( -1.00000000000000, 1.05714320103794E-25, -1.12455786833373E-16 ) );
#465 = DIRECTION( '', ( -4.09955351145390E-50, -3.87795476282573E-25, -1.00000000000000 ) );
#466 = DIRECTION( '', ( -1.00000000000000, 1.05714320103794E-25, -1.91417762866406E-16 ) );
#467 = CARTESIAN_POINT( '', ( -0.00649999999999988, 0.0325000000000000, 0.0749549078641144 ) );
#468 = DIRECTION( '', ( -1.05714320103794E-25, -1.00000000000000, 3.87795476282572E-25 ) );
#469 = DIRECTION( '', ( 0.00000000000000, -3.87795476282572E-25, -1.00000000000000 ) );
#470 = CARTESIAN_POINT( '', ( -0.0865000000000000, 0.0325000000000000, 0.0749549078641144 ) );
#471 = DIRECTION( '', ( -1.05714320103794E-25, -1.00000000000000, 3.87795476282572E-25 ) );
#472 = DIRECTION( '', ( 0.00000000000000, -3.87795476282572E-25, -1.00000000000000 ) );
#473 = CARTESIAN_POINT( '', ( -0.0865000000000000, -0.0325000000000000, 0.0749549078641144 ) );
#474 = DIRECTION( '', ( 0.00000000000000, -1.00000000000000, 0.00000000000000 ) );
#475 = DIRECTION( '', ( 0.00000000000000, 0.00000000000000, -1.00000000000000 ) );
#476 = DIRECTION( '', ( 3.26187320269144E-16, 0.00000000000000, -1.00000000000000 ) );
#477 = DIRECTION( '', ( -1.00000000000000, 0.00000000000000, -1.91417762866406E-16 ) );
#478 = DIRECTION( '', ( 0.00000000000000, 0.00000000000000, -1.00000000000000 ) );
#479 = DIRECTION( '', ( -1.00000000000000, 0.00000000000000, -1.12455786833373E-16 ) );
#480 = CARTESIAN_POINT( '', ( 0.00907102175824687, -0.0325000000000000, -0.115544478726857 ) );
#481 = DIRECTION( '', ( 0.00000000000000, -1.00000000000000, 0.00000000000000 ) );
#482 = DIRECTION( '', ( 0.00000000000000, 0.00000000000000, -1.00000000000000 ) );
#483 = CARTESIAN_POINT( '', ( -0.00649999999999988, -0.0325000000000000, 0.0749549078641144 ) );
#484 = DIRECTION( '', ( 0.00000000000000, -1.00000000000000, 0.00000000000000 ) );
#485 = DIRECTION( '', ( 0.00000000000000, 0.00000000000000, -1.00000000000000 ) );
#486 = DIRECTION( '', ( -1.00000000000000, 1.05714320103794E-25, 0.00000000000000 ) );
#487 = DIRECTION( '', ( 1.05714320103794E-25, 1.00000000000000, -3.87795476282573E-25 ) );
#488 = DIRECTION( '', ( 1.05714320103794E-25, 1.00000000000000, -3.87795476282573E-25 ) );
#489 = DIRECTION( '', ( -1.00000000000000, 1.05714320103794E-25, 0.00000000000000 ) );
#490 = DIRECTION( '', ( 1.05714320103794E-25, 1.00000000000000, -3.87795476282573E-25 ) );
#491 = DIRECTION( '', ( 1.05714320103794E-25, 1.00000000000000, -3.87795476282573E-25 ) );
#492 = CARTESIAN_POINT( '', ( 0.00950000000000000, -1.53285764150501E-26, 0.0329549078641145 ) );
#493 = DIRECTION( '', ( 1.00000000000000, -1.05714320103793E-25, 3.26187320269144E-16 ) );
#494 = DIRECTION( '', ( 3.26187320269144E-16, 0.00000000000000, -1.00000000000000 ) );
#495 = DIRECTION( '', ( 1.05714320103794E-25, 1.00000000000000, -3.87795476282573E-25 ) );
#496 = DIRECTION( '', ( 1.05714320103794E-25, 1.00000000000000, -3.87795476282573E-25 ) );
#497 = DIRECTION( '', ( 1.05714320103794E-25, 1.00000000000000, -3.87795476282573E-25 ) );
#498 = CARTESIAN_POINT( '', ( -0.135500000000000, 1.60081357392432E-76, 0.0329549078641145 ) );
#499 = DIRECTION( '', ( -1.00000000000000, 1.05714320103794E-25, 0.00000000000000 ) );
#500 = DIRECTION( '', ( -1.05714320103794E-25, -1.00000000000000, 0.00000000000000 ) );
#501 = DIRECTION( '', ( 1.05714320103794E-25, 1.00000000000000, -3.87795476282573E-25 ) );
ENDSEC;
END-ISO-10303-21;
