ISO-10303-21;
HEADER;
FILE_DESCRIPTION (( 'STEP AP214' ),
    '1' );
FILE_NAME ('usi-remo-03_entretoise brosse.STEP',
    '2019-06-25T13:59:10',
    ( '' ),
    ( '' ),
    'SwSTEP 2.0',
    'SolidWorks 2016',
    '' );
FILE_SCHEMA (( 'AUTOMOTIVE_DESIGN' ));
ENDSEC;

DATA;
#1 = EDGE_CURVE ( 'NONE', #191, #17, #35, .T. ) ;
#2 = FILL_AREA_STYLE_COLOUR ( '', #100 ) ;
#3 = DIRECTION ( 'NONE',  ( -0.0000000000000000000, -0.0000000000000000000, -1.000000000000000000 ) ) ;
#4 = PRODUCT_CONTEXT ( 'NONE', #133, 'mechanical' ) ;
#5 = ORIENTED_EDGE ( 'NONE', *, *, #88, .F. ) ;
#6 = ADVANCED_FACE ( 'NONE', ( #79, #206 ), #164, .T. ) ;
#7 = AXIS2_PLACEMENT_3D ( 'NONE', #53, #65, #52 ) ;
#8 = CIRCLE ( 'NONE', #70, 50.00000000000000000 ) ;
#9 = PRODUCT_DEFINITION_SHAPE ( 'NONE', 'NONE',  #101 ) ;
#10 = VERTEX_POINT ( 'NONE', #91 ) ;
#11 = EDGE_CURVE ( 'NONE', #54, #10, #27, .T. ) ;
#12 = DIRECTION ( 'NONE',  ( 1.000000000000000000, 0.0000000000000000000, 0.0000000000000000000 ) ) ;
#13 = FACE_BOUND ( 'NONE', #209, .T. ) ;
#14 = DIRECTION ( 'NONE',  ( 1.000000000000000000, 0.0000000000000000000, 0.0000000000000000000 ) ) ;
#15 = CARTESIAN_POINT ( 'NONE',  ( 0.0000000000000000000, 0.0000000000000000000, 0.0000000000000000000 ) ) ;
#16 = DIRECTION ( 'NONE',  ( 1.000000000000000000, 0.0000000000000000000, -0.0000000000000000000 ) ) ;
#17 = VERTEX_POINT ( 'NONE', #120 ) ;
#18 = FILL_AREA_STYLE ('',( #2 ) ) ;
#19 = DIRECTION ( 'NONE',  ( -1.000000000000000000, 0.0000000000000000000, 0.0000000000000000000 ) ) ;
#20 = FACE_OUTER_BOUND ( 'NONE', #84, .T. ) ;
#21 = EDGE_LOOP ( 'NONE', ( #72, #204 ) ) ;
#22 = ORIENTED_EDGE ( 'NONE', *, *, #139, .T. ) ;
#23 = STYLED_ITEM ( 'NONE', ( #170 ), #94 ) ;
#24 = CYLINDRICAL_SURFACE ( 'NONE', #7, 57.49999999999999300 ) ;
#25 = LINE ( 'NONE', #197, #195 ) ;
#26 = VERTEX_POINT ( 'NONE', #31 ) ;
#27 = CIRCLE ( 'NONE', #93, 50.00000000000000000 ) ;
#28 = CARTESIAN_POINT ( 'NONE',  ( 0.0000000000000000000, 0.0000000000000000000, 15.00000000000000000 ) ) ;
#29 = CARTESIAN_POINT ( 'NONE',  ( 0.0000000000000000000, 0.0000000000000000000, 15.00000000000000000 ) ) ;
#30 = CYLINDRICAL_SURFACE ( 'NONE', #64, 50.00000000000000000 ) ;
#31 = CARTESIAN_POINT ( 'NONE',  ( -50.00000000000000000, 0.0000000000000000000, 0.0000000000000000000 ) ) ;
#32 = ORIENTED_EDGE ( 'NONE', *, *, #198, .F. ) ;
#33 = CARTESIAN_POINT ( 'NONE',  ( 0.0000000000000000000, 0.0000000000000000000, 15.00000000000000000 ) ) ;
#34 = DIRECTION ( 'NONE',  ( 0.0000000000000000000, 0.0000000000000000000, 1.000000000000000000 ) ) ;
#35 = CIRCLE ( 'NONE', #157, 57.49999999999999300 ) ;
#36 = DIRECTION ( 'NONE',  ( 0.0000000000000000000, 0.0000000000000000000, 1.000000000000000000 ) ) ;
#37 = SURFACE_SIDE_STYLE ('',( #203 ) ) ;
#38 = EDGE_CURVE ( 'NONE', #117, #143, #196, .T. ) ;
#39 = DIRECTION ( 'NONE',  ( 1.000000000000000000, 0.0000000000000000000, 0.0000000000000000000 ) ) ;
#40 = DIRECTION ( 'NONE',  ( -1.000000000000000000, 0.0000000000000000000, 0.0000000000000000000 ) ) ;
#41 = CIRCLE ( 'NONE', #193, 57.49999999999999300 ) ;
#42 = ORIENTED_EDGE ( 'NONE', *, *, #11, .T. ) ;
#43 = AXIS2_PLACEMENT_3D ( 'NONE', #111, #56, #186 ) ;
#44 = EDGE_LOOP ( 'NONE', ( #124, #119 ) ) ;
#45 = ORIENTED_EDGE ( 'NONE', *, *, #108, .F. ) ;
#46 = CARTESIAN_POINT ( 'NONE',  ( 50.00000000000000000, 6.123233995736766100E-015, 0.0000000000000000000 ) ) ;
#47 = FACE_OUTER_BOUND ( 'NONE', #138, .T. ) ;
#48 = CARTESIAN_POINT ( 'NONE',  ( -57.49999999999999300, 0.0000000000000000000, 15.00000000000000000 ) ) ;
#49 = ORIENTED_EDGE ( 'NONE', *, *, #74, .F. ) ;
#50 = DIRECTION ( 'NONE',  ( -0.0000000000000000000, -0.0000000000000000000, -1.000000000000000000 ) ) ;
#51 = FILL_AREA_STYLE_COLOUR ( '', #128 ) ;
#52 = DIRECTION ( 'NONE',  ( -1.000000000000000000, 0.0000000000000000000, 0.0000000000000000000 ) ) ;
#53 = CARTESIAN_POINT ( 'NONE',  ( 0.0000000000000000000, 0.0000000000000000000, 15.00000000000000000 ) ) ;
#54 = VERTEX_POINT ( 'NONE', #142 ) ;
#55 = ORIENTED_EDGE ( 'NONE', *, *, #38, .F. ) ;
#56 = DIRECTION ( 'NONE',  ( 0.0000000000000000000, 0.0000000000000000000, 1.000000000000000000 ) ) ;
#57 = CIRCLE ( 'NONE', #87, 50.00000000000000000 ) ;
#58 = LINE ( 'NONE', #96, #189 ) ;
#59 = DIRECTION ( 'NONE',  ( -0.0000000000000000000, -0.0000000000000000000, -1.000000000000000000 ) ) ;
#60 = EDGE_LOOP ( 'NONE', ( #129, #76 ) ) ;
#61 = ORIENTED_EDGE ( 'NONE', *, *, #108, .T. ) ;
#62 = CARTESIAN_POINT ( 'NONE',  ( -57.49999999999999300, 0.0000000000000000000, 0.0000000000000000000 ) ) ;
#63 =( NAMED_UNIT ( * ) SI_UNIT ( $, .STERADIAN. ) SOLID_ANGLE_UNIT ( ) );
#64 = AXIS2_PLACEMENT_3D ( 'NONE', #33, #59, #90 ) ;
#65 = DIRECTION ( 'NONE',  ( -0.0000000000000000000, -0.0000000000000000000, -1.000000000000000000 ) ) ;
#66 = APPLICATION_PROTOCOL_DEFINITION ( 'draft international standard', 'automotive_design', 1998, #133 ) ;
#67 = FACE_OUTER_BOUND ( 'NONE', #135, .T. ) ;
#68 = AXIS2_PLACEMENT_3D ( 'NONE', #202, #147, #19 ) ;
#69 = ORIENTED_EDGE ( 'NONE', *, *, #85, .F. ) ;
#70 = AXIS2_PLACEMENT_3D ( 'NONE', #126, #214, #80 ) ;
#71 = ADVANCED_FACE ( 'NONE', ( #67 ), #30, .F. ) ;
#72 = ORIENTED_EDGE ( 'NONE', *, *, #85, .T. ) ;
#73 = AXIS2_PLACEMENT_3D ( 'NONE', #145, #199, #40 ) ;
#74 = EDGE_CURVE ( 'NONE', #143, #191, #141, .T. ) ;
#75 = MECHANICAL_DESIGN_GEOMETRIC_PRESENTATION_REPRESENTATION (  '', ( #136 ), #208 ) ;
#76 = ORIENTED_EDGE ( 'NONE', *, *, #207, .F. ) ;
#77 = AXIS2_PLACEMENT_3D ( 'NONE', #29, #140, #109 ) ;
#78 = DIRECTION ( 'NONE',  ( 1.000000000000000000, 0.0000000000000000000, -0.0000000000000000000 ) ) ;
#79 = FACE_OUTER_BOUND ( 'NONE', #21, .T. ) ;
#80 = DIRECTION ( 'NONE',  ( 1.000000000000000000, 0.0000000000000000000, 0.0000000000000000000 ) ) ;
#81 = CARTESIAN_POINT ( 'NONE',  ( 0.0000000000000000000, 0.0000000000000000000, 0.0000000000000000000 ) ) ;
#82 = PRODUCT_DEFINITION_FORMATION_WITH_SPECIFIED_SOURCE ( 'ANY', '', #115, .NOT_KNOWN. ) ;
#83 = CARTESIAN_POINT ( 'NONE',  ( 0.0000000000000000000, 0.0000000000000000000, 0.0000000000000000000 ) ) ;
#84 = EDGE_LOOP ( 'NONE', ( #55, #177, #182, #49 ) ) ;
#85 = EDGE_CURVE ( 'NONE', #143, #117, #200, .T. ) ;
#86 = FILL_AREA_STYLE ('',( #51 ) ) ;
#87 = AXIS2_PLACEMENT_3D ( 'NONE', #95, #36, #39 ) ;
#88 = EDGE_CURVE ( 'NONE', #117, #17, #25, .T. ) ;
#89 =( GEOMETRIC_REPRESENTATION_CONTEXT ( 3 ) GLOBAL_UNCERTAINTY_ASSIGNED_CONTEXT ( ( #179 ) ) GLOBAL_UNIT_ASSIGNED_CONTEXT ( ( #171, #184, #205 ) ) REPRESENTATION_CONTEXT ( 'NONE', 'WORKASPACE' ) );
#90 = DIRECTION ( 'NONE',  ( -1.000000000000000000, 0.0000000000000000000, 0.0000000000000000000 ) ) ;
#91 = CARTESIAN_POINT ( 'NONE',  ( -50.00000000000000000, 0.0000000000000000000, 15.00000000000000000 ) ) ;
#92 = ORIENTED_EDGE ( 'NONE', *, *, #190, .F. ) ;
#93 = AXIS2_PLACEMENT_3D ( 'NONE', #28, #122, #12 ) ;
#94 = ADVANCED_BREP_SHAPE_REPRESENTATION ( 'usi-remo-03_entretoise brosse', ( #150, #43 ), #98 ) ;
#95 = CARTESIAN_POINT ( 'NONE',  ( 0.0000000000000000000, 0.0000000000000000000, 0.0000000000000000000 ) ) ;
#96 = CARTESIAN_POINT ( 'NONE',  ( -50.00000000000000000, 0.0000000000000000000, 15.00000000000000000 ) ) ;
#97 = FACE_OUTER_BOUND ( 'NONE', #60, .T. ) ;
#98 =( GEOMETRIC_REPRESENTATION_CONTEXT ( 3 ) GLOBAL_UNCERTAINTY_ASSIGNED_CONTEXT ( ( #188 ) ) GLOBAL_UNIT_ASSIGNED_CONTEXT ( ( #123, #166, #63 ) ) REPRESENTATION_CONTEXT ( 'NONE', 'WORKASPACE' ) );
#99 = SURFACE_STYLE_FILL_AREA ( #86 ) ;
#100 = COLOUR_RGB ( '',0.7921568627450980000, 0.8196078431372548800, 0.9333333333333333500 ) ;
#101 = PRODUCT_DEFINITION ( 'UNKNOWN', '', #82, #183 ) ;
#102 = DIRECTION ( 'NONE',  ( -0.0000000000000000000, -0.0000000000000000000, -1.000000000000000000 ) ) ;
#103 = UNCERTAINTY_MEASURE_WITH_UNIT (LENGTH_MEASURE( 1.000000000000000100E-005 ), #149, 'distance_accuracy_value', 'NONE');
#104 = EDGE_CURVE ( 'NONE', #148, #26, #57, .T. ) ;
#105 = LINE ( 'NONE', #169, #155 ) ;
#106 = DIRECTION ( 'NONE',  ( -0.0000000000000000000, -0.0000000000000000000, -1.000000000000000000 ) ) ;
#107 = CARTESIAN_POINT ( 'NONE',  ( 57.49999999999999300, 7.041719095097280500E-015, 15.00000000000000000 ) ) ;
#108 = EDGE_CURVE ( 'NONE', #26, #148, #151, .T. ) ;
#109 = DIRECTION ( 'NONE',  ( 1.000000000000000000, 0.0000000000000000000, 0.0000000000000000000 ) ) ;
#110 = DIRECTION ( 'NONE',  ( 1.000000000000000000, 0.0000000000000000000, 0.0000000000000000000 ) ) ;
#111 = CARTESIAN_POINT ( 'NONE',  ( 0.0000000000000000000, 0.0000000000000000000, 0.0000000000000000000 ) ) ;
#112 = ADVANCED_FACE ( 'NONE', ( #97, #13 ), #163, .F. ) ;
#113 = APPLICATION_CONTEXT ( 'automotive_design' ) ;
#114 = ORIENTED_EDGE ( 'NONE', *, *, #190, .T. ) ;
#115 = PRODUCT ( 'usi-remo-03_entretoise brosse', 'usi-remo-03_entretoise brosse', '', ( #4 ) ) ;
#116 = AXIS2_PLACEMENT_3D ( 'NONE', #210, #212, #78 ) ;
#117 = VERTEX_POINT ( 'NONE', #107 ) ;
#118 = AXIS2_PLACEMENT_3D ( 'NONE', #15, #201, #110 ) ;
#119 = ORIENTED_EDGE ( 'NONE', *, *, #11, .F. ) ;
#120 = CARTESIAN_POINT ( 'NONE',  ( 57.49999999999999300, 7.041719095097280500E-015, 0.0000000000000000000 ) ) ;
#121 = DIRECTION ( 'NONE',  ( 0.0000000000000000000, 0.0000000000000000000, 1.000000000000000000 ) ) ;
#122 = DIRECTION ( 'NONE',  ( 0.0000000000000000000, 0.0000000000000000000, 1.000000000000000000 ) ) ;
#123 =( LENGTH_UNIT ( ) NAMED_UNIT ( * ) SI_UNIT ( .MILLI., .METRE. ) );
#124 = ORIENTED_EDGE ( 'NONE', *, *, #139, .F. ) ;
#125 = CARTESIAN_POINT ( 'NONE',  ( -57.49999999999999300, 0.0000000000000000000, 15.00000000000000000 ) ) ;
#126 = CARTESIAN_POINT ( 'NONE',  ( 0.0000000000000000000, 0.0000000000000000000, 15.00000000000000000 ) ) ;
#127 =( NAMED_UNIT ( * ) PLANE_ANGLE_UNIT ( ) SI_UNIT ( $, .RADIAN. ) );
#128 = COLOUR_RGB ( '',0.7921568627450980000, 0.8196078431372548800, 0.9333333333333333500 ) ;
#129 = ORIENTED_EDGE ( 'NONE', *, *, #1, .F. ) ;
#130 =( NAMED_UNIT ( * ) SI_UNIT ( $, .STERADIAN. ) SOLID_ANGLE_UNIT ( ) );
#131 = SURFACE_STYLE_USAGE ( .BOTH. , #185 ) ;
#132 = PRESENTATION_LAYER_ASSIGNMENT (  '', '', ( #23 ) ) ;
#133 = APPLICATION_CONTEXT ( 'automotive_design' ) ;
#134 = APPLICATION_PROTOCOL_DEFINITION ( 'draft international standard', 'automotive_design', 1998, #113 ) ;
#135 = EDGE_LOOP ( 'NONE', ( #22, #187, #45, #92 ) ) ;
#136 = STYLED_ITEM ( 'NONE', ( #158 ), #150 ) ;
#137 = AXIS2_PLACEMENT_3D ( 'NONE', #83, #34, #16 ) ;
#138 = EDGE_LOOP ( 'NONE', ( #5, #69, #175, #167 ) ) ;
#139 = EDGE_CURVE ( 'NONE', #10, #54, #8, .T. ) ;
#140 = DIRECTION ( 'NONE',  ( 0.0000000000000000000, 0.0000000000000000000, 1.000000000000000000 ) ) ;
#141 = LINE ( 'NONE', #48, #181 ) ;
#142 = CARTESIAN_POINT ( 'NONE',  ( 50.00000000000000000, 6.123233995736766100E-015, 15.00000000000000000 ) ) ;
#143 = VERTEX_POINT ( 'NONE', #125 ) ;
#144 = DIRECTION ( 'NONE',  ( 0.0000000000000000000, 0.0000000000000000000, 1.000000000000000000 ) ) ;
#145 = CARTESIAN_POINT ( 'NONE',  ( 0.0000000000000000000, 0.0000000000000000000, 15.00000000000000000 ) ) ;
#146 = CYLINDRICAL_SURFACE ( 'NONE', #68, 57.49999999999999300 ) ;
#147 = DIRECTION ( 'NONE',  ( -0.0000000000000000000, -0.0000000000000000000, -1.000000000000000000 ) ) ;
#148 = VERTEX_POINT ( 'NONE', #46 ) ;
#149 =( LENGTH_UNIT ( ) NAMED_UNIT ( * ) SI_UNIT ( .MILLI., .METRE. ) );
#150 = MANIFOLD_SOLID_BREP ( 'Boss.-Extru.1', #159 ) ;
#151 = CIRCLE ( 'NONE', #118, 50.00000000000000000 ) ;
#152 = ADVANCED_FACE ( 'NONE', ( #176 ), #211, .F. ) ;
#153 = ADVANCED_FACE ( 'NONE', ( #20 ), #146, .T. ) ;
#154 = PRESENTATION_LAYER_ASSIGNMENT (  '', '', ( #136 ) ) ;
#155 = VECTOR ( 'NONE', #50, 1000.000000000000000 ) ;
#156 = ADVANCED_FACE ( 'NONE', ( #47 ), #24, .T. ) ;
#157 = AXIS2_PLACEMENT_3D ( 'NONE', #180, #121, #194 ) ;
#158 = PRESENTATION_STYLE_ASSIGNMENT (( #168 ) ) ;
#159 = CLOSED_SHELL ( 'NONE', ( #71, #153, #6, #112, #156, #152 ) ) ;
#160 = MECHANICAL_DESIGN_GEOMETRIC_PRESENTATION_REPRESENTATION (  '', ( #23 ), #89 ) ;
#161 = SHAPE_DEFINITION_REPRESENTATION ( #9, #94 ) ;
#162 = CARTESIAN_POINT ( 'NONE',  ( 0.0000000000000000000, 0.0000000000000000000, 15.00000000000000000 ) ) ;
#163 = PLANE ( 'NONE',  #137 ) ;
#164 = PLANE ( 'NONE',  #116 ) ;
#165 = DIRECTION ( 'NONE',  ( 0.0000000000000000000, 0.0000000000000000000, 1.000000000000000000 ) ) ;
#166 =( NAMED_UNIT ( * ) PLANE_ANGLE_UNIT ( ) SI_UNIT ( $, .RADIAN. ) );
#167 = ORIENTED_EDGE ( 'NONE', *, *, #1, .T. ) ;
#168 = SURFACE_STYLE_USAGE ( .BOTH. , #37 ) ;
#169 = CARTESIAN_POINT ( 'NONE',  ( 50.00000000000000000, 6.123233995736766100E-015, 15.00000000000000000 ) ) ;
#170 = PRESENTATION_STYLE_ASSIGNMENT (( #131 ) ) ;
#171 =( LENGTH_UNIT ( ) NAMED_UNIT ( * ) SI_UNIT ( .MILLI., .METRE. ) );
#172 = ORIENTED_EDGE ( 'NONE', *, *, #104, .F. ) ;
#173 = ORIENTED_EDGE ( 'NONE', *, *, #104, .T. ) ;
#174 = AXIS2_PLACEMENT_3D ( 'NONE', #162, #165, #178 ) ;
#175 = ORIENTED_EDGE ( 'NONE', *, *, #74, .T. ) ;
#176 = FACE_OUTER_BOUND ( 'NONE', #192, .T. ) ;
#177 = ORIENTED_EDGE ( 'NONE', *, *, #88, .T. ) ;
#178 = DIRECTION ( 'NONE',  ( 1.000000000000000000, 0.0000000000000000000, 0.0000000000000000000 ) ) ;
#179 = UNCERTAINTY_MEASURE_WITH_UNIT (LENGTH_MEASURE( 1.000000000000000100E-005 ), #171, 'distance_accuracy_value', 'NONE');
#180 = CARTESIAN_POINT ( 'NONE',  ( 0.0000000000000000000, 0.0000000000000000000, 0.0000000000000000000 ) ) ;
#181 = VECTOR ( 'NONE', #102, 1000.000000000000000 ) ;
#182 = ORIENTED_EDGE ( 'NONE', *, *, #207, .T. ) ;
#183 = PRODUCT_DEFINITION_CONTEXT ( 'detailed design', #113, 'design' ) ;
#184 =( NAMED_UNIT ( * ) PLANE_ANGLE_UNIT ( ) SI_UNIT ( $, .RADIAN. ) );
#185 = SURFACE_SIDE_STYLE ('',( #99 ) ) ;
#186 = DIRECTION ( 'NONE',  ( 1.000000000000000000, 0.0000000000000000000, 0.0000000000000000000 ) ) ;
#187 = ORIENTED_EDGE ( 'NONE', *, *, #198, .T. ) ;
#188 = UNCERTAINTY_MEASURE_WITH_UNIT (LENGTH_MEASURE( 1.000000000000000100E-005 ), #123, 'distance_accuracy_value', 'NONE');
#189 = VECTOR ( 'NONE', #3, 1000.000000000000000 ) ;
#190 = EDGE_CURVE ( 'NONE', #10, #26, #58, .T. ) ;
#191 = VERTEX_POINT ( 'NONE', #62 ) ;
#192 = EDGE_LOOP ( 'NONE', ( #32, #42, #114, #172 ) ) ;
#193 = AXIS2_PLACEMENT_3D ( 'NONE', #81, #144, #14 ) ;
#194 = DIRECTION ( 'NONE',  ( 1.000000000000000000, 0.0000000000000000000, 0.0000000000000000000 ) ) ;
#195 = VECTOR ( 'NONE', #106, 1000.000000000000000 ) ;
#196 = CIRCLE ( 'NONE', #174, 57.49999999999999300 ) ;
#197 = CARTESIAN_POINT ( 'NONE',  ( 57.49999999999999300, 7.041719095097280500E-015, 15.00000000000000000 ) ) ;
#198 = EDGE_CURVE ( 'NONE', #54, #148, #105, .T. ) ;
#199 = DIRECTION ( 'NONE',  ( -0.0000000000000000000, -0.0000000000000000000, -1.000000000000000000 ) ) ;
#200 = CIRCLE ( 'NONE', #77, 57.49999999999999300 ) ;
#201 = DIRECTION ( 'NONE',  ( 0.0000000000000000000, 0.0000000000000000000, 1.000000000000000000 ) ) ;
#202 = CARTESIAN_POINT ( 'NONE',  ( 0.0000000000000000000, 0.0000000000000000000, 15.00000000000000000 ) ) ;
#203 = SURFACE_STYLE_FILL_AREA ( #18 ) ;
#204 = ORIENTED_EDGE ( 'NONE', *, *, #38, .T. ) ;
#205 =( NAMED_UNIT ( * ) SI_UNIT ( $, .STERADIAN. ) SOLID_ANGLE_UNIT ( ) );
#206 = FACE_BOUND ( 'NONE', #44, .T. ) ;
#207 = EDGE_CURVE ( 'NONE', #17, #191, #41, .T. ) ;
#208 =( GEOMETRIC_REPRESENTATION_CONTEXT ( 3 ) GLOBAL_UNCERTAINTY_ASSIGNED_CONTEXT ( ( #103 ) ) GLOBAL_UNIT_ASSIGNED_CONTEXT ( ( #149, #127, #130 ) ) REPRESENTATION_CONTEXT ( 'NONE', 'WORKASPACE' ) );
#209 = EDGE_LOOP ( 'NONE', ( #61, #173 ) ) ;
#210 = CARTESIAN_POINT ( 'NONE',  ( 0.0000000000000000000, 0.0000000000000000000, 15.00000000000000000 ) ) ;
#211 = CYLINDRICAL_SURFACE ( 'NONE', #73, 50.00000000000000000 ) ;
#212 = DIRECTION ( 'NONE',  ( 0.0000000000000000000, 0.0000000000000000000, 1.000000000000000000 ) ) ;
#213 = PRODUCT_RELATED_PRODUCT_CATEGORY ( 'part', '', ( #115 ) ) ;
#214 = DIRECTION ( 'NONE',  ( 0.0000000000000000000, 0.0000000000000000000, 1.000000000000000000 ) ) ;
ENDSEC;
END-ISO-10303-21;
