ISO-10303-21;
HEADER;
FILE_DESCRIPTION(('CATIA V5 STEP Exchange'),'2;1');

FILE_NAME('C:\\Users\\33dyl\\Desktop\\D\X2\00F4\X0\me\\FINAL\\PartDome.stp','2019-06-27T12:24:15+00:00',('none'),('none'),'CATIA Version 5 Release 21 GA (IN-10)','CATIA V5 STEP AP203','none');

FILE_SCHEMA(('CONFIG_CONTROL_DESIGN'));

ENDSEC;
/* file written by CATIA V5R21 */
DATA;
#5=PRODUCT('ArceauCentral','','',(#2)) ;
#1=APPLICATION_CONTEXT('configuration controlled 3D design of mechanical parts and assemblies') ;
#14=PRODUCT_DEFINITION('',' ',#6,#3) ;
#16=SECURITY_CLASSIFICATION(' ',' ',#15) ;
#15=SECURITY_CLASSIFICATION_LEVEL('unclassified') ;
#47=CARTESIAN_POINT(' ',(0.,0.,0.)) ;
#52=CARTESIAN_POINT('Axis2P3D Location',(18.,102.451905284,566.551905284)) ;
#57=CARTESIAN_POINT('Line Origine',(-27.,102.451905284,566.551905284)) ;
#61=CARTESIAN_POINT('Vertex',(-12.,102.451905284,566.551905284)) ;
#63=CARTESIAN_POINT('Vertex',(-42.,102.451905284,566.551905284)) ;
#66=CARTESIAN_POINT('Line Origine',(-12.,37.5,604.051905284)) ;
#70=CARTESIAN_POINT('Vertex',(-12.,-27.4519052838,641.551905284)) ;
#73=CARTESIAN_POINT('Line Origine',(-27.,-27.4519052838,641.551905284)) ;
#77=CARTESIAN_POINT('Vertex',(-42.,-27.4519052838,641.551905284)) ;
#80=CARTESIAN_POINT('Line Origine',(-42.,37.5,604.051905284)) ;
#92=CARTESIAN_POINT('Line Origine',(63.,-27.4519052838,641.551905284)) ;
#96=CARTESIAN_POINT('Vertex',(18.,-27.4519052838,641.551905284)) ;
#98=CARTESIAN_POINT('Vertex',(108.,-27.4519052838,641.551905284)) ;
#101=CARTESIAN_POINT('Line Origine',(18.,37.5,604.051905284)) ;
#105=CARTESIAN_POINT('Vertex',(18.,102.451905284,566.551905284)) ;
#108=CARTESIAN_POINT('Line Origine',(63.,102.451905284,566.551905284)) ;
#112=CARTESIAN_POINT('Vertex',(108.,102.451905284,566.551905284)) ;
#115=CARTESIAN_POINT('Line Origine',(108.,37.5,604.051905284)) ;
#127=CARTESIAN_POINT('Axis2P3D Location',(18.,0.,0.)) ;
#132=CARTESIAN_POINT('Line Origine',(18.,-46.2019052838,609.075952642)) ;
#136=CARTESIAN_POINT('Vertex',(18.,-64.9519052838,576.6)) ;
#139=CARTESIAN_POINT('Axis2P3D Location',(18.,0.,539.1)) ;
#143=CARTESIAN_POINT('Vertex',(18.,64.9519052838,501.6)) ;
#146=CARTESIAN_POINT('Line Origine',(18.,83.7019052838,534.075952642)) ;
#157=CARTESIAN_POINT('Axis2P3D Location',(18.,0.,539.1)) ;
#161=CARTESIAN_POINT('Vertex',(18.,-25.,539.1)) ;
#163=CARTESIAN_POINT('Vertex',(18.,25.,539.1)) ;
#166=CARTESIAN_POINT('Axis2P3D Location',(18.,0.,539.1)) ;
#176=CARTESIAN_POINT('Axis2P3D Location',(3.,0.,539.1)) ;
#181=CARTESIAN_POINT('Line Origine',(3.,-64.9519052838,576.6)) ;
#185=CARTESIAN_POINT('Vertex',(-12.,-64.9519052838,576.6)) ;
#188=CARTESIAN_POINT('Axis2P3D Location',(-12.,0.,539.1)) ;
#192=CARTESIAN_POINT('Vertex',(-12.,64.9519052838,501.6)) ;
#195=CARTESIAN_POINT('Line Origine',(3.,64.9519052838,501.6)) ;
#207=CARTESIAN_POINT('Axis2P3D Location',(-12.,0.,0.)) ;
#212=CARTESIAN_POINT('Line Origine',(-12.,83.7019052838,534.075952642)) ;
#217=CARTESIAN_POINT('Line Origine',(-12.,-46.2019052838,609.075952642)) ;
#228=CARTESIAN_POINT('Axis2P3D Location',(-12.,0.,539.1)) ;
#232=CARTESIAN_POINT('Vertex',(-12.,25.,539.1)) ;
#234=CARTESIAN_POINT('Vertex',(-12.,-25.,539.1)) ;
#237=CARTESIAN_POINT('Axis2P3D Location',(-12.,0.,539.1)) ;
#247=CARTESIAN_POINT('Axis2P3D Location',(3.,0.,539.1)) ;
#252=CARTESIAN_POINT('Line Origine',(3.,-25.,539.1)) ;
#257=CARTESIAN_POINT('Line Origine',(3.,25.,539.1)) ;
#276=CARTESIAN_POINT('Axis2P3D Location',(-12.,-12.4519052838,667.532667397)) ;
#281=CARTESIAN_POINT('Line Origine',(108.,-19.9519052838,654.542286341)) ;
#285=CARTESIAN_POINT('Vertex',(108.,-12.4519052838,667.532667397)) ;
#288=CARTESIAN_POINT('Line Origine',(33.,-12.4519052838,667.532667397)) ;
#292=CARTESIAN_POINT('Vertex',(-42.,-12.4519052838,667.532667397)) ;
#295=CARTESIAN_POINT('Line Origine',(-42.,-19.9519052838,654.542286341)) ;
#311=CARTESIAN_POINT('Axis2P3D Location',(-12.,64.9519052838,501.6)) ;
#316=CARTESIAN_POINT('Line Origine',(33.,117.451905284,592.532667397)) ;
#320=CARTESIAN_POINT('Vertex',(-42.,117.451905284,592.532667397)) ;
#322=CARTESIAN_POINT('Vertex',(108.,117.451905284,592.532667397)) ;
#325=CARTESIAN_POINT('Line Origine',(108.,109.951905284,579.542286341)) ;
#330=CARTESIAN_POINT('Line Origine',(-42.,109.951905284,579.542286341)) ;
#346=CARTESIAN_POINT('Axis2P3D Location',(-12.,-12.4519052838,667.532667397)) ;
#351=CARTESIAN_POINT('Line Origine',(108.,52.5,630.032667397)) ;
#356=CARTESIAN_POINT('Line Origine',(-42.,52.5,630.032667397)) ;
#368=CARTESIAN_POINT('Axis2P3D Location',(-42.,0.,0.)) ;
#380=CARTESIAN_POINT('Axis2P3D Location',(108.,0.,0.)) ;
#53=DIRECTION('Axis2P3D Direction',(-0.,0.5,0.866025403784)) ;
#54=DIRECTION('Axis2P3D XDirection',(0.,-0.866025403784,0.5)) ;
#58=DIRECTION('Vector Direction',(-1.,0.,0.)) ;
#67=DIRECTION('Vector Direction',(0.,0.866025403784,-0.5)) ;
#74=DIRECTION('Vector Direction',(-1.,0.,0.)) ;
#81=DIRECTION('Vector Direction',(0.,0.866025403784,-0.5)) ;
#93=DIRECTION('Vector Direction',(1.,0.,0.)) ;
#102=DIRECTION('Vector Direction',(0.,-0.866025403784,0.5)) ;
#109=DIRECTION('Vector Direction',(1.,0.,0.)) ;
#116=DIRECTION('Vector Direction',(0.,-0.866025403784,0.5)) ;
#128=DIRECTION('Axis2P3D Direction',(1.,0.,0.)) ;
#129=DIRECTION('Axis2P3D XDirection',(0.,1.,0.)) ;
#133=DIRECTION('Vector Direction',(0.,-0.5,-0.866025403784)) ;
#140=DIRECTION('Axis2P3D Direction',(1.,0.,0.)) ;
#147=DIRECTION('Vector Direction',(0.,0.5,0.866025403784)) ;
#158=DIRECTION('Axis2P3D Direction',(1.,0.,0.)) ;
#167=DIRECTION('Axis2P3D Direction',(1.,0.,0.)) ;
#177=DIRECTION('Axis2P3D Direction',(1.,0.,0.)) ;
#178=DIRECTION('Axis2P3D XDirection',(0.,-0.866025403784,0.5)) ;
#182=DIRECTION('Vector Direction',(1.,0.,0.)) ;
#189=DIRECTION('Axis2P3D Direction',(1.,0.,0.)) ;
#196=DIRECTION('Vector Direction',(1.,0.,0.)) ;
#208=DIRECTION('Axis2P3D Direction',(1.,0.,0.)) ;
#209=DIRECTION('Axis2P3D XDirection',(0.,1.,0.)) ;
#213=DIRECTION('Vector Direction',(0.,0.5,0.866025403784)) ;
#218=DIRECTION('Vector Direction',(0.,-0.5,-0.866025403784)) ;
#229=DIRECTION('Axis2P3D Direction',(1.,0.,0.)) ;
#238=DIRECTION('Axis2P3D Direction',(1.,0.,0.)) ;
#248=DIRECTION('Axis2P3D Direction',(-1.,-0.,0.)) ;
#249=DIRECTION('Axis2P3D XDirection',(0.,-1.,0.)) ;
#253=DIRECTION('Vector Direction',(-1.,0.,0.)) ;
#258=DIRECTION('Vector Direction',(-1.,0.,0.)) ;
#277=DIRECTION('Axis2P3D Direction',(0.,-0.866025403784,0.5)) ;
#278=DIRECTION('Axis2P3D XDirection',(-0.,-0.5,-0.866025403784)) ;
#282=DIRECTION('Vector Direction',(0.,-0.5,-0.866025403784)) ;
#289=DIRECTION('Vector Direction',(1.,0.,0.)) ;
#296=DIRECTION('Vector Direction',(0.,-0.5,-0.866025403784)) ;
#312=DIRECTION('Axis2P3D Direction',(0.,0.866025403784,-0.5)) ;
#313=DIRECTION('Axis2P3D XDirection',(0.,0.5,0.866025403784)) ;
#317=DIRECTION('Vector Direction',(1.,0.,0.)) ;
#326=DIRECTION('Vector Direction',(0.,0.5,0.866025403784)) ;
#331=DIRECTION('Vector Direction',(0.,0.5,0.866025403784)) ;
#347=DIRECTION('Axis2P3D Direction',(0.,-0.5,-0.866025403784)) ;
#348=DIRECTION('Axis2P3D XDirection',(0.,0.866025403784,-0.5)) ;
#352=DIRECTION('Vector Direction',(0.,0.866025403784,-0.5)) ;
#357=DIRECTION('Vector Direction',(0.,-0.866025403784,0.5)) ;
#369=DIRECTION('Axis2P3D Direction',(-1.,-0.,0.)) ;
#370=DIRECTION('Axis2P3D XDirection',(0.,-1.,-0.)) ;
#381=DIRECTION('Axis2P3D Direction',(1.,0.,0.)) ;
#382=DIRECTION('Axis2P3D XDirection',(0.,1.,0.)) ;
#48=AXIS2_PLACEMENT_3D(' ',#47,$,$) ;
#55=AXIS2_PLACEMENT_3D('Plane Axis2P3D',#52,#53,#54) ;
#130=AXIS2_PLACEMENT_3D('Plane Axis2P3D',#127,#128,#129) ;
#141=AXIS2_PLACEMENT_3D('Circle Axis2P3D',#139,#140,$) ;
#159=AXIS2_PLACEMENT_3D('Circle Axis2P3D',#157,#158,$) ;
#168=AXIS2_PLACEMENT_3D('Circle Axis2P3D',#166,#167,$) ;
#179=AXIS2_PLACEMENT_3D('Cylinder Axis2P3D',#176,#177,#178) ;
#190=AXIS2_PLACEMENT_3D('Circle Axis2P3D',#188,#189,$) ;
#210=AXIS2_PLACEMENT_3D('Plane Axis2P3D',#207,#208,#209) ;
#230=AXIS2_PLACEMENT_3D('Circle Axis2P3D',#228,#229,$) ;
#239=AXIS2_PLACEMENT_3D('Circle Axis2P3D',#237,#238,$) ;
#250=AXIS2_PLACEMENT_3D('Cylinder Axis2P3D',#247,#248,#249) ;
#279=AXIS2_PLACEMENT_3D('Plane Axis2P3D',#276,#277,#278) ;
#314=AXIS2_PLACEMENT_3D('Plane Axis2P3D',#311,#312,#313) ;
#349=AXIS2_PLACEMENT_3D('Plane Axis2P3D',#346,#347,#348) ;
#371=AXIS2_PLACEMENT_3D('Plane Axis2P3D',#368,#369,#370) ;
#383=AXIS2_PLACEMENT_3D('Plane Axis2P3D',#380,#381,#382) ;
#40=PRODUCT_DEFINITION_SHAPE(' ',' ',#14) ;
#31=APPROVAL_PERSON_ORGANIZATION(#25,#21,#19) ;
#25=PERSON_AND_ORGANIZATION(#22,#23) ;
#22=PERSON(' ',' ',' ',$,$,$) ;
#23=ORGANIZATION(' ',' ',' ') ;
#21=APPROVAL(#20,' ') ;
#20=APPROVAL_STATUS('not_yet_approved') ;
#19=APPROVAL_ROLE('APPROVER') ;
#13=DATE_AND_TIME(#11,#12) ;
#12=LOCAL_TIME(14,24,14.,#10) ;
#10=COORDINATED_UNIVERSAL_TIME_OFFSET(0,0,.AHEAD.) ;
#86=ORIENTED_EDGE('',*,*,#65,.F.) ;
#87=ORIENTED_EDGE('',*,*,#72,.T.) ;
#88=ORIENTED_EDGE('',*,*,#79,.T.) ;
#89=ORIENTED_EDGE('',*,*,#84,.F.) ;
#121=ORIENTED_EDGE('',*,*,#100,.F.) ;
#122=ORIENTED_EDGE('',*,*,#107,.F.) ;
#123=ORIENTED_EDGE('',*,*,#114,.T.) ;
#124=ORIENTED_EDGE('',*,*,#119,.F.) ;
#152=ORIENTED_EDGE('',*,*,#138,.T.) ;
#153=ORIENTED_EDGE('',*,*,#145,.T.) ;
#154=ORIENTED_EDGE('',*,*,#150,.T.) ;
#155=ORIENTED_EDGE('',*,*,#107,.T.) ;
#172=ORIENTED_EDGE('',*,*,#165,.T.) ;
#173=ORIENTED_EDGE('',*,*,#170,.T.) ;
#201=ORIENTED_EDGE('',*,*,#187,.F.) ;
#202=ORIENTED_EDGE('',*,*,#194,.T.) ;
#203=ORIENTED_EDGE('',*,*,#199,.T.) ;
#204=ORIENTED_EDGE('',*,*,#145,.F.) ;
#223=ORIENTED_EDGE('',*,*,#72,.F.) ;
#224=ORIENTED_EDGE('',*,*,#216,.F.) ;
#225=ORIENTED_EDGE('',*,*,#194,.F.) ;
#226=ORIENTED_EDGE('',*,*,#221,.F.) ;
#243=ORIENTED_EDGE('',*,*,#236,.F.) ;
#244=ORIENTED_EDGE('',*,*,#241,.F.) ;
#263=ORIENTED_EDGE('',*,*,#256,.F.) ;
#264=ORIENTED_EDGE('',*,*,#241,.T.) ;
#265=ORIENTED_EDGE('',*,*,#261,.T.) ;
#266=ORIENTED_EDGE('',*,*,#165,.F.) ;
#270=ORIENTED_EDGE('',*,*,#261,.F.) ;
#271=ORIENTED_EDGE('',*,*,#236,.T.) ;
#272=ORIENTED_EDGE('',*,*,#256,.T.) ;
#273=ORIENTED_EDGE('',*,*,#170,.F.) ;
#301=ORIENTED_EDGE('',*,*,#79,.F.) ;
#302=ORIENTED_EDGE('',*,*,#221,.T.) ;
#303=ORIENTED_EDGE('',*,*,#187,.T.) ;
#304=ORIENTED_EDGE('',*,*,#138,.F.) ;
#305=ORIENTED_EDGE('',*,*,#100,.T.) ;
#306=ORIENTED_EDGE('',*,*,#287,.F.) ;
#307=ORIENTED_EDGE('',*,*,#294,.F.) ;
#308=ORIENTED_EDGE('',*,*,#299,.F.) ;
#336=ORIENTED_EDGE('',*,*,#324,.T.) ;
#337=ORIENTED_EDGE('',*,*,#329,.F.) ;
#338=ORIENTED_EDGE('',*,*,#114,.F.) ;
#339=ORIENTED_EDGE('',*,*,#150,.F.) ;
#340=ORIENTED_EDGE('',*,*,#199,.F.) ;
#341=ORIENTED_EDGE('',*,*,#216,.T.) ;
#342=ORIENTED_EDGE('',*,*,#65,.T.) ;
#343=ORIENTED_EDGE('',*,*,#334,.F.) ;
#362=ORIENTED_EDGE('',*,*,#294,.T.) ;
#363=ORIENTED_EDGE('',*,*,#355,.F.) ;
#364=ORIENTED_EDGE('',*,*,#324,.F.) ;
#365=ORIENTED_EDGE('',*,*,#360,.F.) ;
#374=ORIENTED_EDGE('',*,*,#360,.T.) ;
#375=ORIENTED_EDGE('',*,*,#334,.T.) ;
#376=ORIENTED_EDGE('',*,*,#84,.T.) ;
#377=ORIENTED_EDGE('',*,*,#299,.T.) ;
#386=ORIENTED_EDGE('',*,*,#287,.T.) ;
#387=ORIENTED_EDGE('',*,*,#119,.T.) ;
#388=ORIENTED_EDGE('',*,*,#329,.T.) ;
#389=ORIENTED_EDGE('',*,*,#355,.T.) ;
#174=FACE_BOUND('',#171,.T.) ;
#245=FACE_BOUND('',#242,.T.) ;
#51=CLOSED_SHELL('Closed Shell',(#91,#126,#175,#206,#246,#268,#275,#310,#345,#367,#379,#391)) ;
#59=VECTOR('Line Direction',#58,1.) ;
#68=VECTOR('Line Direction',#67,1.) ;
#75=VECTOR('Line Direction',#74,1.) ;
#82=VECTOR('Line Direction',#81,1.) ;
#94=VECTOR('Line Direction',#93,1.) ;
#103=VECTOR('Line Direction',#102,1.) ;
#110=VECTOR('Line Direction',#109,1.) ;
#117=VECTOR('Line Direction',#116,1.) ;
#134=VECTOR('Line Direction',#133,1.) ;
#148=VECTOR('Line Direction',#147,1.) ;
#183=VECTOR('Line Direction',#182,1.) ;
#197=VECTOR('Line Direction',#196,1.) ;
#214=VECTOR('Line Direction',#213,1.) ;
#219=VECTOR('Line Direction',#218,1.) ;
#254=VECTOR('Line Direction',#253,1.) ;
#259=VECTOR('Line Direction',#258,1.) ;
#283=VECTOR('Line Direction',#282,1.) ;
#290=VECTOR('Line Direction',#289,1.) ;
#297=VECTOR('Line Direction',#296,1.) ;
#318=VECTOR('Line Direction',#317,1.) ;
#327=VECTOR('Line Direction',#326,1.) ;
#332=VECTOR('Line Direction',#331,1.) ;
#353=VECTOR('Line Direction',#352,1.) ;
#358=VECTOR('Line Direction',#357,1.) ;
#393=ADVANCED_BREP_SHAPE_REPRESENTATION('NONE',(#392),#46) ;
#49=SHAPE_REPRESENTATION(' ',(#48),#46) ;
#91=ADVANCED_FACE('Corps principal',(#90),#56,.F.) ;
#126=ADVANCED_FACE('Corps principal',(#125),#56,.F.) ;
#175=ADVANCED_FACE('Corps principal',(#156,#174),#131,.T.) ;
#206=ADVANCED_FACE('Corps principal',(#205),#180,.T.) ;
#246=ADVANCED_FACE('Corps principal',(#227,#245),#211,.F.) ;
#268=ADVANCED_FACE('Corps principal',(#267),#251,.F.) ;
#275=ADVANCED_FACE('Corps principal',(#274),#251,.F.) ;
#310=ADVANCED_FACE('Corps principal',(#309),#280,.T.) ;
#345=ADVANCED_FACE('Corps principal',(#344),#315,.T.) ;
#367=ADVANCED_FACE('Corps principal',(#366),#350,.F.) ;
#379=ADVANCED_FACE('Corps principal',(#378),#372,.T.) ;
#391=ADVANCED_FACE('Corps principal',(#390),#384,.T.) ;
#4=APPLICATION_PROTOCOL_DEFINITION('international standard','config_control_design',1994,#1) ;
#32=APPROVAL_DATE_TIME(#13,#21) ;
#392=MANIFOLD_SOLID_BREP('Corps principal',#51) ;
#11=CALENDAR_DATE(2019,27,6) ;
#30=CC_DESIGN_APPROVAL(#21,(#16,#6,#14)) ;
#18=CC_DESIGN_DATE_AND_TIME_ASSIGNMENT(#13,#17,(#16)) ;
#29=CC_DESIGN_DATE_AND_TIME_ASSIGNMENT(#13,#28,(#14)) ;
#17=DATE_TIME_ROLE('classification_date') ;
#28=DATE_TIME_ROLE('creation_date') ;
#27=CC_DESIGN_PERSON_AND_ORGANIZATION_ASSIGNMENT(#25,#26,(#16)) ;
#33=CC_DESIGN_PERSON_AND_ORGANIZATION_ASSIGNMENT(#25,#34,(#6)) ;
#35=CC_DESIGN_PERSON_AND_ORGANIZATION_ASSIGNMENT(#25,#36,(#6,#14)) ;
#37=CC_DESIGN_PERSON_AND_ORGANIZATION_ASSIGNMENT(#25,#38,(#5)) ;
#26=PERSON_AND_ORGANIZATION_ROLE('classification_officer') ;
#34=PERSON_AND_ORGANIZATION_ROLE('design_supplier') ;
#36=PERSON_AND_ORGANIZATION_ROLE('creator') ;
#38=PERSON_AND_ORGANIZATION_ROLE('design_owner') ;
#39=CC_DESIGN_SECURITY_CLASSIFICATION(#16,(#6)) ;
#142=CIRCLE('generated circle',#141,75.) ;
#160=CIRCLE('generated circle',#159,25.) ;
#169=CIRCLE('generated circle',#168,25.) ;
#191=CIRCLE('generated circle',#190,75.) ;
#231=CIRCLE('generated circle',#230,25.) ;
#240=CIRCLE('generated circle',#239,25.) ;
#394=SHAPE_REPRESENTATION_RELATIONSHIP(' ',' ',#49,#393) ;
#180=CYLINDRICAL_SURFACE('generated cylinder',#179,75.) ;
#251=CYLINDRICAL_SURFACE('generated cylinder',#250,25.) ;
#3=DESIGN_CONTEXT(' ',#1,'design') ;
#65=EDGE_CURVE('',#62,#64,#60,.T.) ;
#72=EDGE_CURVE('',#62,#71,#69,.F.) ;
#79=EDGE_CURVE('',#71,#78,#76,.T.) ;
#84=EDGE_CURVE('',#64,#78,#83,.F.) ;
#100=EDGE_CURVE('',#97,#99,#95,.T.) ;
#107=EDGE_CURVE('',#106,#97,#104,.T.) ;
#114=EDGE_CURVE('',#106,#113,#111,.T.) ;
#119=EDGE_CURVE('',#99,#113,#118,.F.) ;
#138=EDGE_CURVE('',#97,#137,#135,.T.) ;
#145=EDGE_CURVE('',#137,#144,#142,.T.) ;
#150=EDGE_CURVE('',#144,#106,#149,.T.) ;
#165=EDGE_CURVE('',#162,#164,#160,.F.) ;
#170=EDGE_CURVE('',#164,#162,#169,.F.) ;
#187=EDGE_CURVE('',#186,#137,#184,.T.) ;
#194=EDGE_CURVE('',#186,#193,#191,.T.) ;
#199=EDGE_CURVE('',#193,#144,#198,.T.) ;
#216=EDGE_CURVE('',#193,#62,#215,.T.) ;
#221=EDGE_CURVE('',#71,#186,#220,.T.) ;
#236=EDGE_CURVE('',#233,#235,#231,.F.) ;
#241=EDGE_CURVE('',#235,#233,#240,.F.) ;
#256=EDGE_CURVE('',#235,#162,#255,.F.) ;
#261=EDGE_CURVE('',#233,#164,#260,.F.) ;
#287=EDGE_CURVE('',#286,#99,#284,.T.) ;
#294=EDGE_CURVE('',#293,#286,#291,.T.) ;
#299=EDGE_CURVE('',#78,#293,#298,.F.) ;
#324=EDGE_CURVE('',#321,#323,#319,.T.) ;
#329=EDGE_CURVE('',#113,#323,#328,.T.) ;
#334=EDGE_CURVE('',#321,#64,#333,.F.) ;
#355=EDGE_CURVE('',#323,#286,#354,.F.) ;
#360=EDGE_CURVE('',#293,#321,#359,.F.) ;
#85=EDGE_LOOP('',(#86,#87,#88,#89)) ;
#120=EDGE_LOOP('',(#121,#122,#123,#124)) ;
#151=EDGE_LOOP('',(#152,#153,#154,#155)) ;
#171=EDGE_LOOP('',(#172,#173)) ;
#200=EDGE_LOOP('',(#201,#202,#203,#204)) ;
#222=EDGE_LOOP('',(#223,#224,#225,#226)) ;
#242=EDGE_LOOP('',(#243,#244)) ;
#262=EDGE_LOOP('',(#263,#264,#265,#266)) ;
#269=EDGE_LOOP('',(#270,#271,#272,#273)) ;
#300=EDGE_LOOP('',(#301,#302,#303,#304,#305,#306,#307,#308)) ;
#335=EDGE_LOOP('',(#336,#337,#338,#339,#340,#341,#342,#343)) ;
#361=EDGE_LOOP('',(#362,#363,#364,#365)) ;
#373=EDGE_LOOP('',(#374,#375,#376,#377)) ;
#385=EDGE_LOOP('',(#386,#387,#388,#389)) ;
#90=FACE_OUTER_BOUND('',#85,.T.) ;
#125=FACE_OUTER_BOUND('',#120,.T.) ;
#156=FACE_OUTER_BOUND('',#151,.T.) ;
#205=FACE_OUTER_BOUND('',#200,.T.) ;
#227=FACE_OUTER_BOUND('',#222,.T.) ;
#267=FACE_OUTER_BOUND('',#262,.T.) ;
#274=FACE_OUTER_BOUND('',#269,.T.) ;
#309=FACE_OUTER_BOUND('',#300,.T.) ;
#344=FACE_OUTER_BOUND('',#335,.T.) ;
#366=FACE_OUTER_BOUND('',#361,.T.) ;
#378=FACE_OUTER_BOUND('',#373,.T.) ;
#390=FACE_OUTER_BOUND('',#385,.T.) ;
#45=UNCERTAINTY_MEASURE_WITH_UNIT(LENGTH_MEASURE(0.005),#41,'distance_accuracy_value','CONFUSED CURVE UNCERTAINTY') ;
#60=LINE('Line',#57,#59) ;
#69=LINE('Line',#66,#68) ;
#76=LINE('Line',#73,#75) ;
#83=LINE('Line',#80,#82) ;
#95=LINE('Line',#92,#94) ;
#104=LINE('Line',#101,#103) ;
#111=LINE('Line',#108,#110) ;
#118=LINE('Line',#115,#117) ;
#135=LINE('Line',#132,#134) ;
#149=LINE('Line',#146,#148) ;
#184=LINE('Line',#181,#183) ;
#198=LINE('Line',#195,#197) ;
#215=LINE('Line',#212,#214) ;
#220=LINE('Line',#217,#219) ;
#255=LINE('Line',#252,#254) ;
#260=LINE('Line',#257,#259) ;
#284=LINE('Line',#281,#283) ;
#291=LINE('Line',#288,#290) ;
#298=LINE('Line',#295,#297) ;
#319=LINE('Line',#316,#318) ;
#328=LINE('Line',#325,#327) ;
#333=LINE('Line',#330,#332) ;
#354=LINE('Line',#351,#353) ;
#359=LINE('Line',#356,#358) ;
#2=MECHANICAL_CONTEXT(' ',#1,'mechanical') ;
#24=PERSONAL_ADDRESS(' ',' ',' ',' ',' ',' ',' ',' ',' ',' ',' ',' ',(#22),' ') ;
#56=PLANE('',#55) ;
#131=PLANE('',#130) ;
#211=PLANE('',#210) ;
#280=PLANE('',#279) ;
#315=PLANE('',#314) ;
#350=PLANE('',#349) ;
#372=PLANE('',#371) ;
#384=PLANE('',#383) ;
#43=PLANE_ANGLE_MEASURE_WITH_UNIT(PLANE_ANGLE_MEASURE(0.0174532925199),#42) ;
#7=PRODUCT_CATEGORY('part',$) ;
#9=PRODUCT_CATEGORY_RELATIONSHIP(' ',' ',#7,#8) ;
#6=PRODUCT_DEFINITION_FORMATION_WITH_SPECIFIED_SOURCE('',' ',#5,.NOT_KNOWN.) ;
#8=PRODUCT_RELATED_PRODUCT_CATEGORY('detail',$,(#5)) ;
#50=SHAPE_DEFINITION_REPRESENTATION(#40,#49) ;
#62=VERTEX_POINT('',#61) ;
#64=VERTEX_POINT('',#63) ;
#71=VERTEX_POINT('',#70) ;
#78=VERTEX_POINT('',#77) ;
#97=VERTEX_POINT('',#96) ;
#99=VERTEX_POINT('',#98) ;
#106=VERTEX_POINT('',#105) ;
#113=VERTEX_POINT('',#112) ;
#137=VERTEX_POINT('',#136) ;
#144=VERTEX_POINT('',#143) ;
#162=VERTEX_POINT('',#161) ;
#164=VERTEX_POINT('',#163) ;
#186=VERTEX_POINT('',#185) ;
#193=VERTEX_POINT('',#192) ;
#233=VERTEX_POINT('',#232) ;
#235=VERTEX_POINT('',#234) ;
#286=VERTEX_POINT('',#285) ;
#293=VERTEX_POINT('',#292) ;
#321=VERTEX_POINT('',#320) ;
#323=VERTEX_POINT('',#322) ;
#41=(LENGTH_UNIT()NAMED_UNIT(*)SI_UNIT(.MILLI.,.METRE.)) ;
#42=(NAMED_UNIT(*)PLANE_ANGLE_UNIT()SI_UNIT($,.RADIAN.)) ;
#44=(NAMED_UNIT(*)SI_UNIT($,.STERADIAN.)SOLID_ANGLE_UNIT()) ;
#46=(GEOMETRIC_REPRESENTATION_CONTEXT(3)GLOBAL_UNCERTAINTY_ASSIGNED_CONTEXT((#45))GLOBAL_UNIT_ASSIGNED_CONTEXT((#41,#42,#44))REPRESENTATION_CONTEXT(' ',' ')) ;
ENDSEC;
END-ISO-10303-21;
