ISO-10303-21;
HEADER;
FILE_DESCRIPTION(('CATIA V5 STEP Exchange'),'2;1');

FILE_NAME('D:\\Projet_Skate\\projet juin\\systeme_marin\\piece catia\\Axe_Pivot.stp','2019-06-18T07:41:11+00:00',('none'),('none'),'CATIA Version 5-6 Release 2015 SP4 HF8','CATIA V5 STEP AP203','none');

FILE_SCHEMA(('CONFIG_CONTROL_DESIGN'));

ENDSEC;
DATA;
#5=PRODUCT('Axe_Pivot','','',(#2)) ;
#1=APPLICATION_CONTEXT('configuration controlled 3D design of mechanical parts and assemblies') ;
#14=PRODUCT_DEFINITION('',' ',#6,#3) ;
#16=SECURITY_CLASSIFICATION(' ',' ',#15) ;
#15=SECURITY_CLASSIFICATION_LEVEL('unclassified') ;
#46=CARTESIAN_POINT(' ',(0.,0.,0.)) ;
#51=CARTESIAN_POINT('Axis2P3D Location',(25.,0.,0.)) ;
#56=CARTESIAN_POINT('Line Origine',(25.,-2.4,2.93915231795E-016)) ;
#60=CARTESIAN_POINT('Vertex',(0.2,-2.4,2.93915231795E-016)) ;
#62=CARTESIAN_POINT('Vertex',(49.8,-2.4,2.93915231795E-016)) ;
#65=CARTESIAN_POINT('Axis2P3D Location',(49.8,0.,0.)) ;
#69=CARTESIAN_POINT('Vertex',(49.8,2.4,-2.71945867087E-015)) ;
#72=CARTESIAN_POINT('Line Origine',(25.,2.4,0.)) ;
#76=CARTESIAN_POINT('Vertex',(0.2,2.4,-2.71945867087E-015)) ;
#79=CARTESIAN_POINT('Axis2P3D Location',(0.2,0.,0.)) ;
#91=CARTESIAN_POINT('Axis2P3D Location',(0.2,0.,-5.55111512313E-016)) ;
#96=CARTESIAN_POINT('Axis2P3D Location',(0.2,2.2,-6.66133814775E-017)) ;
#100=CARTESIAN_POINT('Vertex',(0.,2.2,-4.80043253281E-016)) ;
#103=CARTESIAN_POINT('Axis2P3D Location',(0.,0.,-5.55111512313E-016)) ;
#107=CARTESIAN_POINT('Vertex',(0.,-2.2,-1.62576888918E-015)) ;
#110=CARTESIAN_POINT('Axis2P3D Location',(0.2,-2.2,4.21884749358E-016)) ;
#122=CARTESIAN_POINT('Axis2P3D Location',(49.8,0.,-5.55111512313E-016)) ;
#127=CARTESIAN_POINT('Axis2P3D Location',(49.8,2.2,-6.66133814775E-017)) ;
#131=CARTESIAN_POINT('Vertex',(50.,2.2,-4.80043253281E-016)) ;
#134=CARTESIAN_POINT('Axis2P3D Location',(49.8,-2.2,4.21884749358E-016)) ;
#138=CARTESIAN_POINT('Vertex',(50.,-2.2,-1.62576888918E-015)) ;
#141=CARTESIAN_POINT('Axis2P3D Location',(50.,0.,-5.55111512313E-016)) ;
#153=CARTESIAN_POINT('Axis2P3D Location',(49.8,0.,0.)) ;
#158=CARTESIAN_POINT('Axis2P3D Location',(0.2,0.,0.)) ;
#170=CARTESIAN_POINT('Axis2P3D Location',(0.2,6.66133814775E-016,7.77156117238E-016)) ;
#175=CARTESIAN_POINT('Axis2P3D Location',(0.,6.66133814775E-016,7.77156117238E-016)) ;
#187=CARTESIAN_POINT('Axis2P3D Location',(49.8,2.22044604925E-016,5.55111512313E-016)) ;
#192=CARTESIAN_POINT('Axis2P3D Location',(50.,2.22044604925E-016,5.55111512313E-016)) ;
#204=CARTESIAN_POINT('Axis2P3D Location',(0.,0.,0.)) ;
#214=CARTESIAN_POINT('Axis2P3D Location',(50.,0.,0.)) ;
#52=DIRECTION('Axis2P3D Direction',(1.,0.,0.)) ;
#53=DIRECTION('Axis2P3D XDirection',(0.,1.,0.)) ;
#57=DIRECTION('Vector Direction',(1.,0.,0.)) ;
#66=DIRECTION('Axis2P3D Direction',(1.,0.,0.)) ;
#73=DIRECTION('Vector Direction',(1.,0.,0.)) ;
#80=DIRECTION('Axis2P3D Direction',(1.,0.,0.)) ;
#92=DIRECTION('Axis2P3D Direction',(1.,-0.,0.)) ;
#93=DIRECTION('Axis2P3D XDirection',(0.,1.,2.0185873175E-016)) ;
#97=DIRECTION('Axis2P3D Direction',(0.,2.22044604925E-016,-1.)) ;
#104=DIRECTION('Axis2P3D Direction',(1.,-0.,0.)) ;
#111=DIRECTION('Axis2P3D Direction',(0.,4.4408920985E-016,1.)) ;
#123=DIRECTION('Axis2P3D Direction',(1.,-0.,0.)) ;
#124=DIRECTION('Axis2P3D XDirection',(0.,1.,2.31296463464E-016)) ;
#128=DIRECTION('Axis2P3D Direction',(0.,2.22044604925E-016,-1.)) ;
#135=DIRECTION('Axis2P3D Direction',(0.,4.4408920985E-016,1.)) ;
#142=DIRECTION('Axis2P3D Direction',(1.,-0.,0.)) ;
#154=DIRECTION('Axis2P3D Direction',(1.,0.,0.)) ;
#159=DIRECTION('Axis2P3D Direction',(1.,0.,0.)) ;
#171=DIRECTION('Axis2P3D Direction',(1.,0.,-0.)) ;
#172=DIRECTION('Axis2P3D XDirection',(0.,-1.,-2.52323414688E-016)) ;
#176=DIRECTION('Axis2P3D Direction',(1.,0.,-0.)) ;
#188=DIRECTION('Axis2P3D Direction',(1.,0.,-0.)) ;
#189=DIRECTION('Axis2P3D XDirection',(0.,-1.,-9.71445146547E-016)) ;
#193=DIRECTION('Axis2P3D Direction',(1.,0.,-0.)) ;
#205=DIRECTION('Axis2P3D Direction',(1.,0.,0.)) ;
#206=DIRECTION('Axis2P3D XDirection',(0.,1.,0.)) ;
#215=DIRECTION('Axis2P3D Direction',(1.,0.,0.)) ;
#216=DIRECTION('Axis2P3D XDirection',(0.,1.,0.)) ;
#47=AXIS2_PLACEMENT_3D(' ',#46,$,$) ;
#54=AXIS2_PLACEMENT_3D('Cylinder Axis2P3D',#51,#52,#53) ;
#67=AXIS2_PLACEMENT_3D('Circle Axis2P3D',#65,#66,$) ;
#81=AXIS2_PLACEMENT_3D('Circle Axis2P3D',#79,#80,$) ;
#94=AXIS2_PLACEMENT_3D('Torus Axis2P3D',#91,#92,#93) ;
#98=AXIS2_PLACEMENT_3D('Circle Axis2P3D',#96,#97,$) ;
#105=AXIS2_PLACEMENT_3D('Circle Axis2P3D',#103,#104,$) ;
#112=AXIS2_PLACEMENT_3D('Circle Axis2P3D',#110,#111,$) ;
#125=AXIS2_PLACEMENT_3D('Torus Axis2P3D',#122,#123,#124) ;
#129=AXIS2_PLACEMENT_3D('Circle Axis2P3D',#127,#128,$) ;
#136=AXIS2_PLACEMENT_3D('Circle Axis2P3D',#134,#135,$) ;
#143=AXIS2_PLACEMENT_3D('Circle Axis2P3D',#141,#142,$) ;
#155=AXIS2_PLACEMENT_3D('Circle Axis2P3D',#153,#154,$) ;
#160=AXIS2_PLACEMENT_3D('Circle Axis2P3D',#158,#159,$) ;
#173=AXIS2_PLACEMENT_3D('Torus Axis2P3D',#170,#171,#172) ;
#177=AXIS2_PLACEMENT_3D('Circle Axis2P3D',#175,#176,$) ;
#190=AXIS2_PLACEMENT_3D('Torus Axis2P3D',#187,#188,#189) ;
#194=AXIS2_PLACEMENT_3D('Circle Axis2P3D',#192,#193,$) ;
#207=AXIS2_PLACEMENT_3D('Plane Axis2P3D',#204,#205,#206) ;
#217=AXIS2_PLACEMENT_3D('Plane Axis2P3D',#214,#215,#216) ;
#40=PRODUCT_DEFINITION_SHAPE(' ',' ',#14) ;
#31=APPROVAL_PERSON_ORGANIZATION(#25,#21,#19) ;
#25=PERSON_AND_ORGANIZATION(#22,#23) ;
#22=PERSON(' ',' ',' ',$,$,$) ;
#23=ORGANIZATION(' ',' ',' ') ;
#21=APPROVAL(#20,' ') ;
#20=APPROVAL_STATUS('not_yet_approved') ;
#19=APPROVAL_ROLE('APPROVER') ;
#13=DATE_AND_TIME(#11,#12) ;
#12=LOCAL_TIME(9,41,11.,#10) ;
#10=COORDINATED_UNIVERSAL_TIME_OFFSET(0,0,.AHEAD.) ;
#85=ORIENTED_EDGE('',*,*,#64,.T.) ;
#86=ORIENTED_EDGE('',*,*,#71,.F.) ;
#87=ORIENTED_EDGE('',*,*,#78,.F.) ;
#88=ORIENTED_EDGE('',*,*,#83,.T.) ;
#116=ORIENTED_EDGE('',*,*,#102,.T.) ;
#117=ORIENTED_EDGE('',*,*,#109,.T.) ;
#118=ORIENTED_EDGE('',*,*,#114,.F.) ;
#119=ORIENTED_EDGE('',*,*,#83,.F.) ;
#147=ORIENTED_EDGE('',*,*,#133,.T.) ;
#148=ORIENTED_EDGE('',*,*,#71,.T.) ;
#149=ORIENTED_EDGE('',*,*,#140,.F.) ;
#150=ORIENTED_EDGE('',*,*,#145,.F.) ;
#164=ORIENTED_EDGE('',*,*,#78,.T.) ;
#165=ORIENTED_EDGE('',*,*,#157,.F.) ;
#166=ORIENTED_EDGE('',*,*,#64,.F.) ;
#167=ORIENTED_EDGE('',*,*,#162,.T.) ;
#181=ORIENTED_EDGE('',*,*,#114,.T.) ;
#182=ORIENTED_EDGE('',*,*,#179,.T.) ;
#183=ORIENTED_EDGE('',*,*,#102,.F.) ;
#184=ORIENTED_EDGE('',*,*,#162,.F.) ;
#198=ORIENTED_EDGE('',*,*,#140,.T.) ;
#199=ORIENTED_EDGE('',*,*,#157,.T.) ;
#200=ORIENTED_EDGE('',*,*,#133,.F.) ;
#201=ORIENTED_EDGE('',*,*,#196,.F.) ;
#210=ORIENTED_EDGE('',*,*,#179,.F.) ;
#211=ORIENTED_EDGE('',*,*,#109,.F.) ;
#220=ORIENTED_EDGE('',*,*,#145,.T.) ;
#221=ORIENTED_EDGE('',*,*,#196,.T.) ;
#50=CLOSED_SHELL('Closed Shell',(#90,#121,#152,#169,#186,#203,#213,#223)) ;
#58=VECTOR('Line Direction',#57,1.) ;
#74=VECTOR('Line Direction',#73,1.) ;
#225=ADVANCED_BREP_SHAPE_REPRESENTATION('NONE',(#224),#45) ;
#48=SHAPE_REPRESENTATION(' ',(#47),#45) ;
#90=ADVANCED_FACE('Corps principal',(#89),#55,.T.) ;
#121=ADVANCED_FACE('Corps principal',(#120),#95,.T.) ;
#152=ADVANCED_FACE('Corps principal',(#151),#126,.T.) ;
#169=ADVANCED_FACE('Corps principal',(#168),#55,.T.) ;
#186=ADVANCED_FACE('Corps principal',(#185),#174,.T.) ;
#203=ADVANCED_FACE('Corps principal',(#202),#191,.T.) ;
#213=ADVANCED_FACE('Corps principal',(#212),#208,.F.) ;
#223=ADVANCED_FACE('Corps principal',(#222),#218,.T.) ;
#4=APPLICATION_PROTOCOL_DEFINITION('international standard','config_control_design',1994,#1) ;
#32=APPROVAL_DATE_TIME(#13,#21) ;
#224=MANIFOLD_SOLID_BREP('Corps principal',#50) ;
#11=CALENDAR_DATE(2019,18,6) ;
#30=CC_DESIGN_APPROVAL(#21,(#16,#6,#14)) ;
#18=CC_DESIGN_DATE_AND_TIME_ASSIGNMENT(#13,#17,(#16)) ;
#29=CC_DESIGN_DATE_AND_TIME_ASSIGNMENT(#13,#28,(#14)) ;
#17=DATE_TIME_ROLE('classification_date') ;
#28=DATE_TIME_ROLE('creation_date') ;
#27=CC_DESIGN_PERSON_AND_ORGANIZATION_ASSIGNMENT(#25,#26,(#16)) ;
#33=CC_DESIGN_PERSON_AND_ORGANIZATION_ASSIGNMENT(#25,#34,(#6)) ;
#35=CC_DESIGN_PERSON_AND_ORGANIZATION_ASSIGNMENT(#25,#36,(#6,#14)) ;
#37=CC_DESIGN_PERSON_AND_ORGANIZATION_ASSIGNMENT(#25,#38,(#5)) ;
#26=PERSON_AND_ORGANIZATION_ROLE('classification_officer') ;
#34=PERSON_AND_ORGANIZATION_ROLE('design_supplier') ;
#36=PERSON_AND_ORGANIZATION_ROLE('creator') ;
#38=PERSON_AND_ORGANIZATION_ROLE('design_owner') ;
#39=CC_DESIGN_SECURITY_CLASSIFICATION(#16,(#6)) ;
#68=CIRCLE('generated circle',#67,2.4) ;
#82=CIRCLE('generated circle',#81,2.4) ;
#99=CIRCLE('generated circle',#98,0.2) ;
#106=CIRCLE('generated circle',#105,2.2) ;
#113=CIRCLE('generated circle',#112,0.2) ;
#130=CIRCLE('generated circle',#129,0.2) ;
#137=CIRCLE('generated circle',#136,0.2) ;
#144=CIRCLE('generated circle',#143,2.2) ;
#156=CIRCLE('generated circle',#155,2.4) ;
#161=CIRCLE('generated circle',#160,2.4) ;
#178=CIRCLE('generated circle',#177,2.2) ;
#195=CIRCLE('generated circle',#194,2.2) ;
#226=SHAPE_REPRESENTATION_RELATIONSHIP(' ',' ',#48,#225) ;
#55=CYLINDRICAL_SURFACE('generated cylinder',#54,2.4) ;
#95=TOROIDAL_SURFACE('homeo Torus',#94,2.2,0.2) ;
#126=TOROIDAL_SURFACE('homeo Torus',#125,2.2,0.2) ;
#174=TOROIDAL_SURFACE('homeo Torus',#173,2.2,0.2) ;
#191=TOROIDAL_SURFACE('homeo Torus',#190,2.2,0.2) ;
#3=DESIGN_CONTEXT(' ',#1,'design') ;
#64=EDGE_CURVE('',#61,#63,#59,.T.) ;
#71=EDGE_CURVE('',#70,#63,#68,.T.) ;
#78=EDGE_CURVE('',#77,#70,#75,.T.) ;
#83=EDGE_CURVE('',#77,#61,#82,.T.) ;
#102=EDGE_CURVE('',#77,#101,#99,.F.) ;
#109=EDGE_CURVE('',#101,#108,#106,.T.) ;
#114=EDGE_CURVE('',#61,#108,#113,.F.) ;
#133=EDGE_CURVE('',#132,#70,#130,.F.) ;
#140=EDGE_CURVE('',#139,#63,#137,.F.) ;
#145=EDGE_CURVE('',#132,#139,#144,.T.) ;
#157=EDGE_CURVE('',#63,#70,#156,.T.) ;
#162=EDGE_CURVE('',#61,#77,#161,.T.) ;
#179=EDGE_CURVE('',#108,#101,#178,.T.) ;
#196=EDGE_CURVE('',#139,#132,#195,.T.) ;
#84=EDGE_LOOP('',(#85,#86,#87,#88)) ;
#115=EDGE_LOOP('',(#116,#117,#118,#119)) ;
#146=EDGE_LOOP('',(#147,#148,#149,#150)) ;
#163=EDGE_LOOP('',(#164,#165,#166,#167)) ;
#180=EDGE_LOOP('',(#181,#182,#183,#184)) ;
#197=EDGE_LOOP('',(#198,#199,#200,#201)) ;
#209=EDGE_LOOP('',(#210,#211)) ;
#219=EDGE_LOOP('',(#220,#221)) ;
#89=FACE_OUTER_BOUND('',#84,.T.) ;
#120=FACE_OUTER_BOUND('',#115,.T.) ;
#151=FACE_OUTER_BOUND('',#146,.T.) ;
#168=FACE_OUTER_BOUND('',#163,.T.) ;
#185=FACE_OUTER_BOUND('',#180,.T.) ;
#202=FACE_OUTER_BOUND('',#197,.T.) ;
#212=FACE_OUTER_BOUND('',#209,.T.) ;
#222=FACE_OUTER_BOUND('',#219,.T.) ;
#44=UNCERTAINTY_MEASURE_WITH_UNIT(LENGTH_MEASURE(0.005),#41,'distance_accuracy_value','CONFUSED CURVE UNCERTAINTY') ;
#59=LINE('Line',#56,#58) ;
#75=LINE('Line',#72,#74) ;
#2=MECHANICAL_CONTEXT(' ',#1,'mechanical') ;
#24=PERSONAL_ADDRESS(' ',' ',' ',' ',' ',' ',' ',' ',' ',' ',' ',' ',(#22),' ') ;
#208=PLANE('',#207) ;
#218=PLANE('',#217) ;
#7=PRODUCT_CATEGORY('part',$) ;
#9=PRODUCT_CATEGORY_RELATIONSHIP(' ',' ',#7,#8) ;
#6=PRODUCT_DEFINITION_FORMATION_WITH_SPECIFIED_SOURCE('',' ',#5,.NOT_KNOWN.) ;
#8=PRODUCT_RELATED_PRODUCT_CATEGORY('detail',$,(#5)) ;
#49=SHAPE_DEFINITION_REPRESENTATION(#40,#48) ;
#61=VERTEX_POINT('',#60) ;
#63=VERTEX_POINT('',#62) ;
#70=VERTEX_POINT('',#69) ;
#77=VERTEX_POINT('',#76) ;
#101=VERTEX_POINT('',#100) ;
#108=VERTEX_POINT('',#107) ;
#132=VERTEX_POINT('',#131) ;
#139=VERTEX_POINT('',#138) ;
#41=(LENGTH_UNIT()NAMED_UNIT(*)SI_UNIT(.MILLI.,.METRE.)) ;
#42=(NAMED_UNIT(*)PLANE_ANGLE_UNIT()SI_UNIT($,.RADIAN.)) ;
#43=(NAMED_UNIT(*)SI_UNIT($,.STERADIAN.)SOLID_ANGLE_UNIT()) ;
#45=(GEOMETRIC_REPRESENTATION_CONTEXT(3)GLOBAL_UNCERTAINTY_ASSIGNED_CONTEXT((#44))GLOBAL_UNIT_ASSIGNED_CONTEXT((#41,#42,#43))REPRESENTATION_CONTEXT(' ',' ')) ;
ENDSEC;
END-ISO-10303-21;
